ISO-10303-21;
HEADER;
FILE_DESCRIPTION (( 'STEP AP203' ),
    '1' );
FILE_NAME ('7844.STEP',
    '2022-06-20T09:24:23',
    ( '' ),
    ( '' ),
    'SwSTEP 2.0',
    'SolidWorks 2019',
    '' );
FILE_SCHEMA (( 'CONFIG_CONTROL_DESIGN' ));
ENDSEC;

DATA;
#1 = APPLICATION_PROTOCOL_DEFINITION ( 'international standard', 'config_control_design', 1994, #123 ) ;
#2 = ORIENTED_EDGE ( 'NONE', *, *, #3, .T. ) ;
#3 = EDGE_CURVE ( 'NONE', #195, #133, #7, .T. ) ;
#4 = ORIENTED_EDGE ( 'NONE', *, *, #103, .T. ) ;
#5 = CARTESIAN_POINT ( 'NONE',  ( 11.00000000000000000, 1.347111479062088405E-15, 7.000000000000000000 ) ) ;
#6 = CIRCLE ( 'NONE', #178, 8.000000000000000000 ) ;
#7 = CIRCLE ( 'NONE', #243, 8.000000000000000000 ) ;
#8 = VERTEX_POINT ( 'NONE', #20 ) ;
#9 = DIRECTION ( 'NONE',  ( 0.000000000000000000, 0.000000000000000000, 1.000000000000000000 ) ) ;
#10 = DIRECTION ( 'NONE',  ( 0.000000000000000000, 0.000000000000000000, 1.000000000000000000 ) ) ;
#11 = ORIENTED_EDGE ( 'NONE', *, *, #233, .T. ) ;
#12 = DIRECTION ( 'NONE',  ( -0.000000000000000000, -0.000000000000000000, -1.000000000000000000 ) ) ;
#13 = CARTESIAN_POINT ( 'NONE',  ( 0.000000000000000000, 0.000000000000000000, 207.0000000000000284 ) ) ;
#14 = APPROVAL_DATE_TIME ( #202, #139 ) ;
#15 = CARTESIAN_POINT ( 'NONE',  ( 0.000000000000000000, 0.000000000000000000, 207.0000000000000284 ) ) ;
#16 = DIRECTION ( 'NONE',  ( 0.000000000000000000, -1.000000000000000000, 0.000000000000000000 ) ) ;
#17 = DATE_AND_TIME ( #180, #160 ) ;
#18 = PLANE ( 'NONE',  #221 ) ;
#19 = PRODUCT_DEFINITION ( 'NEZNÁMÝ', '', #100, #132 ) ;
#20 = CARTESIAN_POINT ( 'NONE',  ( 8.200000000000001066, 0.000000000000000000, 7.000000000000006217 ) ) ;
#21 = COORDINATED_UNIVERSAL_TIME_OFFSET ( 1, 0, .AHEAD. ) ;
#22 = AXIS2_PLACEMENT_3D ( 'NONE', #292, #16, #91 ) ;
#23 = COORDINATED_UNIVERSAL_TIME_OFFSET ( 1, 0, .AHEAD. ) ;
#24 = CC_DESIGN_APPROVAL ( #300, ( #19 ) ) ;
#25 = DIRECTION ( 'NONE',  ( 0.000000000000000000, 0.000000000000000000, 1.000000000000000000 ) ) ;
#26 = LOCAL_TIME ( 11, 24, 23.00000000000000000, #184 ) ;
#27 = ADVANCED_FACE ( 'NONE', ( #174 ), #130, .T. ) ;
#28 = VERTEX_POINT ( 'NONE', #135 ) ;
#29 = LINE ( 'NONE', #119, #262 ) ;
#30 = CARTESIAN_POINT ( 'NONE',  ( 0.000000000000000000, 0.000000000000000000, 0.000000000000000000 ) ) ;
#31 = APPROVAL_PERSON_ORGANIZATION ( #232, #171, #252 ) ;
#32 = LINE ( 'NONE', #5, #193 ) ;
#33 = ORIENTED_EDGE ( 'NONE', *, *, #68, .T. ) ;
#34 = DIRECTION ( 'NONE',  ( -1.000000000000000000, 0.000000000000000000, 0.000000000000000000 ) ) ;
#35 = ORGANIZATION ( 'NEURÈENÝ', 'NEURÈENÝ', '' ) ;
#36 = FACE_BOUND ( 'NONE', #149, .T. ) ;
#37 = ORIENTED_EDGE ( 'NONE', *, *, #68, .F. ) ;
#38 = APPROVAL_STATUS ( 'not_yet_approved' ) ;
#39 = ORIENTED_EDGE ( 'NONE', *, *, #3, .F. ) ;
#40 = APPROVAL_DATE_TIME ( #231, #300 ) ;
#41 = COORDINATED_UNIVERSAL_TIME_OFFSET ( 1, 0, .AHEAD. ) ;
#42 = PERSON_AND_ORGANIZATION_ROLE ( 'design_owner' ) ;
#43 = VECTOR ( 'NONE', #306, 1000.000000000000000 ) ;
#44 = EDGE_CURVE ( 'NONE', #93, #8, #208, .T. ) ;
#45 = DIRECTION ( 'NONE',  ( 1.000000000000000000, 0.000000000000000000, 0.000000000000000000 ) ) ;
#46 = CYLINDRICAL_SURFACE ( 'NONE', #80, 8.000000000000000000 ) ;
#47 = EDGE_CURVE ( 'NONE', #133, #195, #6, .T. ) ;
#48 = CARTESIAN_POINT ( 'NONE',  ( 0.000000000000000000, 0.000000000000000000, 7.200000000000011724 ) ) ;
#49 = CARTESIAN_POINT ( 'NONE',  ( 0.000000000000000000, 0.000000000000000000, 7.000000000000000000 ) ) ;
#50 = CIRCLE ( 'NONE', #129, 11.00000000000000000 ) ;
#51 = CARTESIAN_POINT ( 'NONE',  ( 0.000000000000000000, 0.000000000000000000, 7.000000000000000000 ) ) ;
#52 = DIRECTION ( 'NONE',  ( 0.000000000000000000, 0.000000000000000000, 1.000000000000000000 ) ) ;
#53 = FACE_OUTER_BOUND ( 'NONE', #250, .T. ) ;
#54 = EDGE_CURVE ( 'NONE', #152, #8, #280, .T. ) ;
#55 = LOCAL_TIME ( 11, 24, 23.00000000000000000, #41 ) ;
#56 = DIRECTION ( 'NONE',  ( 1.000000000000000000, 0.000000000000000000, 0.000000000000000000 ) ) ;
#57 = CARTESIAN_POINT ( 'NONE',  ( -8.000000000000000000, 0.000000000000000000, 207.0000000000000284 ) ) ;
#58 = CARTESIAN_POINT ( 'NONE',  ( 0.000000000000000000, 0.000000000000000000, 7.000000000000000000 ) ) ;
#59 = EDGE_LOOP ( 'NONE', ( #264, #270 ) ) ;
#60 = APPROVAL_STATUS ( 'not_yet_approved' ) ;
#61 = ORIENTED_EDGE ( 'NONE', *, *, #120, .F. ) ;
#62 = EDGE_CURVE ( 'NONE', #293, #112, #140, .T. ) ;
#63 = PERSON ( 'NEURÈENÝ', 'NEURÈENÝ', 'NEURÈENÝ', ('NEURÈENÝ'), ('NEURÈENÝ'), ('NEURÈENÝ') ) ;
#64 = ORIENTED_EDGE ( 'NONE', *, *, #258, .F. ) ;
#65 = PERSON_AND_ORGANIZATION ( #63, #35 ) ;
#66 = PERSON_AND_ORGANIZATION_ROLE ( 'creator' ) ;
#67 = AXIS2_PLACEMENT_3D ( 'NONE', #58, #163, #117 ) ;
#68 = EDGE_CURVE ( 'NONE', #133, #152, #235, .T. ) ;
#69 = FACE_OUTER_BOUND ( 'NONE', #228, .T. ) ;
#70 = AXIS2_PLACEMENT_3D ( 'NONE', #239, #128, #217 ) ;
#71 = DIRECTION ( 'NONE',  ( 0.000000000000000000, 0.000000000000000000, 1.000000000000000000 ) ) ;
#72 = EDGE_CURVE ( 'NONE', #28, #137, #214, .T. ) ;
#73 = DIRECTION ( 'NONE',  ( -1.000000000000000000, 0.000000000000000000, 0.000000000000000000 ) ) ;
#74 = CARTESIAN_POINT ( 'NONE',  ( 11.00000000000000000, 1.347111479062088405E-15, 0.000000000000000000 ) ) ;
#75 = VECTOR ( 'NONE', #268, 1000.000000000000000 ) ;
#76 = ORIENTED_EDGE ( 'NONE', *, *, #44, .F. ) ;
#77 = PERSON_AND_ORGANIZATION ( #63, #35 ) ;
#78 = CIRCLE ( 'NONE', #211, 0.2000000000000005107 ) ;
#79 =( LENGTH_UNIT ( ) NAMED_UNIT ( * ) SI_UNIT ( .MILLI., .METRE. ) );
#80 = AXIS2_PLACEMENT_3D ( 'NONE', #102, #12, #131 ) ;
#81 = ORIENTED_EDGE ( 'NONE', *, *, #72, .F. ) ;
#82 = CARTESIAN_POINT ( 'NONE',  ( 0.000000000000000000, 0.000000000000000000, 7.200000000000011724 ) ) ;
#83 = ADVANCED_FACE ( 'NONE', ( #36, #53 ), #173, .T. ) ;
#84 = CARTESIAN_POINT ( 'NONE',  ( -8.000000000000000000, 0.000000000000000000, 7.200000000000011724 ) ) ;
#85 = CARTESIAN_POINT ( 'NONE',  ( 0.000000000000000000, 0.000000000000000000, 7.000000000000000000 ) ) ;
#86 = AXIS2_PLACEMENT_3D ( 'NONE', #265, #165, #220 ) ;
#87 = DIRECTION ( 'NONE',  ( -0.000000000000000000, -0.000000000000000000, -1.000000000000000000 ) ) ;
#88 = APPROVAL_DATE_TIME ( #17, #171 ) ;
#89 = CC_DESIGN_DATE_AND_TIME_ASSIGNMENT ( #114, #273, ( #19 ) ) ;
#90 = ORIENTED_EDGE ( 'NONE', *, *, #222, .T. ) ;
#91 = DIRECTION ( 'NONE',  ( 0.000000000000000000, 0.000000000000000000, -1.000000000000000000 ) ) ;
#92 = CARTESIAN_POINT ( 'NONE',  ( 0.000000000000000000, 0.000000000000000000, 7.200000000000011724 ) ) ;
#93 = VERTEX_POINT ( 'NONE', #304 ) ;
#94 = AXIS2_PLACEMENT_3D ( 'NONE', #51, #196, #101 ) ;
#95 = PERSON_AND_ORGANIZATION ( #63, #35 ) ;
#96 = ADVANCED_FACE ( 'NONE', ( #305 ), #209, .T. ) ;
#97 = SECURITY_CLASSIFICATION ( '', '', #279 ) ;
#98 = DIRECTION ( 'NONE',  ( -0.000000000000000000, -0.000000000000000000, -1.000000000000000000 ) ) ;
#99 = CARTESIAN_POINT ( 'NONE',  ( 0.000000000000000000, 0.000000000000000000, 207.0000000000000284 ) ) ;
#100 = PRODUCT_DEFINITION_FORMATION_WITH_SPECIFIED_SOURCE ( 'LIBOVOLNÝ', '', #277, .NOT_KNOWN. ) ;
#101 = DIRECTION ( 'NONE',  ( 1.000000000000000000, 0.000000000000000000, 0.000000000000000000 ) ) ;
#102 = CARTESIAN_POINT ( 'NONE',  ( 0.000000000000000000, 0.000000000000000000, 207.0000000000000284 ) ) ;
#103 = EDGE_CURVE ( 'NONE', #205, #93, #78, .T. ) ;
#104 = CARTESIAN_POINT ( 'NONE',  ( -11.00000000000000000, 0.000000000000000000, 0.000000000000000000 ) ) ;
#105 = ORIENTED_EDGE ( 'NONE', *, *, #54, .F. ) ;
#106 = DIRECTION ( 'NONE',  ( -1.000000000000000000, 0.000000000000000000, 0.000000000000000000 ) ) ;
#107 = AXIS2_PLACEMENT_3D ( 'NONE', #210, #25, #303 ) ;
#108 = DIRECTION ( 'NONE',  ( 1.000000000000000000, 0.000000000000000000, 0.000000000000000000 ) ) ;
#109 = DIRECTION ( 'NONE',  ( -0.000000000000000000, -0.000000000000000000, -1.000000000000000000 ) ) ;
#110 = DATE_TIME_ROLE ( 'classification_date' ) ;
#111 = DIRECTION ( 'NONE',  ( 1.000000000000000000, 0.000000000000000000, -0.000000000000000000 ) ) ;
#112 = VERTEX_POINT ( 'NONE', #74 ) ;
#113 = APPROVAL_PERSON_ORGANIZATION ( #200, #300, #155 ) ;
#114 = DATE_AND_TIME ( #138, #55 ) ;
#115 = FACE_OUTER_BOUND ( 'NONE', #192, .T. ) ;
#116 = EDGE_CURVE ( 'NONE', #205, #152, #151, .T. ) ;
#117 = DIRECTION ( 'NONE',  ( 1.000000000000000000, 0.000000000000000000, -0.000000000000000000 ) ) ;
#118 = CC_DESIGN_APPROVAL ( #139, ( #97 ) ) ;
#119 = CARTESIAN_POINT ( 'NONE',  ( -11.00000000000000000, 0.000000000000000000, 7.000000000000000000 ) ) ;
#120 = EDGE_CURVE ( 'NONE', #28, #293, #29, .T. ) ;
#121 =( GEOMETRIC_REPRESENTATION_CONTEXT ( 3 ) GLOBAL_UNCERTAINTY_ASSIGNED_CONTEXT ( ( #295 ) ) GLOBAL_UNIT_ASSIGNED_CONTEXT ( ( #79, #197, #150 ) ) REPRESENTATION_CONTEXT ( 'NONE', 'WORKASPACE' ) );
#122 = LINE ( 'NONE', #57, #75 ) ;
#123 = APPLICATION_CONTEXT ( 'configuration controlled 3d designs of mechanical parts and assemblies' ) ;
#124 = ORIENTED_EDGE ( 'NONE', *, *, #251, .T. ) ;
#125 = FACE_OUTER_BOUND ( 'NONE', #59, .T. ) ;
#126 = ADVANCED_FACE ( 'NONE', ( #69 ), #18, .T. ) ;
#127 = EDGE_LOOP ( 'NONE', ( #64, #81, #219, #183 ) ) ;
#128 = DIRECTION ( 'NONE',  ( 0.000000000000000000, 0.000000000000000000, 1.000000000000000000 ) ) ;
#129 = AXIS2_PLACEMENT_3D ( 'NONE', #285, #9, #271 ) ;
#130 = CYLINDRICAL_SURFACE ( 'NONE', #301, 8.000000000000000000 ) ;
#131 = DIRECTION ( 'NONE',  ( -1.000000000000000000, 0.000000000000000000, 0.000000000000000000 ) ) ;
#132 = DESIGN_CONTEXT ( 'detailed design', #188, 'design' ) ;
#133 = VERTEX_POINT ( 'NONE', #203 ) ;
#134 = PERSON_AND_ORGANIZATION ( #63, #35 ) ;
#135 = CARTESIAN_POINT ( 'NONE',  ( -11.00000000000000000, 0.000000000000000000, 7.000000000000000000 ) ) ;
#136 = ADVANCED_FACE ( 'NONE', ( #115 ), #146, .F. ) ;
#137 = VERTEX_POINT ( 'NONE', #257 ) ;
#138 = CALENDAR_DATE ( 2022, 20, 6 ) ;
#139 = APPROVAL ( #38, 'NEURÈENÝ' ) ;
#140 = CIRCLE ( 'NONE', #107, 11.00000000000000000 ) ;
#141 = CC_DESIGN_PERSON_AND_ORGANIZATION_ASSIGNMENT ( #77, #42, ( #277 ) ) ;
#142 = CARTESIAN_POINT ( 'NONE',  ( 8.000000000000000000, 9.797174393178825657E-16, 7.200000000000011724 ) ) ;
#143 = ORIENTED_EDGE ( 'NONE', *, *, #44, .T. ) ;
#144 = ORIENTED_EDGE ( 'NONE', *, *, #103, .F. ) ;
#145 = DIRECTION ( 'NONE',  ( -0.000000000000000000, -0.000000000000000000, -1.000000000000000000 ) ) ;
#146 = TOROIDAL_SURFACE ( 'NONE', #204, 8.200000000000001066, 0.2000000000000000111 ) ;
#147 = DIRECTION ( 'NONE',  ( 0.000000000000000000, 0.000000000000000000, 1.000000000000000000 ) ) ;
#148 = DIRECTION ( 'NONE',  ( 1.000000000000000000, 0.000000000000000000, -0.000000000000000000 ) ) ;
#149 = EDGE_LOOP ( 'NONE', ( #224, #143 ) ) ;
#150 =( NAMED_UNIT ( * ) SI_UNIT ( $, .STERADIAN. ) SOLID_ANGLE_UNIT ( ) );
#151 = CIRCLE ( 'NONE', #172, 8.000000000000000000 ) ;
#152 = VERTEX_POINT ( 'NONE', #142 ) ;
#153 = CALENDAR_DATE ( 2022, 20, 6 ) ;
#154 = CC_DESIGN_DATE_AND_TIME_ASSIGNMENT ( #158, #110, ( #97 ) ) ;
#155 = APPROVAL_ROLE ( '' ) ;
#156 = CARTESIAN_POINT ( 'NONE',  ( 0.000000000000000000, 0.000000000000000000, 7.000000000000000000 ) ) ;
#157 = ADVANCED_FACE ( 'NONE', ( #162 ), #46, .T. ) ;
#158 = DATE_AND_TIME ( #153, #272 ) ;
#159 = EDGE_LOOP ( 'NONE', ( #144, #241, #169, #76 ) ) ;
#160 = LOCAL_TIME ( 11, 24, 23.00000000000000000, #23 ) ;
#161 = DIRECTION ( 'NONE',  ( 0.000000000000000000, 0.000000000000000000, 1.000000000000000000 ) ) ;
#162 = FACE_OUTER_BOUND ( 'NONE', #176, .T. ) ;
#163 = DIRECTION ( 'NONE',  ( 0.000000000000000000, 0.000000000000000000, 1.000000000000000000 ) ) ;
#164 = ORIENTED_EDGE ( 'NONE', *, *, #116, .F. ) ;
#165 = DIRECTION ( 'NONE',  ( 0.000000000000000000, 0.000000000000000000, 1.000000000000000000 ) ) ;
#166 = DIRECTION ( 'NONE',  ( 1.000000000000000000, 0.000000000000000000, 0.000000000000000000 ) ) ;
#167 = AXIS2_PLACEMENT_3D ( 'NONE', #30, #288, #166 ) ;
#168 = CARTESIAN_POINT ( 'NONE',  ( -8.000000000000000000, 0.000000000000000000, 207.0000000000000284 ) ) ;
#169 = ORIENTED_EDGE ( 'NONE', *, *, #54, .T. ) ;
#170 = DIRECTION ( 'NONE',  ( -0.000000000000000000, -0.000000000000000000, -1.000000000000000000 ) ) ;
#171 = APPROVAL ( #60, 'NEURÈENÝ' ) ;
#172 = AXIS2_PLACEMENT_3D ( 'NONE', #48, #71, #261 ) ;
#173 = PLANE ( 'NONE',  #67 ) ;
#174 = FACE_OUTER_BOUND ( 'NONE', #230, .T. ) ;
#175 = APPROVAL_STATUS ( 'not_yet_approved' ) ;
#176 = EDGE_LOOP ( 'NONE', ( #37, #39, #11, #201 ) ) ;
#177 = DIRECTION ( 'NONE',  ( 0.000000000000000000, 0.000000000000000000, 1.000000000000000000 ) ) ;
#178 = AXIS2_PLACEMENT_3D ( 'NONE', #15, #177, #108 ) ;
#179 = CC_DESIGN_PERSON_AND_ORGANIZATION_ASSIGNMENT ( #95, #66, ( #19 ) ) ;
#180 = CALENDAR_DATE ( 2022, 20, 6 ) ;
#181 = AXIS2_PLACEMENT_3D ( 'NONE', #156, #109, #226 ) ;
#182 = CC_DESIGN_APPROVAL ( #171, ( #100 ) ) ;
#183 = ORIENTED_EDGE ( 'NONE', *, *, #62, .T. ) ;
#184 = COORDINATED_UNIVERSAL_TIME_OFFSET ( 1, 0, .AHEAD. ) ;
#185 = ORIENTED_EDGE ( 'NONE', *, *, #258, .T. ) ;
#186 = PERSON_AND_ORGANIZATION ( #63, #35 ) ;
#187 = CIRCLE ( 'NONE', #94, 8.200000000000001066 ) ;
#188 = APPLICATION_CONTEXT ( 'configuration controlled 3d designs of mechanical parts and assemblies' ) ;
#189 = CC_DESIGN_PERSON_AND_ORGANIZATION_ASSIGNMENT ( #186, #198, ( #97 ) ) ;
#190 = DIRECTION ( 'NONE',  ( 1.224646799147353207E-16, 1.000000000000000000, -0.000000000000000000 ) ) ;
#191 = CLOSED_SHELL ( 'NONE', ( #136, #27, #237, #96, #83, #212, #157, #126, #266 ) ) ;
#192 = EDGE_LOOP ( 'NONE', ( #164, #4, #246, #105 ) ) ;
#193 = VECTOR ( 'NONE', #145, 1000.000000000000000 ) ;
#194 = MECHANICAL_CONTEXT ( 'NONE', #123, 'mechanical' ) ;
#195 = VERTEX_POINT ( 'NONE', #168 ) ;
#196 = DIRECTION ( 'NONE',  ( -0.000000000000000000, -0.000000000000000000, -1.000000000000000000 ) ) ;
#197 =( NAMED_UNIT ( * ) PLANE_ANGLE_UNIT ( ) SI_UNIT ( $, .RADIAN. ) );
#198 = PERSON_AND_ORGANIZATION_ROLE ( 'classification_officer' ) ;
#199 = CC_DESIGN_SECURITY_CLASSIFICATION ( #97, ( #100 ) ) ;
#200 = PERSON_AND_ORGANIZATION ( #63, #35 ) ;
#201 = ORIENTED_EDGE ( 'NONE', *, *, #116, .T. ) ;
#202 = DATE_AND_TIME ( #275, #26 ) ;
#203 = CARTESIAN_POINT ( 'NONE',  ( 8.000000000000000000, 9.797174393178825657E-16, 207.0000000000000284 ) ) ;
#204 = AXIS2_PLACEMENT_3D ( 'NONE', #92, #161, #45 ) ;
#205 = VERTEX_POINT ( 'NONE', #84 ) ;
#206 = APPLICATION_PROTOCOL_DEFINITION ( 'international standard', 'config_control_design', 1994, #188 ) ;
#207 = PRODUCT_RELATED_PRODUCT_CATEGORY ( 'detail', '', ( #277 ) ) ;
#208 = CIRCLE ( 'NONE', #181, 8.200000000000001066 ) ;
#209 = CYLINDRICAL_SURFACE ( 'NONE', #245, 11.00000000000000000 ) ;
#210 = CARTESIAN_POINT ( 'NONE',  ( 0.000000000000000000, 0.000000000000000000, 0.000000000000000000 ) ) ;
#211 = AXIS2_PLACEMENT_3D ( 'NONE', #259, #190, #282 ) ;
#212 = ADVANCED_FACE ( 'NONE', ( #125 ), #286, .F. ) ;
#213 = CARTESIAN_POINT ( 'NONE',  ( 8.000000000000000000, 9.797174393178825657E-16, 207.0000000000000284 ) ) ;
#214 = CIRCLE ( 'NONE', #289, 11.00000000000000000 ) ;
#215 = AXIS2_PLACEMENT_3D ( 'NONE', #218, #52, #148 ) ;
#216 = EDGE_CURVE ( 'NONE', #8, #93, #187, .T. ) ;
#217 = DIRECTION ( 'NONE',  ( 1.000000000000000000, 0.000000000000000000, 0.000000000000000000 ) ) ;
#218 = CARTESIAN_POINT ( 'NONE',  ( 0.000000000000000000, 0.000000000000000000, 0.000000000000000000 ) ) ;
#219 = ORIENTED_EDGE ( 'NONE', *, *, #120, .T. ) ;
#220 = DIRECTION ( 'NONE',  ( 1.000000000000000000, 0.000000000000000000, 0.000000000000000000 ) ) ;
#221 = AXIS2_PLACEMENT_3D ( 'NONE', #99, #283, #111 ) ;
#222 = EDGE_CURVE ( 'NONE', #152, #205, #256, .T. ) ;
#223 = DIRECTION ( 'NONE',  ( 1.000000000000000000, 0.000000000000000000, 0.000000000000000000 ) ) ;
#224 = ORIENTED_EDGE ( 'NONE', *, *, #216, .T. ) ;
#225 = PERSON_AND_ORGANIZATION_ROLE ( 'creator' ) ;
#226 = DIRECTION ( 'NONE',  ( 1.000000000000000000, 0.000000000000000000, 0.000000000000000000 ) ) ;
#227 = CALENDAR_DATE ( 2022, 20, 6 ) ;
#228 = EDGE_LOOP ( 'NONE', ( #2, #248 ) ) ;
#229 = PERSON_AND_ORGANIZATION_ROLE ( 'design_supplier' ) ;
#230 = EDGE_LOOP ( 'NONE', ( #284, #33, #90, #278 ) ) ;
#231 = DATE_AND_TIME ( #227, #291 ) ;
#232 = PERSON_AND_ORGANIZATION ( #63, #35 ) ;
#233 = EDGE_CURVE ( 'NONE', #195, #205, #122, .T. ) ;
#234 = CARTESIAN_POINT ( 'NONE',  ( 0.000000000000000000, 0.000000000000000000, 7.000000000000000000 ) ) ;
#235 = LINE ( 'NONE', #213, #43 ) ;
#236 = FACE_OUTER_BOUND ( 'NONE', #254, .T. ) ;
#237 = ADVANCED_FACE ( 'NONE', ( #236 ), #242, .T. ) ;
#238 = ORIENTED_EDGE ( 'NONE', *, *, #276, .T. ) ;
#239 = CARTESIAN_POINT ( 'NONE',  ( 0.000000000000000000, 0.000000000000000000, 7.000000000000000000 ) ) ;
#240 = MANIFOLD_SOLID_BREP ( 'Zaoblit1', #191 ) ;
#241 = ORIENTED_EDGE ( 'NONE', *, *, #222, .F. ) ;
#242 = CYLINDRICAL_SURFACE ( 'NONE', #298, 11.00000000000000000 ) ;
#243 = AXIS2_PLACEMENT_3D ( 'NONE', #274, #290, #56 ) ;
#244 = CC_DESIGN_PERSON_AND_ORGANIZATION_ASSIGNMENT ( #65, #225, ( #100 ) ) ;
#245 = AXIS2_PLACEMENT_3D ( 'NONE', #234, #98, #73 ) ;
#246 = ORIENTED_EDGE ( 'NONE', *, *, #216, .F. ) ;
#247 = CIRCLE ( 'NONE', #70, 11.00000000000000000 ) ;
#248 = ORIENTED_EDGE ( 'NONE', *, *, #47, .T. ) ;
#249 = PERSON_AND_ORGANIZATION ( #63, #35 ) ;
#250 = EDGE_LOOP ( 'NONE', ( #287, #124 ) ) ;
#251 = EDGE_CURVE ( 'NONE', #137, #28, #247, .T. ) ;
#252 = APPROVAL_ROLE ( '' ) ;
#253 = APPROVAL_PERSON_ORGANIZATION ( #249, #139, #294 ) ;
#254 = EDGE_LOOP ( 'NONE', ( #296, #185, #238, #61 ) ) ;
#255 = SHAPE_DEFINITION_REPRESENTATION ( #281, #269 ) ;
#256 = CIRCLE ( 'NONE', #302, 8.000000000000000000 ) ;
#257 = CARTESIAN_POINT ( 'NONE',  ( 11.00000000000000000, 1.347111479062088405E-15, 7.000000000000000000 ) ) ;
#258 = EDGE_CURVE ( 'NONE', #137, #112, #32, .T. ) ;
#259 = CARTESIAN_POINT ( 'NONE',  ( -8.200000000000001066, 1.004210375300829674E-15, 7.200000000000011724 ) ) ;
#260 = TOROIDAL_SURFACE ( 'NONE', #86, 8.200000000000001066, 0.2000000000000000111 ) ;
#261 = DIRECTION ( 'NONE',  ( 1.000000000000000000, 0.000000000000000000, 0.000000000000000000 ) ) ;
#262 = VECTOR ( 'NONE', #307, 1000.000000000000000 ) ;
#263 = FACE_OUTER_BOUND ( 'NONE', #159, .T. ) ;
#264 = ORIENTED_EDGE ( 'NONE', *, *, #62, .F. ) ;
#265 = CARTESIAN_POINT ( 'NONE',  ( 0.000000000000000000, 0.000000000000000000, 7.200000000000011724 ) ) ;
#266 = ADVANCED_FACE ( 'NONE', ( #263 ), #260, .F. ) ;
#267 = DIRECTION ( 'NONE',  ( 1.000000000000000000, 0.000000000000000000, 0.000000000000000000 ) ) ;
#268 = DIRECTION ( 'NONE',  ( -0.000000000000000000, -0.000000000000000000, -1.000000000000000000 ) ) ;
#269 = ADVANCED_BREP_SHAPE_REPRESENTATION ( '7844', ( #240, #167 ), #121 ) ;
#270 = ORIENTED_EDGE ( 'NONE', *, *, #276, .F. ) ;
#271 = DIRECTION ( 'NONE',  ( 1.000000000000000000, 0.000000000000000000, 0.000000000000000000 ) ) ;
#272 = LOCAL_TIME ( 11, 24, 23.00000000000000000, #21 ) ;
#273 = DATE_TIME_ROLE ( 'creation_date' ) ;
#274 = CARTESIAN_POINT ( 'NONE',  ( 0.000000000000000000, 0.000000000000000000, 207.0000000000000284 ) ) ;
#275 = CALENDAR_DATE ( 2022, 20, 6 ) ;
#276 = EDGE_CURVE ( 'NONE', #112, #293, #50, .T. ) ;
#277 = PRODUCT ( '7844', '7844', '', ( #194 ) ) ;
#278 = ORIENTED_EDGE ( 'NONE', *, *, #233, .F. ) ;
#279 = SECURITY_CLASSIFICATION_LEVEL ( 'unclassified' ) ;
#280 = CIRCLE ( 'NONE', #22, 0.1999999999999996503 ) ;
#281 = PRODUCT_DEFINITION_SHAPE ( 'NONE', 'NONE',  #19 ) ;
#282 = DIRECTION ( 'NONE',  ( -1.000000000000000000, 1.224646799147353207E-16, 0.000000000000000000 ) ) ;
#283 = DIRECTION ( 'NONE',  ( 0.000000000000000000, 0.000000000000000000, 1.000000000000000000 ) ) ;
#284 = ORIENTED_EDGE ( 'NONE', *, *, #47, .F. ) ;
#285 = CARTESIAN_POINT ( 'NONE',  ( 0.000000000000000000, 0.000000000000000000, 0.000000000000000000 ) ) ;
#286 = PLANE ( 'NONE',  #215 ) ;
#287 = ORIENTED_EDGE ( 'NONE', *, *, #72, .T. ) ;
#288 = DIRECTION ( 'NONE',  ( 0.000000000000000000, 0.000000000000000000, 1.000000000000000000 ) ) ;
#289 = AXIS2_PLACEMENT_3D ( 'NONE', #85, #10, #267 ) ;
#290 = DIRECTION ( 'NONE',  ( 0.000000000000000000, 0.000000000000000000, 1.000000000000000000 ) ) ;
#291 = LOCAL_TIME ( 11, 24, 23.00000000000000000, #299 ) ;
#292 = CARTESIAN_POINT ( 'NONE',  ( 8.200000000000001066, 0.000000000000000000, 7.200000000000011724 ) ) ;
#293 = VERTEX_POINT ( 'NONE', #104 ) ;
#294 = APPROVAL_ROLE ( '' ) ;
#295 = UNCERTAINTY_MEASURE_WITH_UNIT (LENGTH_MEASURE( 1.000000000000000082E-05 ), #79, 'distance_accuracy_value', 'NONE');
#296 = ORIENTED_EDGE ( 'NONE', *, *, #251, .F. ) ;
#297 = CC_DESIGN_PERSON_AND_ORGANIZATION_ASSIGNMENT ( #134, #229, ( #100 ) ) ;
#298 = AXIS2_PLACEMENT_3D ( 'NONE', #49, #170, #34 ) ;
#299 = COORDINATED_UNIVERSAL_TIME_OFFSET ( 1, 0, .AHEAD. ) ;
#300 = APPROVAL ( #175, 'NEURÈENÝ' ) ;
#301 = AXIS2_PLACEMENT_3D ( 'NONE', #13, #87, #106 ) ;
#302 = AXIS2_PLACEMENT_3D ( 'NONE', #82, #147, #223 ) ;
#303 = DIRECTION ( 'NONE',  ( 1.000000000000000000, 0.000000000000000000, 0.000000000000000000 ) ) ;
#304 = CARTESIAN_POINT ( 'NONE',  ( -8.200000000000001066, 1.004210375300829674E-15, 7.000000000000006217 ) ) ;
#305 = FACE_OUTER_BOUND ( 'NONE', #127, .T. ) ;
#306 = DIRECTION ( 'NONE',  ( -0.000000000000000000, -0.000000000000000000, -1.000000000000000000 ) ) ;
#307 = DIRECTION ( 'NONE',  ( -0.000000000000000000, -0.000000000000000000, -1.000000000000000000 ) ) ;
ENDSEC;
END-ISO-10303-21;
