ISO-10303-21;
HEADER;
FILE_DESCRIPTION (( 'STEP AP203' ),
    '1' );
FILE_NAME ('e0eb.STEP',
    '2022-06-20T09:39:29',
    ( '' ),
    ( '' ),
    'SwSTEP 2.0',
    'SolidWorks 2019',
    '' );
FILE_SCHEMA (( 'CONFIG_CONTROL_DESIGN' ));
ENDSEC;

DATA;
#1 = ADVANCED_FACE ( 'NONE', ( #116 ), #43, .F. ) ;
#2 = EDGE_LOOP ( 'NONE', ( #106, #207, #5, #233 ) ) ;
#3 = ADVANCED_FACE ( 'NONE', ( #185 ), #293, .F. ) ;
#4 = CIRCLE ( 'NONE', #171, 8.000000000000000000 ) ;
#5 = ORIENTED_EDGE ( 'NONE', *, *, #65, .T. ) ;
#6 = DIRECTION ( 'NONE',  ( 1.000000000000000000, 0.000000000000000000, 0.000000000000000000 ) ) ;
#7 = VERTEX_POINT ( 'NONE', #241 ) ;
#8 = DIRECTION ( 'NONE',  ( 0.000000000000000000, 0.000000000000000000, 1.000000000000000000 ) ) ;
#9 = CYLINDRICAL_SURFACE ( 'NONE', #79, 8.000000000000000000 ) ;
#10 = EDGE_LOOP ( 'NONE', ( #236, #179 ) ) ;
#11 = APPROVAL_ROLE ( '' ) ;
#12 = ORIENTED_EDGE ( 'NONE', *, *, #274, .F. ) ;
#13 = PERSON_AND_ORGANIZATION ( #145, #53 ) ;
#14 = CARTESIAN_POINT ( 'NONE',  ( 0.000000000000000000, 0.000000000000000000, 205.0000000000000284 ) ) ;
#15 = EDGE_CURVE ( 'NONE', #290, #195, #30, .T. ) ;
#16 = ORIENTED_EDGE ( 'NONE', *, *, #246, .T. ) ;
#17 = CIRCLE ( 'NONE', #63, 5.300000000000000711 ) ;
#18 = PERSON_AND_ORGANIZATION_ROLE ( 'classification_officer' ) ;
#19 = FACE_OUTER_BOUND ( 'NONE', #297, .T. ) ;
#20 = ORIENTED_EDGE ( 'NONE', *, *, #262, .F. ) ;
#21 = PERSON_AND_ORGANIZATION ( #145, #53 ) ;
#22 = EDGE_CURVE ( 'NONE', #195, #238, #138, .T. ) ;
#23 = AXIS2_PLACEMENT_3D ( 'NONE', #29, #263, #175 ) ;
#24 = CARTESIAN_POINT ( 'NONE',  ( 8.000000000000000000, 9.797174393178825657E-16, 0.000000000000000000 ) ) ;
#25 = ADVANCED_FACE ( 'NONE', ( #222 ), #68, .T. ) ;
#26 = ORIENTED_EDGE ( 'NONE', *, *, #167, .T. ) ;
#27 = DIRECTION ( 'NONE',  ( -0.000000000000000000, -0.000000000000000000, -1.000000000000000000 ) ) ;
#28 =( NAMED_UNIT ( * ) SI_UNIT ( $, .STERADIAN. ) SOLID_ANGLE_UNIT ( ) );
#29 = CARTESIAN_POINT ( 'NONE',  ( 0.000000000000000000, 0.000000000000000000, 5.200000000000009948 ) ) ;
#30 = CIRCLE ( 'NONE', #87, 0.1999999999999996503 ) ;
#31 = DIRECTION ( 'NONE',  ( 1.000000000000000000, 0.000000000000000000, 0.000000000000000000 ) ) ;
#32 = ORIENTED_EDGE ( 'NONE', *, *, #200, .T. ) ;
#33 = MECHANICAL_CONTEXT ( 'NONE', #148, 'mechanical' ) ;
#34 = CARTESIAN_POINT ( 'NONE',  ( 0.000000000000000000, 0.000000000000000000, 0.000000000000000000 ) ) ;
#35 = CARTESIAN_POINT ( 'NONE',  ( 0.000000000000000000, 0.000000000000000000, 5.000000000000000000 ) ) ;
#36 = ORIENTED_EDGE ( 'NONE', *, *, #200, .F. ) ;
#37 = APPROVAL_STATUS ( 'not_yet_approved' ) ;
#38 = AXIS2_PLACEMENT_3D ( 'NONE', #266, #126, #173 ) ;
#39 = DIRECTION ( 'NONE',  ( 1.000000000000000000, 0.000000000000000000, 0.000000000000000000 ) ) ;
#40 = CALENDAR_DATE ( 2022, 20, 6 ) ;
#41 = APPROVAL ( #37, 'NEURÈENÝ' ) ;
#42 = PRODUCT_RELATED_PRODUCT_CATEGORY ( 'detail', '', ( #178 ) ) ;
#43 = TOROIDAL_SURFACE ( 'NONE', #48, 5.300000000000000711, 0.2000000000000000111 ) ;
#44 = MANIFOLD_SOLID_BREP ( 'Zaoblit1', #264 ) ;
#45 = CC_DESIGN_PERSON_AND_ORGANIZATION_ASSIGNMENT ( #159, #139, ( #55 ) ) ;
#46 = AXIS2_PLACEMENT_3D ( 'NONE', #91, #121, #54 ) ;
#47 = DATE_AND_TIME ( #189, #50 ) ;
#48 = AXIS2_PLACEMENT_3D ( 'NONE', #295, #182, #90 ) ;
#49 = CYLINDRICAL_SURFACE ( 'NONE', #160, 5.100000000000001421 ) ;
#50 = LOCAL_TIME ( 11, 39, 29.00000000000000000, #201 ) ;
#51 = CARTESIAN_POINT ( 'NONE',  ( -5.300000000000000711, 6.490628035480971924E-16, 5.000000000000005329 ) ) ;
#52 = EDGE_CURVE ( 'NONE', #99, #129, #88, .T. ) ;
#53 = ORGANIZATION ( 'NEURÈENÝ', 'NEURÈENÝ', '' ) ;
#54 = DIRECTION ( 'NONE',  ( 1.000000000000000000, 0.000000000000000000, 0.000000000000000000 ) ) ;
#55 = PRODUCT_DEFINITION ( 'NEZNÁMÝ', '', #103, #59 ) ;
#56 = CARTESIAN_POINT ( 'NONE',  ( 0.000000000000000000, 0.000000000000000000, 205.0000000000000284 ) ) ;
#57 = FACE_OUTER_BOUND ( 'NONE', #2, .T. ) ;
#58 = PERSON_AND_ORGANIZATION_ROLE ( 'design_owner' ) ;
#59 = DESIGN_CONTEXT ( 'detailed design', #260, 'design' ) ;
#60 = VERTEX_POINT ( 'NONE', #24 ) ;
#61 = FACE_OUTER_BOUND ( 'NONE', #136, .T. ) ;
#62 = CARTESIAN_POINT ( 'NONE',  ( -8.000000000000000000, 0.000000000000000000, 5.000000000000000000 ) ) ;
#63 = AXIS2_PLACEMENT_3D ( 'NONE', #166, #27, #194 ) ;
#64 = DIRECTION ( 'NONE',  ( 1.224646799147353207E-16, 1.000000000000000000, -0.000000000000000000 ) ) ;
#65 = EDGE_CURVE ( 'NONE', #60, #129, #232, .T. ) ;
#66 = SECURITY_CLASSIFICATION ( '', '', #294 ) ;
#67 = DIRECTION ( 'NONE',  ( -0.000000000000000000, -0.000000000000000000, -1.000000000000000000 ) ) ;
#68 = PLANE ( 'NONE',  #302 ) ;
#69 = DIRECTION ( 'NONE',  ( 0.000000000000000000, 0.000000000000000000, 1.000000000000000000 ) ) ;
#70 = CARTESIAN_POINT ( 'NONE',  ( -5.100000000000001421, 0.000000000000000000, 205.0000000000000284 ) ) ;
#71 = CC_DESIGN_APPROVAL ( #97, ( #55 ) ) ;
#72 = DIRECTION ( 'NONE',  ( 1.000000000000000000, 0.000000000000000000, -0.000000000000000000 ) ) ;
#73 = DIRECTION ( 'NONE',  ( -1.000000000000000000, 0.000000000000000000, 0.000000000000000000 ) ) ;
#74 = ORIENTED_EDGE ( 'NONE', *, *, #15, .F. ) ;
#75 = EDGE_CURVE ( 'NONE', #218, #60, #212, .T. ) ;
#76 = CARTESIAN_POINT ( 'NONE',  ( 5.300000000000000711, 0.000000000000000000, 5.000000000000005329 ) ) ;
#77 = PRODUCT_DEFINITION_SHAPE ( 'NONE', 'NONE',  #55 ) ;
#78 = DIRECTION ( 'NONE',  ( -0.000000000000000000, -0.000000000000000000, -1.000000000000000000 ) ) ;
#79 = AXIS2_PLACEMENT_3D ( 'NONE', #35, #84, #181 ) ;
#80 = ORIENTED_EDGE ( 'NONE', *, *, #278, .F. ) ;
#81 = CC_DESIGN_PERSON_AND_ORGANIZATION_ASSIGNMENT ( #269, #58, ( #178 ) ) ;
#82 = CARTESIAN_POINT ( 'NONE',  ( 0.000000000000000000, 0.000000000000000000, 205.0000000000000284 ) ) ;
#83 = APPLICATION_PROTOCOL_DEFINITION ( 'international standard', 'config_control_design', 1994, #260 ) ;
#84 = DIRECTION ( 'NONE',  ( -0.000000000000000000, -0.000000000000000000, -1.000000000000000000 ) ) ;
#85 = ORIENTED_EDGE ( 'NONE', *, *, #130, .T. ) ;
#86 = CALENDAR_DATE ( 2022, 20, 6 ) ;
#87 = AXIS2_PLACEMENT_3D ( 'NONE', #131, #64, #291 ) ;
#88 = LINE ( 'NONE', #183, #125 ) ;
#89 = DATE_TIME_ROLE ( 'classification_date' ) ;
#90 = DIRECTION ( 'NONE',  ( 1.000000000000000000, 0.000000000000000000, 0.000000000000000000 ) ) ;
#91 = CARTESIAN_POINT ( 'NONE',  ( 0.000000000000000000, 0.000000000000000000, 5.000000000000000000 ) ) ;
#92 = PERSON_AND_ORGANIZATION ( #145, #53 ) ;
#93 = CIRCLE ( 'NONE', #253, 5.100000000000001421 ) ;
#94 = ORIENTED_EDGE ( 'NONE', *, *, #284, .F. ) ;
#95 = ADVANCED_FACE ( 'NONE', ( #57 ), #9, .T. ) ;
#96 = CC_DESIGN_DATE_AND_TIME_ASSIGNMENT ( #277, #89, ( #66 ) ) ;
#97 = APPROVAL ( #239, 'NEURÈENÝ' ) ;
#98 = CIRCLE ( 'NONE', #191, 8.000000000000000000 ) ;
#99 = VERTEX_POINT ( 'NONE', #62 ) ;
#100 = LINE ( 'NONE', #101, #155 ) ;
#101 = CARTESIAN_POINT ( 'NONE',  ( -5.100000000000001421, 0.000000000000000000, 205.0000000000000284 ) ) ;
#102 = CARTESIAN_POINT ( 'NONE',  ( 5.300000000000000711, 0.000000000000000000, 5.200000000000009948 ) ) ;
#103 = PRODUCT_DEFINITION_FORMATION_WITH_SPECIFIED_SOURCE ( 'LIBOVOLNÝ', '', #178, .NOT_KNOWN. ) ;
#104 = DIRECTION ( 'NONE',  ( 1.000000000000000000, 0.000000000000000000, 0.000000000000000000 ) ) ;
#105 = ADVANCED_FACE ( 'NONE', ( #206, #280 ), #296, .T. ) ;
#106 = ORIENTED_EDGE ( 'NONE', *, *, #167, .F. ) ;
#107 = DIRECTION ( 'NONE',  ( 1.000000000000000000, 0.000000000000000000, -0.000000000000000000 ) ) ;
#108 = DATE_AND_TIME ( #86, #193 ) ;
#109 = DIRECTION ( 'NONE',  ( 1.000000000000000000, 0.000000000000000000, -0.000000000000000000 ) ) ;
#110 = AXIS2_PLACEMENT_3D ( 'NONE', #210, #301, #229 ) ;
#111 = VECTOR ( 'NONE', #257, 1000.000000000000000 ) ;
#112 = EDGE_LOOP ( 'NONE', ( #32, #26 ) ) ;
#113 = CALENDAR_DATE ( 2022, 20, 6 ) ;
#114 = CC_DESIGN_APPROVAL ( #117, ( #66 ) ) ;
#115 = CARTESIAN_POINT ( 'NONE',  ( 0.000000000000000000, 0.000000000000000000, 5.000000000000000000 ) ) ;
#116 = FACE_OUTER_BOUND ( 'NONE', #146, .T. ) ;
#117 = APPROVAL ( #186, 'NEURÈENÝ' ) ;
#118 = VERTEX_POINT ( 'NONE', #70 ) ;
#119 = AXIS2_PLACEMENT_3D ( 'NONE', #174, #78, #283 ) ;
#120 = EDGE_CURVE ( 'NONE', #7, #299, #122, .T. ) ;
#121 = DIRECTION ( 'NONE',  ( 0.000000000000000000, 0.000000000000000000, 1.000000000000000000 ) ) ;
#122 = LINE ( 'NONE', #305, #111 ) ;
#123 = CARTESIAN_POINT ( 'NONE',  ( 0.000000000000000000, 0.000000000000000000, 5.000000000000000000 ) ) ;
#124 = CARTESIAN_POINT ( 'NONE',  ( 0.000000000000000000, 0.000000000000000000, 5.200000000000009948 ) ) ;
#125 = VECTOR ( 'NONE', #67, 1000.000000000000000 ) ;
#126 = DIRECTION ( 'NONE',  ( 0.000000000000000000, 0.000000000000000000, 1.000000000000000000 ) ) ;
#127 = ORIENTED_EDGE ( 'NONE', *, *, #151, .F. ) ;
#128 = ORIENTED_EDGE ( 'NONE', *, *, #65, .F. ) ;
#129 = VERTEX_POINT ( 'NONE', #303 ) ;
#130 = EDGE_CURVE ( 'NONE', #118, #290, #100, .T. ) ;
#131 = CARTESIAN_POINT ( 'NONE',  ( -5.300000000000000711, 6.490628035480972910E-16, 5.200000000000009948 ) ) ;
#132 = DATE_AND_TIME ( #113, #273 ) ;
#133 = CIRCLE ( 'NONE', #285, 0.1999999999999996503 ) ;
#134 = ORIENTED_EDGE ( 'NONE', *, *, #120, .F. ) ;
#135 = APPROVAL_DATE_TIME ( #132, #117 ) ;
#136 = EDGE_LOOP ( 'NONE', ( #134, #94, #85, #16 ) ) ;
#137 = COORDINATED_UNIVERSAL_TIME_OFFSET ( 1, 0, .AHEAD. ) ;
#138 = CIRCLE ( 'NONE', #251, 5.300000000000000711 ) ;
#139 = PERSON_AND_ORGANIZATION_ROLE ( 'creator' ) ;
#140 = UNCERTAINTY_MEASURE_WITH_UNIT (LENGTH_MEASURE( 1.000000000000000082E-05 ), #177, 'distance_accuracy_value', 'NONE');
#141 = CARTESIAN_POINT ( 'NONE',  ( 0.000000000000000000, 0.000000000000000000, 205.0000000000000284 ) ) ;
#142 = CC_DESIGN_SECURITY_CLASSIFICATION ( #66, ( #103 ) ) ;
#143 = ORIENTED_EDGE ( 'NONE', *, *, #22, .F. ) ;
#144 = AXIS2_PLACEMENT_3D ( 'NONE', #56, #261, #31 ) ;
#145 = PERSON ( 'NEURÈENÝ', 'NEURÈENÝ', 'NEURÈENÝ', ('NEURÈENÝ'), ('NEURÈENÝ'), ('NEURÈENÝ') ) ;
#146 = EDGE_LOOP ( 'NONE', ( #74, #12, #223, #143 ) ) ;
#147 = DIRECTION ( 'NONE',  ( 0.000000000000000000, 0.000000000000000000, 1.000000000000000000 ) ) ;
#148 = APPLICATION_CONTEXT ( 'configuration controlled 3d designs of mechanical parts and assemblies' ) ;
#149 = DIRECTION ( 'NONE',  ( 0.000000000000000000, -1.000000000000000000, 0.000000000000000000 ) ) ;
#150 = APPROVAL_PERSON_ORGANIZATION ( #276, #41, #298 ) ;
#151 = EDGE_CURVE ( 'NONE', #238, #195, #17, .T. ) ;
#152 = EDGE_LOOP ( 'NONE', ( #172, #265, #127, #204 ) ) ;
#153 = PERSON_AND_ORGANIZATION ( #145, #53 ) ;
#154 = DIRECTION ( 'NONE',  ( 0.000000000000000000, 0.000000000000000000, 1.000000000000000000 ) ) ;
#155 = VECTOR ( 'NONE', #255, 1000.000000000000000 ) ;
#156 = ADVANCED_FACE ( 'NONE', ( #19 ), #279, .T. ) ;
#157 = CC_DESIGN_PERSON_AND_ORGANIZATION_ASSIGNMENT ( #227, #224, ( #103 ) ) ;
#158 = CIRCLE ( 'NONE', #46, 8.000000000000000000 ) ;
#159 = PERSON_AND_ORGANIZATION ( #145, #53 ) ;
#160 = AXIS2_PLACEMENT_3D ( 'NONE', #141, #209, #198 ) ;
#161 = DATE_AND_TIME ( #272, #220 ) ;
#162 = ORIENTED_EDGE ( 'NONE', *, *, #75, .F. ) ;
#163 = APPROVAL_ROLE ( '' ) ;
#164 = ORIENTED_EDGE ( 'NONE', *, *, #278, .T. ) ;
#165 = DIRECTION ( 'NONE',  ( 1.000000000000000000, 0.000000000000000000, 0.000000000000000000 ) ) ;
#166 = CARTESIAN_POINT ( 'NONE',  ( 0.000000000000000000, 0.000000000000000000, 5.000000000000000000 ) ) ;
#167 = EDGE_CURVE ( 'NONE', #218, #99, #158, .T. ) ;
#168 = ORIENTED_EDGE ( 'NONE', *, *, #151, .T. ) ;
#169 = EDGE_LOOP ( 'NONE', ( #80, #128 ) ) ;
#170 = DIRECTION ( 'NONE',  ( -0.000000000000000000, -0.000000000000000000, -1.000000000000000000 ) ) ;
#171 = AXIS2_PLACEMENT_3D ( 'NONE', #115, #69, #165 ) ;
#172 = ORIENTED_EDGE ( 'NONE', *, *, #246, .F. ) ;
#173 = DIRECTION ( 'NONE',  ( 1.000000000000000000, 0.000000000000000000, 0.000000000000000000 ) ) ;
#174 = CARTESIAN_POINT ( 'NONE',  ( 0.000000000000000000, 0.000000000000000000, 205.0000000000000284 ) ) ;
#175 = DIRECTION ( 'NONE',  ( 1.000000000000000000, 0.000000000000000000, 0.000000000000000000 ) ) ;
#176 = LOCAL_TIME ( 11, 39, 29.00000000000000000, #226 ) ;
#177 =( LENGTH_UNIT ( ) NAMED_UNIT ( * ) SI_UNIT ( .MILLI., .METRE. ) );
#178 = PRODUCT ( 'e0eb', 'e0eb', '', ( #33 ) ) ;
#179 = ORIENTED_EDGE ( 'NONE', *, *, #262, .T. ) ;
#180 = FACE_OUTER_BOUND ( 'NONE', #152, .T. ) ;
#181 = DIRECTION ( 'NONE',  ( -1.000000000000000000, 0.000000000000000000, 0.000000000000000000 ) ) ;
#182 = DIRECTION ( 'NONE',  ( 0.000000000000000000, 0.000000000000000000, 1.000000000000000000 ) ) ;
#183 = CARTESIAN_POINT ( 'NONE',  ( -8.000000000000000000, 0.000000000000000000, 5.000000000000000000 ) ) ;
#184 = APPROVAL_PERSON_ORGANIZATION ( #153, #97, #11 ) ;
#185 = FACE_OUTER_BOUND ( 'NONE', #169, .T. ) ;
#186 = APPROVAL_STATUS ( 'not_yet_approved' ) ;
#187 = ORIENTED_EDGE ( 'NONE', *, *, #120, .T. ) ;
#188 = CC_DESIGN_DATE_AND_TIME_ASSIGNMENT ( #108, #292, ( #55 ) ) ;
#189 = CALENDAR_DATE ( 2022, 20, 6 ) ;
#190 = COORDINATED_UNIVERSAL_TIME_OFFSET ( 1, 0, .AHEAD. ) ;
#191 = AXIS2_PLACEMENT_3D ( 'NONE', #288, #213, #286 ) ;
#192 = VECTOR ( 'NONE', #268, 1000.000000000000000 ) ;
#193 = LOCAL_TIME ( 11, 39, 29.00000000000000000, #202 ) ;
#194 = DIRECTION ( 'NONE',  ( 1.000000000000000000, 0.000000000000000000, 0.000000000000000000 ) ) ;
#195 = VERTEX_POINT ( 'NONE', #51 ) ;
#196 = DIRECTION ( 'NONE',  ( 0.000000000000000000, 0.000000000000000000, 1.000000000000000000 ) ) ;
#197 = ORIENTED_EDGE ( 'NONE', *, *, #274, .T. ) ;
#198 = DIRECTION ( 'NONE',  ( -1.000000000000000000, 0.000000000000000000, 0.000000000000000000 ) ) ;
#199 = CARTESIAN_POINT ( 'NONE',  ( 8.000000000000000000, 9.797174393178825657E-16, 5.000000000000000000 ) ) ;
#200 = EDGE_CURVE ( 'NONE', #99, #218, #4, .T. ) ;
#201 = COORDINATED_UNIVERSAL_TIME_OFFSET ( 1, 0, .AHEAD. ) ;
#202 = COORDINATED_UNIVERSAL_TIME_OFFSET ( 1, 0, .AHEAD. ) ;
#203 = CC_DESIGN_PERSON_AND_ORGANIZATION_ASSIGNMENT ( #21, #18, ( #66 ) ) ;
#204 = ORIENTED_EDGE ( 'NONE', *, *, #254, .F. ) ;
#205 = ADVANCED_FACE ( 'NONE', ( #252 ), #49, .T. ) ;
#206 = FACE_BOUND ( 'NONE', #219, .T. ) ;
#207 = ORIENTED_EDGE ( 'NONE', *, *, #75, .T. ) ;
#208 = CIRCLE ( 'NONE', #211, 5.100000000000001421 ) ;
#209 = DIRECTION ( 'NONE',  ( -0.000000000000000000, -0.000000000000000000, -1.000000000000000000 ) ) ;
#210 = CARTESIAN_POINT ( 'NONE',  ( 0.000000000000000000, 0.000000000000000000, 0.000000000000000000 ) ) ;
#211 = AXIS2_PLACEMENT_3D ( 'NONE', #124, #147, #6 ) ;
#212 = LINE ( 'NONE', #306, #192 ) ;
#213 = DIRECTION ( 'NONE',  ( 0.000000000000000000, 0.000000000000000000, 1.000000000000000000 ) ) ;
#214 = AXIS2_PLACEMENT_3D ( 'NONE', #270, #154, #107 ) ;
#215 =( NAMED_UNIT ( * ) PLANE_ANGLE_UNIT ( ) SI_UNIT ( $, .RADIAN. ) );
#216 = AXIS2_PLACEMENT_3D ( 'NONE', #34, #8, #104 ) ;
#217 = CC_DESIGN_PERSON_AND_ORGANIZATION_ASSIGNMENT ( #13, #248, ( #103 ) ) ;
#218 = VERTEX_POINT ( 'NONE', #199 ) ;
#219 = EDGE_LOOP ( 'NONE', ( #168, #256 ) ) ;
#220 = LOCAL_TIME ( 11, 39, 29.00000000000000000, #137 ) ;
#221 = SHAPE_DEFINITION_REPRESENTATION ( #77, #240 ) ;
#222 = FACE_OUTER_BOUND ( 'NONE', #10, .T. ) ;
#223 = ORIENTED_EDGE ( 'NONE', *, *, #254, .T. ) ;
#224 = PERSON_AND_ORGANIZATION_ROLE ( 'design_supplier' ) ;
#225 = ORIENTED_EDGE ( 'NONE', *, *, #130, .F. ) ;
#226 = COORDINATED_UNIVERSAL_TIME_OFFSET ( 1, 0, .AHEAD. ) ;
#227 = PERSON_AND_ORGANIZATION ( #145, #53 ) ;
#228 = DIRECTION ( 'NONE',  ( 0.000000000000000000, 0.000000000000000000, 1.000000000000000000 ) ) ;
#229 = DIRECTION ( 'NONE',  ( 1.000000000000000000, 0.000000000000000000, 0.000000000000000000 ) ) ;
#230 = CARTESIAN_POINT ( 'NONE',  ( -5.100000000000001421, 0.000000000000000000, 5.200000000000009948 ) ) ;
#231 = CYLINDRICAL_SURFACE ( 'NONE', #119, 5.100000000000001421 ) ;
#232 = CIRCLE ( 'NONE', #110, 8.000000000000000000 ) ;
#233 = ORIENTED_EDGE ( 'NONE', *, *, #52, .F. ) ;
#234 = DIRECTION ( 'NONE',  ( 1.000000000000000000, 0.000000000000000000, 0.000000000000000000 ) ) ;
#235 = CIRCLE ( 'NONE', #144, 5.100000000000001421 ) ;
#236 = ORIENTED_EDGE ( 'NONE', *, *, #284, .T. ) ;
#237 = APPLICATION_PROTOCOL_DEFINITION ( 'international standard', 'config_control_design', 1994, #148 ) ;
#238 = VERTEX_POINT ( 'NONE', #76 ) ;
#239 = APPROVAL_STATUS ( 'not_yet_approved' ) ;
#240 = ADVANCED_BREP_SHAPE_REPRESENTATION ( 'e0eb', ( #44, #216 ), #244 ) ;
#241 = CARTESIAN_POINT ( 'NONE',  ( 5.100000000000001421, 6.245698675651502811E-16, 205.0000000000000284 ) ) ;
#242 = APPROVAL_DATE_TIME ( #47, #97 ) ;
#243 = CARTESIAN_POINT ( 'NONE',  ( 0.000000000000000000, 0.000000000000000000, 5.000000000000000000 ) ) ;
#244 =( GEOMETRIC_REPRESENTATION_CONTEXT ( 3 ) GLOBAL_UNCERTAINTY_ASSIGNED_CONTEXT ( ( #140 ) ) GLOBAL_UNIT_ASSIGNED_CONTEXT ( ( #177, #215, #28 ) ) REPRESENTATION_CONTEXT ( 'NONE', 'WORKASPACE' ) );
#245 = DIRECTION ( 'NONE',  ( 0.000000000000000000, 0.000000000000000000, 1.000000000000000000 ) ) ;
#246 = EDGE_CURVE ( 'NONE', #290, #299, #208, .T. ) ;
#247 = APPROVAL_DATE_TIME ( #161, #41 ) ;
#248 = PERSON_AND_ORGANIZATION_ROLE ( 'creator' ) ;
#249 = EDGE_LOOP ( 'NONE', ( #20, #187, #197, #225 ) ) ;
#250 = ADVANCED_FACE ( 'NONE', ( #61 ), #231, .T. ) ;
#251 = AXIS2_PLACEMENT_3D ( 'NONE', #243, #275, #39 ) ;
#252 = FACE_OUTER_BOUND ( 'NONE', #249, .T. ) ;
#253 = AXIS2_PLACEMENT_3D ( 'NONE', #82, #196, #234 ) ;
#254 = EDGE_CURVE ( 'NONE', #299, #238, #133, .T. ) ;
#255 = DIRECTION ( 'NONE',  ( -0.000000000000000000, -0.000000000000000000, -1.000000000000000000 ) ) ;
#256 = ORIENTED_EDGE ( 'NONE', *, *, #22, .T. ) ;
#257 = DIRECTION ( 'NONE',  ( -0.000000000000000000, -0.000000000000000000, -1.000000000000000000 ) ) ;
#258 = ADVANCED_FACE ( 'NONE', ( #180 ), #289, .F. ) ;
#259 = CC_DESIGN_APPROVAL ( #41, ( #103 ) ) ;
#260 = APPLICATION_CONTEXT ( 'configuration controlled 3d designs of mechanical parts and assemblies' ) ;
#261 = DIRECTION ( 'NONE',  ( 0.000000000000000000, 0.000000000000000000, 1.000000000000000000 ) ) ;
#262 = EDGE_CURVE ( 'NONE', #7, #118, #93, .T. ) ;
#263 = DIRECTION ( 'NONE',  ( 0.000000000000000000, 0.000000000000000000, 1.000000000000000000 ) ) ;
#264 = CLOSED_SHELL ( 'NONE', ( #258, #205, #95, #156, #105, #3, #250, #25, #1 ) ) ;
#265 = ORIENTED_EDGE ( 'NONE', *, *, #15, .T. ) ;
#266 = CARTESIAN_POINT ( 'NONE',  ( 0.000000000000000000, 0.000000000000000000, 5.200000000000009948 ) ) ;
#267 = AXIS2_PLACEMENT_3D ( 'NONE', #123, #170, #73 ) ;
#268 = DIRECTION ( 'NONE',  ( -0.000000000000000000, -0.000000000000000000, -1.000000000000000000 ) ) ;
#269 = PERSON_AND_ORGANIZATION ( #145, #53 ) ;
#270 = CARTESIAN_POINT ( 'NONE',  ( 0.000000000000000000, 0.000000000000000000, 0.000000000000000000 ) ) ;
#271 = CARTESIAN_POINT ( 'NONE',  ( 5.100000000000001421, 6.245698675651502811E-16, 5.200000000000009948 ) ) ;
#272 = CALENDAR_DATE ( 2022, 20, 6 ) ;
#273 = LOCAL_TIME ( 11, 39, 29.00000000000000000, #190 ) ;
#274 = EDGE_CURVE ( 'NONE', #299, #290, #304, .T. ) ;
#275 = DIRECTION ( 'NONE',  ( -0.000000000000000000, -0.000000000000000000, -1.000000000000000000 ) ) ;
#276 = PERSON_AND_ORGANIZATION ( #145, #53 ) ;
#277 = DATE_AND_TIME ( #40, #176 ) ;
#278 = EDGE_CURVE ( 'NONE', #129, #60, #98, .T. ) ;
#279 = CYLINDRICAL_SURFACE ( 'NONE', #267, 8.000000000000000000 ) ;
#280 = FACE_OUTER_BOUND ( 'NONE', #112, .T. ) ;
#281 = AXIS2_PLACEMENT_3D ( 'NONE', #307, #228, #72 ) ;
#282 = ORIENTED_EDGE ( 'NONE', *, *, #52, .T. ) ;
#283 = DIRECTION ( 'NONE',  ( -1.000000000000000000, 0.000000000000000000, 0.000000000000000000 ) ) ;
#284 = EDGE_CURVE ( 'NONE', #118, #7, #235, .T. ) ;
#285 = AXIS2_PLACEMENT_3D ( 'NONE', #102, #149, #287 ) ;
#286 = DIRECTION ( 'NONE',  ( 1.000000000000000000, 0.000000000000000000, 0.000000000000000000 ) ) ;
#287 = DIRECTION ( 'NONE',  ( 0.000000000000000000, 0.000000000000000000, -1.000000000000000000 ) ) ;
#288 = CARTESIAN_POINT ( 'NONE',  ( 0.000000000000000000, 0.000000000000000000, 0.000000000000000000 ) ) ;
#289 = TOROIDAL_SURFACE ( 'NONE', #23, 5.300000000000000711, 0.2000000000000000111 ) ;
#290 = VERTEX_POINT ( 'NONE', #230 ) ;
#291 = DIRECTION ( 'NONE',  ( -1.000000000000000000, 1.224646799147353454E-16, 0.000000000000000000 ) ) ;
#292 = DATE_TIME_ROLE ( 'creation_date' ) ;
#293 = PLANE ( 'NONE',  #214 ) ;
#294 = SECURITY_CLASSIFICATION_LEVEL ( 'unclassified' ) ;
#295 = CARTESIAN_POINT ( 'NONE',  ( 0.000000000000000000, 0.000000000000000000, 5.200000000000009948 ) ) ;
#296 = PLANE ( 'NONE',  #281 ) ;
#297 = EDGE_LOOP ( 'NONE', ( #162, #36, #282, #164 ) ) ;
#298 = APPROVAL_ROLE ( '' ) ;
#299 = VERTEX_POINT ( 'NONE', #271 ) ;
#300 = APPROVAL_PERSON_ORGANIZATION ( #92, #117, #163 ) ;
#301 = DIRECTION ( 'NONE',  ( 0.000000000000000000, 0.000000000000000000, 1.000000000000000000 ) ) ;
#302 = AXIS2_PLACEMENT_3D ( 'NONE', #14, #245, #109 ) ;
#303 = CARTESIAN_POINT ( 'NONE',  ( -8.000000000000000000, 0.000000000000000000, 0.000000000000000000 ) ) ;
#304 = CIRCLE ( 'NONE', #38, 5.100000000000001421 ) ;
#305 = CARTESIAN_POINT ( 'NONE',  ( 5.100000000000001421, 6.245698675651502811E-16, 205.0000000000000284 ) ) ;
#306 = CARTESIAN_POINT ( 'NONE',  ( 8.000000000000000000, 9.797174393178825657E-16, 5.000000000000000000 ) ) ;
#307 = CARTESIAN_POINT ( 'NONE',  ( 0.000000000000000000, 0.000000000000000000, 5.000000000000000000 ) ) ;
ENDSEC;
END-ISO-10303-21;
