ISO-10303-21;
HEADER;
FILE_DESCRIPTION (( 'STEP AP203' ),
    '1' );
FILE_NAME ('e4a8.STEP',
    '2022-06-20T09:43:39',
    ( '' ),
    ( '' ),
    'SwSTEP 2.0',
    'SolidWorks 2019',
    '' );
FILE_SCHEMA (( 'CONFIG_CONTROL_DESIGN' ));
ENDSEC;

DATA;
#1 = DIRECTION ( 'NONE',  ( 1.000000000000000000, 0.000000000000000000, 0.000000000000000000 ) ) ;
#2 = VERTEX_POINT ( 'NONE', #290 ) ;
#3 = AXIS2_PLACEMENT_3D ( 'NONE', #76, #30, #78 ) ;
#4 = LINE ( 'NONE', #91, #286 ) ;
#5 = ORIENTED_EDGE ( 'NONE', *, *, #37, .F. ) ;
#6 = ADVANCED_FACE ( 'NONE', ( #307, #41 ), #38, .T. ) ;
#7 = DIRECTION ( 'NONE',  ( 1.000000000000000000, 0.000000000000000000, 0.000000000000000000 ) ) ;
#8 =( NAMED_UNIT ( * ) PLANE_ANGLE_UNIT ( ) SI_UNIT ( $, .RADIAN. ) );
#9 = AXIS2_PLACEMENT_3D ( 'NONE', #69, #170, #272 ) ;
#10 = APPLICATION_PROTOCOL_DEFINITION ( 'international standard', 'config_control_design', 1994, #211 ) ;
#11 = VERTEX_POINT ( 'NONE', #231 ) ;
#12 = CARTESIAN_POINT ( 'NONE',  ( 0.000000000000000000, 0.000000000000000000, 0.000000000000000000 ) ) ;
#13 = AXIS2_PLACEMENT_3D ( 'NONE', #249, #147, #101 ) ;
#14 = CALENDAR_DATE ( 2022, 20, 6 ) ;
#15 = DIRECTION ( 'NONE',  ( 1.000000000000000000, 0.000000000000000000, -0.000000000000000000 ) ) ;
#16 = DESIGN_CONTEXT ( 'detailed design', #287, 'design' ) ;
#17 = CALENDAR_DATE ( 2022, 20, 6 ) ;
#18 = CARTESIAN_POINT ( 'NONE',  ( -4.700000000000000178, 5.755839955992559655E-16, 5.200000000000009948 ) ) ;
#19 = ORIENTED_EDGE ( 'NONE', *, *, #89, .T. ) ;
#20 = CIRCLE ( 'NONE', #241, 7.000000000000000000 ) ;
#21 = ORIENTED_EDGE ( 'NONE', *, *, #201, .T. ) ;
#22 = CC_DESIGN_APPROVAL ( #237, ( #61 ) ) ;
#23 = ORIENTED_EDGE ( 'NONE', *, *, #201, .F. ) ;
#24 = APPROVAL ( #206, 'NEURÈENÝ' ) ;
#25 = DIRECTION ( 'NONE',  ( -1.000000000000000000, 0.000000000000000000, 0.000000000000000000 ) ) ;
#26 = ORIENTED_EDGE ( 'NONE', *, *, #103, .F. ) ;
#27 = CARTESIAN_POINT ( 'NONE',  ( -7.000000000000000000, 0.000000000000000000, 5.000000000000000000 ) ) ;
#28 = AXIS2_PLACEMENT_3D ( 'NONE', #202, #271, #53 ) ;
#29 = ORIENTED_EDGE ( 'NONE', *, *, #240, .F. ) ;
#30 = DIRECTION ( 'NONE',  ( 0.000000000000000000, 0.000000000000000000, 1.000000000000000000 ) ) ;
#31 = DIRECTION ( 'NONE',  ( -0.000000000000000000, -0.000000000000000000, -1.000000000000000000 ) ) ;
#32 = CIRCLE ( 'NONE', #3, 4.500000000000000888 ) ;
#33 = DATE_AND_TIME ( #17, #213 ) ;
#34 = DIRECTION ( 'NONE',  ( -1.000000000000000000, 0.000000000000000000, 0.000000000000000000 ) ) ;
#35 = ADVANCED_FACE ( 'NONE', ( #187 ), #260, .T. ) ;
#36 = PERSON_AND_ORGANIZATION_ROLE ( 'design_supplier' ) ;
#37 = EDGE_CURVE ( 'NONE', #124, #246, #207, .T. ) ;
#38 = PLANE ( 'NONE',  #224 ) ;
#39 = TOROIDAL_SURFACE ( 'NONE', #28, 4.700000000000000178, 0.2000000000000000111 ) ;
#40 = PERSON_AND_ORGANIZATION ( #88, #295 ) ;
#41 = FACE_OUTER_BOUND ( 'NONE', #297, .T. ) ;
#42 = PERSON_AND_ORGANIZATION ( #88, #295 ) ;
#43 = DIRECTION ( 'NONE',  ( 1.000000000000000000, 0.000000000000000000, 0.000000000000000000 ) ) ;
#44 = ADVANCED_FACE ( 'NONE', ( #186 ), #139, .F. ) ;
#45 = EDGE_LOOP ( 'NONE', ( #179, #242, #23, #294 ) ) ;
#46 = CC_DESIGN_PERSON_AND_ORGANIZATION_ASSIGNMENT ( #59, #83, ( #106 ) ) ;
#47 = FACE_OUTER_BOUND ( 'NONE', #146, .T. ) ;
#48 = VERTEX_POINT ( 'NONE', #234 ) ;
#49 = AXIS2_PLACEMENT_3D ( 'NONE', #177, #150, #7 ) ;
#50 = CC_DESIGN_SECURITY_CLASSIFICATION ( #61, ( #106 ) ) ;
#51 = CARTESIAN_POINT ( 'NONE',  ( -4.500000000000000888, 0.000000000000000000, 5.200000000000009948 ) ) ;
#52 = ORIENTED_EDGE ( 'NONE', *, *, #89, .F. ) ;
#53 = DIRECTION ( 'NONE',  ( 1.000000000000000000, 0.000000000000000000, 0.000000000000000000 ) ) ;
#54 = EDGE_CURVE ( 'NONE', #11, #218, #274, .T. ) ;
#55 = CARTESIAN_POINT ( 'NONE',  ( 0.000000000000000000, 0.000000000000000000, 5.000000000000000000 ) ) ;
#56 = PERSON_AND_ORGANIZATION ( #88, #295 ) ;
#57 = APPROVAL_STATUS ( 'not_yet_approved' ) ;
#58 = CARTESIAN_POINT ( 'NONE',  ( 0.000000000000000000, 0.000000000000000000, 165.0000000000000000 ) ) ;
#59 = PERSON_AND_ORGANIZATION ( #88, #295 ) ;
#60 = CALENDAR_DATE ( 2022, 20, 6 ) ;
#61 = SECURITY_CLASSIFICATION ( '', '', #63 ) ;
#62 = DIRECTION ( 'NONE',  ( 0.000000000000000000, 0.000000000000000000, 1.000000000000000000 ) ) ;
#63 = SECURITY_CLASSIFICATION_LEVEL ( 'unclassified' ) ;
#64 = CARTESIAN_POINT ( 'NONE',  ( 4.500000000000000888, 5.510910596163089556E-16, 165.0000000000000000 ) ) ;
#65 = DIRECTION ( 'NONE',  ( -0.000000000000000000, -0.000000000000000000, -1.000000000000000000 ) ) ;
#66 = CLOSED_SHELL ( 'NONE', ( #303, #113, #291, #182, #6, #44, #194, #35, #152 ) ) ;
#67 = DIRECTION ( 'NONE',  ( -1.000000000000000000, 1.224646799147353454E-16, 0.000000000000000000 ) ) ;
#68 = EDGE_LOOP ( 'NONE', ( #227, #95, #173, #70 ) ) ;
#69 = CARTESIAN_POINT ( 'NONE',  ( 0.000000000000000000, 0.000000000000000000, 5.000000000000000000 ) ) ;
#70 = ORIENTED_EDGE ( 'NONE', *, *, #268, .F. ) ;
#71 = CC_DESIGN_PERSON_AND_ORGANIZATION_ASSIGNMENT ( #40, #164, ( #120 ) ) ;
#72 = AXIS2_PLACEMENT_3D ( 'NONE', #302, #65, #34 ) ;
#73 =( LENGTH_UNIT ( ) NAMED_UNIT ( * ) SI_UNIT ( .MILLI., .METRE. ) );
#74 = EDGE_LOOP ( 'NONE', ( #21, #223 ) ) ;
#75 = CARTESIAN_POINT ( 'NONE',  ( 0.000000000000000000, 0.000000000000000000, 5.000000000000000000 ) ) ;
#76 = CARTESIAN_POINT ( 'NONE',  ( 0.000000000000000000, 0.000000000000000000, 5.200000000000009948 ) ) ;
#77 = CYLINDRICAL_SURFACE ( 'NONE', #87, 4.500000000000000888 ) ;
#78 = DIRECTION ( 'NONE',  ( 1.000000000000000000, 0.000000000000000000, 0.000000000000000000 ) ) ;
#79 = APPROVAL_ROLE ( '' ) ;
#80 = AXIS2_PLACEMENT_3D ( 'NONE', #305, #238, #43 ) ;
#81 = LOCAL_TIME ( 11, 43, 39.00000000000000000, #299 ) ;
#82 = CALENDAR_DATE ( 2022, 20, 6 ) ;
#83 = PERSON_AND_ORGANIZATION_ROLE ( 'creator' ) ;
#84 = APPROVAL_DATE_TIME ( #157, #24 ) ;
#85 = CARTESIAN_POINT ( 'NONE',  ( 4.500000000000000888, 5.510910596163089556E-16, 5.200000000000009948 ) ) ;
#86 = COORDINATED_UNIVERSAL_TIME_OFFSET ( 1, 0, .AHEAD. ) ;
#87 = AXIS2_PLACEMENT_3D ( 'NONE', #96, #244, #25 ) ;
#88 = PERSON ( 'NEURÈENÝ', 'NEURÈENÝ', 'NEURÈENÝ', ('NEURÈENÝ'), ('NEURÈENÝ'), ('NEURÈENÝ') ) ;
#89 = EDGE_CURVE ( 'NONE', #148, #266, #119, .T. ) ;
#90 = ORIENTED_EDGE ( 'NONE', *, *, #133, .F. ) ;
#91 = CARTESIAN_POINT ( 'NONE',  ( 7.000000000000000000, 8.572527594031473190E-16, 5.000000000000000000 ) ) ;
#92 = VERTEX_POINT ( 'NONE', #85 ) ;
#93 = ORIENTED_EDGE ( 'NONE', *, *, #54, .T. ) ;
#94 = DIRECTION ( 'NONE',  ( -0.000000000000000000, -0.000000000000000000, -1.000000000000000000 ) ) ;
#95 = ORIENTED_EDGE ( 'NONE', *, *, #133, .T. ) ;
#96 = CARTESIAN_POINT ( 'NONE',  ( 0.000000000000000000, 0.000000000000000000, 165.0000000000000000 ) ) ;
#97 = EDGE_CURVE ( 'NONE', #2, #92, #184, .T. ) ;
#98 = ORIENTED_EDGE ( 'NONE', *, *, #261, .T. ) ;
#99 = CARTESIAN_POINT ( 'NONE',  ( 4.700000000000000178, 0.000000000000000000, 5.200000000000009948 ) ) ;
#100 = ORIENTED_EDGE ( 'NONE', *, *, #37, .T. ) ;
#101 = DIRECTION ( 'NONE',  ( 1.000000000000000000, 0.000000000000000000, 0.000000000000000000 ) ) ;
#102 = VECTOR ( 'NONE', #280, 1000.000000000000000 ) ;
#103 = EDGE_CURVE ( 'NONE', #266, #148, #20, .T. ) ;
#104 = AXIS2_PLACEMENT_3D ( 'NONE', #18, #214, #67 ) ;
#105 = CYLINDRICAL_SURFACE ( 'NONE', #300, 7.000000000000000000 ) ;
#106 = PRODUCT_DEFINITION_FORMATION_WITH_SPECIFIED_SOURCE ( 'LIBOVOLNÝ', '', #120, .NOT_KNOWN. ) ;
#107 = UNCERTAINTY_MEASURE_WITH_UNIT (LENGTH_MEASURE( 1.000000000000000082E-05 ), #73, 'distance_accuracy_value', 'NONE');
#108 = DIRECTION ( 'NONE',  ( 0.000000000000000000, 0.000000000000000000, -1.000000000000000000 ) ) ;
#109 = COORDINATED_UNIVERSAL_TIME_OFFSET ( 1, 0, .AHEAD. ) ;
#110 = CIRCLE ( 'NONE', #185, 4.500000000000000888 ) ;
#111 = DIRECTION ( 'NONE',  ( 1.000000000000000000, 0.000000000000000000, 0.000000000000000000 ) ) ;
#112 = CARTESIAN_POINT ( 'NONE',  ( 0.000000000000000000, 0.000000000000000000, 5.000000000000000000 ) ) ;
#113 = ADVANCED_FACE ( 'NONE', ( #205 ), #140, .T. ) ;
#114 = DATE_AND_TIME ( #14, #171 ) ;
#115 = CARTESIAN_POINT ( 'NONE',  ( 0.000000000000000000, 0.000000000000000000, 0.000000000000000000 ) ) ;
#116 = ORIENTED_EDGE ( 'NONE', *, *, #189, .T. ) ;
#117 = EDGE_CURVE ( 'NONE', #2, #124, #110, .T. ) ;
#118 = FACE_OUTER_BOUND ( 'NONE', #215, .T. ) ;
#119 = CIRCLE ( 'NONE', #292, 7.000000000000000000 ) ;
#120 = PRODUCT ( 'e4a8', 'e4a8', '', ( #230 ) ) ;
#121 = EDGE_LOOP ( 'NONE', ( #116, #267 ) ) ;
#122 = AXIS2_PLACEMENT_3D ( 'NONE', #188, #216, #239 ) ;
#123 = DIRECTION ( 'NONE',  ( 1.000000000000000000, 0.000000000000000000, 0.000000000000000000 ) ) ;
#124 = VERTEX_POINT ( 'NONE', #243 ) ;
#125 = AXIS2_PLACEMENT_3D ( 'NONE', #99, #251, #108 ) ;
#126 = CARTESIAN_POINT ( 'NONE',  ( 7.000000000000000000, 8.572527594031473190E-16, 0.000000000000000000 ) ) ;
#127 = MANIFOLD_SOLID_BREP ( 'Zaoblit1', #66 ) ;
#128 = EDGE_CURVE ( 'NONE', #48, #285, #264, .T. ) ;
#129 = CARTESIAN_POINT ( 'NONE',  ( -7.000000000000000000, 0.000000000000000000, 5.000000000000000000 ) ) ;
#130 = ORIENTED_EDGE ( 'NONE', *, *, #284, .T. ) ;
#131 = FACE_OUTER_BOUND ( 'NONE', #68, .T. ) ;
#132 = AXIS2_PLACEMENT_3D ( 'NONE', #262, #192, #123 ) ;
#133 = EDGE_CURVE ( 'NONE', #11, #266, #4, .T. ) ;
#134 = LOCAL_TIME ( 11, 43, 39.00000000000000000, #254 ) ;
#135 = DIRECTION ( 'NONE',  ( 1.000000000000000000, 0.000000000000000000, 0.000000000000000000 ) ) ;
#136 = APPROVAL ( #278, 'NEURÈENÝ' ) ;
#137 = DIRECTION ( 'NONE',  ( 1.000000000000000000, 0.000000000000000000, -0.000000000000000000 ) ) ;
#138 = PERSON_AND_ORGANIZATION ( #88, #295 ) ;
#139 = PLANE ( 'NONE',  #193 ) ;
#140 = CYLINDRICAL_SURFACE ( 'NONE', #72, 4.500000000000000888 ) ;
#141 = CIRCLE ( 'NONE', #49, 4.500000000000000888 ) ;
#142 = APPROVAL_PERSON_ORGANIZATION ( #306, #237, #277 ) ;
#143 = ORIENTED_EDGE ( 'NONE', *, *, #163, .F. ) ;
#144 = APPROVAL_PERSON_ORGANIZATION ( #56, #24, #279 ) ;
#145 = DIRECTION ( 'NONE',  ( 0.000000000000000000, 0.000000000000000000, 1.000000000000000000 ) ) ;
#146 = EDGE_LOOP ( 'NONE', ( #90, #29, #203, #19 ) ) ;
#147 = DIRECTION ( 'NONE',  ( 0.000000000000000000, 0.000000000000000000, 1.000000000000000000 ) ) ;
#148 = VERTEX_POINT ( 'NONE', #195 ) ;
#149 = ADVANCED_BREP_SHAPE_REPRESENTATION ( 'e4a8', ( #127, #219 ), #233 ) ;
#150 = DIRECTION ( 'NONE',  ( 0.000000000000000000, 0.000000000000000000, 1.000000000000000000 ) ) ;
#151 = PRODUCT_DEFINITION_SHAPE ( 'NONE', 'NONE',  #281 ) ;
#152 = ADVANCED_FACE ( 'NONE', ( #118 ), #156, .F. ) ;
#153 = CIRCLE ( 'NONE', #13, 4.500000000000000888 ) ;
#154 = EDGE_LOOP ( 'NONE', ( #250, #190, #273, #5 ) ) ;
#155 = ORIENTED_EDGE ( 'NONE', *, *, #217, .F. ) ;
#156 = TOROIDAL_SURFACE ( 'NONE', #122, 4.700000000000000178, 0.2000000000000000111 ) ;
#157 = DATE_AND_TIME ( #256, #200 ) ;
#158 = EDGE_LOOP ( 'NONE', ( #52, #26 ) ) ;
#159 = DIRECTION ( 'NONE',  ( 0.000000000000000000, 0.000000000000000000, 1.000000000000000000 ) ) ;
#160 = CC_DESIGN_DATE_AND_TIME_ASSIGNMENT ( #235, #183, ( #281 ) ) ;
#161 = APPROVAL_DATE_TIME ( #33, #237 ) ;
#162 = DIRECTION ( 'NONE',  ( -0.000000000000000000, -0.000000000000000000, -1.000000000000000000 ) ) ;
#163 = EDGE_CURVE ( 'NONE', #246, #48, #196, .T. ) ;
#164 = PERSON_AND_ORGANIZATION_ROLE ( 'design_owner' ) ;
#165 = CARTESIAN_POINT ( 'NONE',  ( 0.000000000000000000, 0.000000000000000000, 0.000000000000000000 ) ) ;
#166 = SHAPE_DEFINITION_REPRESENTATION ( #151, #149 ) ;
#167 = DIRECTION ( 'NONE',  ( 1.000000000000000000, 0.000000000000000000, 0.000000000000000000 ) ) ;
#168 = APPROVAL_PERSON_ORGANIZATION ( #138, #136, #79 ) ;
#169 = CIRCLE ( 'NONE', #221, 7.000000000000000000 ) ;
#170 = DIRECTION ( 'NONE',  ( -0.000000000000000000, -0.000000000000000000, -1.000000000000000000 ) ) ;
#171 = LOCAL_TIME ( 11, 43, 39.00000000000000000, #301 ) ;
#172 = CC_DESIGN_PERSON_AND_ORGANIZATION_ASSIGNMENT ( #252, #209, ( #61 ) ) ;
#173 = ORIENTED_EDGE ( 'NONE', *, *, #103, .T. ) ;
#174 = DIRECTION ( 'NONE',  ( 1.000000000000000000, 0.000000000000000000, 0.000000000000000000 ) ) ;
#175 = FACE_OUTER_BOUND ( 'NONE', #45, .T. ) ;
#176 = CIRCLE ( 'NONE', #125, 0.1999999999999996503 ) ;
#177 = CARTESIAN_POINT ( 'NONE',  ( 0.000000000000000000, 0.000000000000000000, 165.0000000000000000 ) ) ;
#178 = DIRECTION ( 'NONE',  ( 1.000000000000000000, 0.000000000000000000, 0.000000000000000000 ) ) ;
#179 = ORIENTED_EDGE ( 'NONE', *, *, #261, .F. ) ;
#180 = PERSON_AND_ORGANIZATION ( #88, #295 ) ;
#181 = DIRECTION ( 'NONE',  ( 0.000000000000000000, 0.000000000000000000, 1.000000000000000000 ) ) ;
#182 = ADVANCED_FACE ( 'NONE', ( #47 ), #282, .T. ) ;
#183 = DATE_TIME_ROLE ( 'creation_date' ) ;
#184 = LINE ( 'NONE', #64, #210 ) ;
#185 = AXIS2_PLACEMENT_3D ( 'NONE', #255, #145, #1 ) ;
#186 = FACE_OUTER_BOUND ( 'NONE', #158, .T. ) ;
#187 = FACE_OUTER_BOUND ( 'NONE', #121, .T. ) ;
#188 = CARTESIAN_POINT ( 'NONE',  ( 0.000000000000000000, 0.000000000000000000, 5.200000000000009948 ) ) ;
#189 = EDGE_CURVE ( 'NONE', #124, #2, #141, .T. ) ;
#190 = ORIENTED_EDGE ( 'NONE', *, *, #97, .T. ) ;
#191 = CC_DESIGN_DATE_AND_TIME_ASSIGNMENT ( #259, #275, ( #61 ) ) ;
#192 = DIRECTION ( 'NONE',  ( -0.000000000000000000, -0.000000000000000000, -1.000000000000000000 ) ) ;
#193 = AXIS2_PLACEMENT_3D ( 'NONE', #165, #181, #229 ) ;
#194 = ADVANCED_FACE ( 'NONE', ( #198 ), #77, .T. ) ;
#195 = CARTESIAN_POINT ( 'NONE',  ( -7.000000000000000000, 0.000000000000000000, 0.000000000000000000 ) ) ;
#196 = CIRCLE ( 'NONE', #104, 0.1999999999999996503 ) ;
#197 = DIRECTION ( 'NONE',  ( -1.000000000000000000, 0.000000000000000000, 0.000000000000000000 ) ) ;
#198 = FACE_OUTER_BOUND ( 'NONE', #270, .T. ) ;
#199 = CC_DESIGN_APPROVAL ( #136, ( #106 ) ) ;
#200 = LOCAL_TIME ( 11, 43, 39.00000000000000000, #109 ) ;
#201 = EDGE_CURVE ( 'NONE', #285, #48, #265, .T. ) ;
#202 = CARTESIAN_POINT ( 'NONE',  ( 0.000000000000000000, 0.000000000000000000, 5.200000000000009948 ) ) ;
#203 = ORIENTED_EDGE ( 'NONE', *, *, #268, .T. ) ;
#204 = PERSON_AND_ORGANIZATION_ROLE ( 'creator' ) ;
#205 = FACE_OUTER_BOUND ( 'NONE', #154, .T. ) ;
#206 = APPROVAL_STATUS ( 'not_yet_approved' ) ;
#207 = LINE ( 'NONE', #253, #102 ) ;
#208 = DIRECTION ( 'NONE',  ( 0.000000000000000000, 0.000000000000000000, 1.000000000000000000 ) ) ;
#209 = PERSON_AND_ORGANIZATION_ROLE ( 'classification_officer' ) ;
#210 = VECTOR ( 'NONE', #162, 1000.000000000000000 ) ;
#211 = APPLICATION_CONTEXT ( 'configuration controlled 3d designs of mechanical parts and assemblies' ) ;
#212 = CC_DESIGN_APPROVAL ( #24, ( #281 ) ) ;
#213 = LOCAL_TIME ( 11, 43, 39.00000000000000000, #86 ) ;
#214 = DIRECTION ( 'NONE',  ( 1.224646799147353207E-16, 1.000000000000000000, -0.000000000000000000 ) ) ;
#215 = EDGE_LOOP ( 'NONE', ( #143, #155, #130, #245 ) ) ;
#216 = DIRECTION ( 'NONE',  ( 0.000000000000000000, 0.000000000000000000, 1.000000000000000000 ) ) ;
#217 = EDGE_CURVE ( 'NONE', #92, #246, #32, .T. ) ;
#218 = VERTEX_POINT ( 'NONE', #27 ) ;
#219 = AXIS2_PLACEMENT_3D ( 'NONE', #304, #208, #135 ) ;
#220 = PRODUCT_RELATED_PRODUCT_CATEGORY ( 'detail', '', ( #120 ) ) ;
#221 = AXIS2_PLACEMENT_3D ( 'NONE', #55, #269, #178 ) ;
#222 = LINE ( 'NONE', #129, #296 ) ;
#223 = ORIENTED_EDGE ( 'NONE', *, *, #128, .T. ) ;
#224 = AXIS2_PLACEMENT_3D ( 'NONE', #112, #62, #15 ) ;
#225 = CARTESIAN_POINT ( 'NONE',  ( 4.700000000000000178, 0.000000000000000000, 5.000000000000005329 ) ) ;
#226 = AXIS2_PLACEMENT_3D ( 'NONE', #75, #288, #174 ) ;
#227 = ORIENTED_EDGE ( 'NONE', *, *, #54, .F. ) ;
#228 = CC_DESIGN_PERSON_AND_ORGANIZATION_ASSIGNMENT ( #42, #204, ( #281 ) ) ;
#229 = DIRECTION ( 'NONE',  ( 1.000000000000000000, 0.000000000000000000, -0.000000000000000000 ) ) ;
#230 = MECHANICAL_CONTEXT ( 'NONE', #211, 'mechanical' ) ;
#231 = CARTESIAN_POINT ( 'NONE',  ( 7.000000000000000000, 8.572527594031473190E-16, 5.000000000000000000 ) ) ;
#232 = AXIS2_PLACEMENT_3D ( 'NONE', #58, #257, #137 ) ;
#233 =( GEOMETRIC_REPRESENTATION_CONTEXT ( 3 ) GLOBAL_UNCERTAINTY_ASSIGNED_CONTEXT ( ( #107 ) ) GLOBAL_UNIT_ASSIGNED_CONTEXT ( ( #73, #8, #293 ) ) REPRESENTATION_CONTEXT ( 'NONE', 'WORKASPACE' ) );
#234 = CARTESIAN_POINT ( 'NONE',  ( -4.700000000000000178, 5.755839955992559655E-16, 5.000000000000005329 ) ) ;
#235 = DATE_AND_TIME ( #82, #81 ) ;
#236 = DIRECTION ( 'NONE',  ( 0.000000000000000000, 0.000000000000000000, 1.000000000000000000 ) ) ;
#237 = APPROVAL ( #57, 'NEURÈENÝ' ) ;
#238 = DIRECTION ( 'NONE',  ( 0.000000000000000000, 0.000000000000000000, 1.000000000000000000 ) ) ;
#239 = DIRECTION ( 'NONE',  ( 1.000000000000000000, 0.000000000000000000, 0.000000000000000000 ) ) ;
#240 = EDGE_CURVE ( 'NONE', #218, #11, #169, .T. ) ;
#241 = AXIS2_PLACEMENT_3D ( 'NONE', #115, #159, #167 ) ;
#242 = ORIENTED_EDGE ( 'NONE', *, *, #163, .T. ) ;
#243 = CARTESIAN_POINT ( 'NONE',  ( -4.500000000000000888, 0.000000000000000000, 165.0000000000000000 ) ) ;
#244 = DIRECTION ( 'NONE',  ( -0.000000000000000000, -0.000000000000000000, -1.000000000000000000 ) ) ;
#245 = ORIENTED_EDGE ( 'NONE', *, *, #128, .F. ) ;
#246 = VERTEX_POINT ( 'NONE', #51 ) ;
#247 = CC_DESIGN_PERSON_AND_ORGANIZATION_ASSIGNMENT ( #180, #36, ( #106 ) ) ;
#248 = CARTESIAN_POINT ( 'NONE',  ( 0.000000000000000000, 0.000000000000000000, 5.000000000000000000 ) ) ;
#249 = CARTESIAN_POINT ( 'NONE',  ( 0.000000000000000000, 0.000000000000000000, 5.200000000000009948 ) ) ;
#250 = ORIENTED_EDGE ( 'NONE', *, *, #117, .F. ) ;
#251 = DIRECTION ( 'NONE',  ( 0.000000000000000000, -1.000000000000000000, 0.000000000000000000 ) ) ;
#252 = PERSON_AND_ORGANIZATION ( #88, #295 ) ;
#253 = CARTESIAN_POINT ( 'NONE',  ( -4.500000000000000888, 0.000000000000000000, 165.0000000000000000 ) ) ;
#254 = COORDINATED_UNIVERSAL_TIME_OFFSET ( 1, 0, .AHEAD. ) ;
#255 = CARTESIAN_POINT ( 'NONE',  ( 0.000000000000000000, 0.000000000000000000, 165.0000000000000000 ) ) ;
#256 = CALENDAR_DATE ( 2022, 20, 6 ) ;
#257 = DIRECTION ( 'NONE',  ( 0.000000000000000000, 0.000000000000000000, 1.000000000000000000 ) ) ;
#258 = APPLICATION_PROTOCOL_DEFINITION ( 'international standard', 'config_control_design', 1994, #287 ) ;
#259 = DATE_AND_TIME ( #60, #134 ) ;
#260 = PLANE ( 'NONE',  #232 ) ;
#261 = EDGE_CURVE ( 'NONE', #246, #92, #153, .T. ) ;
#262 = CARTESIAN_POINT ( 'NONE',  ( 0.000000000000000000, 0.000000000000000000, 5.000000000000000000 ) ) ;
#263 = ORIENTED_EDGE ( 'NONE', *, *, #240, .T. ) ;
#264 = CIRCLE ( 'NONE', #132, 4.700000000000000178 ) ;
#265 = CIRCLE ( 'NONE', #226, 4.700000000000000178 ) ;
#266 = VERTEX_POINT ( 'NONE', #126 ) ;
#267 = ORIENTED_EDGE ( 'NONE', *, *, #117, .T. ) ;
#268 = EDGE_CURVE ( 'NONE', #218, #148, #222, .T. ) ;
#269 = DIRECTION ( 'NONE',  ( 0.000000000000000000, 0.000000000000000000, 1.000000000000000000 ) ) ;
#270 = EDGE_LOOP ( 'NONE', ( #276, #283, #100, #98 ) ) ;
#271 = DIRECTION ( 'NONE',  ( 0.000000000000000000, 0.000000000000000000, 1.000000000000000000 ) ) ;
#272 = DIRECTION ( 'NONE',  ( -1.000000000000000000, 0.000000000000000000, 0.000000000000000000 ) ) ;
#273 = ORIENTED_EDGE ( 'NONE', *, *, #217, .T. ) ;
#274 = CIRCLE ( 'NONE', #80, 7.000000000000000000 ) ;
#275 = DATE_TIME_ROLE ( 'classification_date' ) ;
#276 = ORIENTED_EDGE ( 'NONE', *, *, #97, .F. ) ;
#277 = APPROVAL_ROLE ( '' ) ;
#278 = APPROVAL_STATUS ( 'not_yet_approved' ) ;
#279 = APPROVAL_ROLE ( '' ) ;
#280 = DIRECTION ( 'NONE',  ( -0.000000000000000000, -0.000000000000000000, -1.000000000000000000 ) ) ;
#281 = PRODUCT_DEFINITION ( 'NEZNÁMÝ', '', #106, #16 ) ;
#282 = CYLINDRICAL_SURFACE ( 'NONE', #9, 7.000000000000000000 ) ;
#283 = ORIENTED_EDGE ( 'NONE', *, *, #189, .F. ) ;
#284 = EDGE_CURVE ( 'NONE', #92, #285, #176, .T. ) ;
#285 = VERTEX_POINT ( 'NONE', #225 ) ;
#286 = VECTOR ( 'NONE', #94, 1000.000000000000000 ) ;
#287 = APPLICATION_CONTEXT ( 'configuration controlled 3d designs of mechanical parts and assemblies' ) ;
#288 = DIRECTION ( 'NONE',  ( -0.000000000000000000, -0.000000000000000000, -1.000000000000000000 ) ) ;
#289 = DIRECTION ( 'NONE',  ( -0.000000000000000000, -0.000000000000000000, -1.000000000000000000 ) ) ;
#290 = CARTESIAN_POINT ( 'NONE',  ( 4.500000000000000888, 5.510910596163089556E-16, 165.0000000000000000 ) ) ;
#291 = ADVANCED_FACE ( 'NONE', ( #131 ), #105, .T. ) ;
#292 = AXIS2_PLACEMENT_3D ( 'NONE', #12, #236, #111 ) ;
#293 =( NAMED_UNIT ( * ) SI_UNIT ( $, .STERADIAN. ) SOLID_ANGLE_UNIT ( ) );
#294 = ORIENTED_EDGE ( 'NONE', *, *, #284, .F. ) ;
#295 = ORGANIZATION ( 'NEURÈENÝ', 'NEURÈENÝ', '' ) ;
#296 = VECTOR ( 'NONE', #289, 1000.000000000000000 ) ;
#297 = EDGE_LOOP ( 'NONE', ( #263, #93 ) ) ;
#298 = APPROVAL_DATE_TIME ( #114, #136 ) ;
#299 = COORDINATED_UNIVERSAL_TIME_OFFSET ( 1, 0, .AHEAD. ) ;
#300 = AXIS2_PLACEMENT_3D ( 'NONE', #248, #31, #197 ) ;
#301 = COORDINATED_UNIVERSAL_TIME_OFFSET ( 1, 0, .AHEAD. ) ;
#302 = CARTESIAN_POINT ( 'NONE',  ( 0.000000000000000000, 0.000000000000000000, 165.0000000000000000 ) ) ;
#303 = ADVANCED_FACE ( 'NONE', ( #175 ), #39, .F. ) ;
#304 = CARTESIAN_POINT ( 'NONE',  ( 0.000000000000000000, 0.000000000000000000, 0.000000000000000000 ) ) ;
#305 = CARTESIAN_POINT ( 'NONE',  ( 0.000000000000000000, 0.000000000000000000, 5.000000000000000000 ) ) ;
#306 = PERSON_AND_ORGANIZATION ( #88, #295 ) ;
#307 = FACE_BOUND ( 'NONE', #74, .T. ) ;
ENDSEC;
END-ISO-10303-21;
