ISO-10303-21;
HEADER;
FILE_DESCRIPTION (( 'STEP AP203' ),
    '1' );
FILE_NAME ('f689.STEP',
    '2022-06-20T09:47:16',
    ( '' ),
    ( '' ),
    'SwSTEP 2.0',
    'SolidWorks 2019',
    '' );
FILE_SCHEMA (( 'CONFIG_CONTROL_DESIGN' ));
ENDSEC;

DATA;
#1 = DIRECTION ( 'NONE',  ( -0.000000000000000000, -0.000000000000000000, -1.000000000000000000 ) ) ;
#2 = EDGE_CURVE ( 'NONE', #93, #232, #159, .T. ) ;
#3 = MECHANICAL_CONTEXT ( 'NONE', #103, 'mechanical' ) ;
#4 = AXIS2_PLACEMENT_3D ( 'NONE', #298, #35, #29 ) ;
#5 = PERSON_AND_ORGANIZATION ( #40, #114 ) ;
#6 = APPROVAL ( #146, 'NEURÈENÝ' ) ;
#7 = APPROVAL_STATUS ( 'not_yet_approved' ) ;
#8 = ORIENTED_EDGE ( 'NONE', *, *, #80, .T. ) ;
#9 = DIRECTION ( 'NONE',  ( 0.000000000000000000, 0.000000000000000000, 1.000000000000000000 ) ) ;
#10 = DIRECTION ( 'NONE',  ( -0.000000000000000000, -0.000000000000000000, -1.000000000000000000 ) ) ;
#11 = DIRECTION ( 'NONE',  ( -0.000000000000000000, -0.000000000000000000, -1.000000000000000000 ) ) ;
#12 = PLANE ( 'NONE',  #260 ) ;
#13 = ORIENTED_EDGE ( 'NONE', *, *, #196, .T. ) ;
#14 = DIRECTION ( 'NONE',  ( 1.224646799147353207E-16, 1.000000000000000000, -0.000000000000000000 ) ) ;
#15 = EDGE_LOOP ( 'NONE', ( #226, #55, #276, #17 ) ) ;
#16 = CARTESIAN_POINT ( 'NONE',  ( 0.000000000000000000, 0.000000000000000000, 5.000000000000000000 ) ) ;
#17 = ORIENTED_EDGE ( 'NONE', *, *, #274, .F. ) ;
#18 = UNCERTAINTY_MEASURE_WITH_UNIT (LENGTH_MEASURE( 1.000000000000000082E-05 ), #78, 'distance_accuracy_value', 'NONE');
#19 = DIRECTION ( 'NONE',  ( 1.000000000000000000, 0.000000000000000000, -0.000000000000000000 ) ) ;
#20 = FACE_OUTER_BOUND ( 'NONE', #272, .T. ) ;
#21 = CARTESIAN_POINT ( 'NONE',  ( 7.000000000000000000, 8.572527594031473190E-16, 0.000000000000000000 ) ) ;
#22 = APPLICATION_PROTOCOL_DEFINITION ( 'international standard', 'config_control_design', 1994, #103 ) ;
#23 = CC_DESIGN_PERSON_AND_ORGANIZATION_ASSIGNMENT ( #195, #171, ( #118 ) ) ;
#24 = PERSON_AND_ORGANIZATION ( #40, #114 ) ;
#25 = DATE_TIME_ROLE ( 'classification_date' ) ;
#26 = COORDINATED_UNIVERSAL_TIME_OFFSET ( 1, 0, .AHEAD. ) ;
#27 = CALENDAR_DATE ( 2022, 20, 6 ) ;
#28 = CARTESIAN_POINT ( 'NONE',  ( 0.000000000000000000, 0.000000000000000000, 0.000000000000000000 ) ) ;
#29 = DIRECTION ( 'NONE',  ( 1.000000000000000000, 0.000000000000000000, 0.000000000000000000 ) ) ;
#30 = EDGE_CURVE ( 'NONE', #127, #152, #54, .T. ) ;
#31 = ORIENTED_EDGE ( 'NONE', *, *, #187, .T. ) ;
#32 = CARTESIAN_POINT ( 'NONE',  ( -4.099999999999999645, 0.000000000000000000, 165.0000000000000000 ) ) ;
#33 = VECTOR ( 'NONE', #262, 1000.000000000000000 ) ;
#34 = ORIENTED_EDGE ( 'NONE', *, *, #89, .F. ) ;
#35 = DIRECTION ( 'NONE',  ( 0.000000000000000000, 0.000000000000000000, 1.000000000000000000 ) ) ;
#36 = EDGE_LOOP ( 'NONE', ( #99, #302, #101, #271 ) ) ;
#37 = AXIS2_PLACEMENT_3D ( 'NONE', #230, #14, #292 ) ;
#38 = CARTESIAN_POINT ( 'NONE',  ( 4.099999999999999645, 5.021051876504147385E-16, 165.0000000000000000 ) ) ;
#39 = ORIENTED_EDGE ( 'NONE', *, *, #296, .T. ) ;
#40 = PERSON ( 'NEURÈENÝ', 'NEURÈENÝ', 'NEURÈENÝ', ('NEURÈENÝ'), ('NEURÈENÝ'), ('NEURÈENÝ') ) ;
#41 = LOCAL_TIME ( 11, 47, 16.00000000000000000, #85 ) ;
#42 = CARTESIAN_POINT ( 'NONE',  ( 4.299999999999998934, 0.000000000000000000, 5.000000000000005329 ) ) ;
#43 = CIRCLE ( 'NONE', #90, 4.099999999999999645 ) ;
#44 = DIRECTION ( 'NONE',  ( 1.000000000000000000, 0.000000000000000000, 0.000000000000000000 ) ) ;
#45 = EDGE_CURVE ( 'NONE', #93, #279, #202, .T. ) ;
#46 = DIRECTION ( 'NONE',  ( 0.000000000000000000, 0.000000000000000000, 1.000000000000000000 ) ) ;
#47 = AXIS2_PLACEMENT_3D ( 'NONE', #257, #110, #188 ) ;
#48 = PERSON_AND_ORGANIZATION ( #40, #114 ) ;
#49 = CC_DESIGN_DATE_AND_TIME_ASSIGNMENT ( #191, #25, ( #86 ) ) ;
#50 = APPROVAL_DATE_TIME ( #172, #137 ) ;
#51 = CC_DESIGN_APPROVAL ( #139, ( #86 ) ) ;
#52 = CARTESIAN_POINT ( 'NONE',  ( 0.000000000000000000, 0.000000000000000000, 5.000000000000000000 ) ) ;
#53 = DIRECTION ( 'NONE',  ( -1.000000000000000000, 0.000000000000000000, 0.000000000000000000 ) ) ;
#54 = CIRCLE ( 'NONE', #4, 4.099999999999999645 ) ;
#55 = ORIENTED_EDGE ( 'NONE', *, *, #119, .T. ) ;
#56 = CC_DESIGN_DATE_AND_TIME_ASSIGNMENT ( #239, #144, ( #112 ) ) ;
#57 = CARTESIAN_POINT ( 'NONE',  ( 7.000000000000000000, 8.572527594031473190E-16, 5.000000000000000000 ) ) ;
#58 = EDGE_LOOP ( 'NONE', ( #160, #77 ) ) ;
#59 = PLANE ( 'NONE',  #252 ) ;
#60 = ORIENTED_EDGE ( 'NONE', *, *, #196, .F. ) ;
#61 = CARTESIAN_POINT ( 'NONE',  ( 0.000000000000000000, 0.000000000000000000, 5.000000000000000000 ) ) ;
#62 = FACE_OUTER_BOUND ( 'NONE', #249, .T. ) ;
#63 = AXIS2_PLACEMENT_3D ( 'NONE', #61, #168, #255 ) ;
#64 = DIRECTION ( 'NONE',  ( 1.000000000000000000, 0.000000000000000000, 0.000000000000000000 ) ) ;
#65 = DESIGN_CONTEXT ( 'detailed design', #125, 'design' ) ;
#66 = DIRECTION ( 'NONE',  ( 0.000000000000000000, 0.000000000000000000, 1.000000000000000000 ) ) ;
#67 = COORDINATED_UNIVERSAL_TIME_OFFSET ( 1, 0, .AHEAD. ) ;
#68 = PERSON_AND_ORGANIZATION ( #40, #114 ) ;
#69 = CALENDAR_DATE ( 2022, 20, 6 ) ;
#70 = AXIS2_PLACEMENT_3D ( 'NONE', #96, #205, #53 ) ;
#71 = CYLINDRICAL_SURFACE ( 'NONE', #297, 4.099999999999999645 ) ;
#72 = CYLINDRICAL_SURFACE ( 'NONE', #70, 7.000000000000000000 ) ;
#73 = DIRECTION ( 'NONE',  ( 1.000000000000000000, 0.000000000000000000, 0.000000000000000000 ) ) ;
#74 = CARTESIAN_POINT ( 'NONE',  ( 7.000000000000000000, 8.572527594031473190E-16, 5.000000000000000000 ) ) ;
#75 = VERTEX_POINT ( 'NONE', #129 ) ;
#76 = CARTESIAN_POINT ( 'NONE',  ( 4.099999999999999645, 5.021051876504147385E-16, 165.0000000000000000 ) ) ;
#77 = ORIENTED_EDGE ( 'NONE', *, *, #215, .T. ) ;
#78 =( LENGTH_UNIT ( ) NAMED_UNIT ( * ) SI_UNIT ( .MILLI., .METRE. ) );
#79 = DIRECTION ( 'NONE',  ( -0.000000000000000000, -0.000000000000000000, -1.000000000000000000 ) ) ;
#80 = EDGE_CURVE ( 'NONE', #75, #157, #43, .T. ) ;
#81 = CARTESIAN_POINT ( 'NONE',  ( 0.000000000000000000, 0.000000000000000000, 5.000000000000000000 ) ) ;
#82 = CC_DESIGN_APPROVAL ( #6, ( #118 ) ) ;
#83 = CARTESIAN_POINT ( 'NONE',  ( 0.000000000000000000, 0.000000000000000000, 5.200000000000009948 ) ) ;
#84 = DIRECTION ( 'NONE',  ( -0.000000000000000000, -0.000000000000000000, -1.000000000000000000 ) ) ;
#85 = COORDINATED_UNIVERSAL_TIME_OFFSET ( 1, 0, .AHEAD. ) ;
#86 = SECURITY_CLASSIFICATION ( '', '', #289 ) ;
#87 = APPROVAL_ROLE ( '' ) ;
#88 = PERSON_AND_ORGANIZATION_ROLE ( 'creator' ) ;
#89 = EDGE_CURVE ( 'NONE', #279, #234, #248, .T. ) ;
#90 = AXIS2_PLACEMENT_3D ( 'NONE', #197, #95, #275 ) ;
#91 = APPROVAL_DATE_TIME ( #122, #139 ) ;
#92 = AXIS2_PLACEMENT_3D ( 'NONE', #177, #278, #149 ) ;
#93 = VERTEX_POINT ( 'NONE', #57 ) ;
#94 = ADVANCED_FACE ( 'NONE', ( #156 ), #12, .T. ) ;
#95 = DIRECTION ( 'NONE',  ( 0.000000000000000000, 0.000000000000000000, 1.000000000000000000 ) ) ;
#96 = CARTESIAN_POINT ( 'NONE',  ( 0.000000000000000000, 0.000000000000000000, 5.000000000000000000 ) ) ;
#97 = AXIS2_PLACEMENT_3D ( 'NONE', #81, #79, #186 ) ;
#98 = DIRECTION ( 'NONE',  ( -1.000000000000000000, 0.000000000000000000, 0.000000000000000000 ) ) ;
#99 = ORIENTED_EDGE ( 'NONE', *, *, #119, .F. ) ;
#100 = ADVANCED_FACE ( 'NONE', ( #128 ), #71, .T. ) ;
#101 = ORIENTED_EDGE ( 'NONE', *, *, #274, .T. ) ;
#102 = FACE_OUTER_BOUND ( 'NONE', #104, .T. ) ;
#103 = APPLICATION_CONTEXT ( 'configuration controlled 3d designs of mechanical parts and assemblies' ) ;
#104 = EDGE_LOOP ( 'NONE', ( #299, #60, #107, #256 ) ) ;
#105 = AXIS2_PLACEMENT_3D ( 'NONE', #185, #163, #44 ) ;
#106 = FACE_OUTER_BOUND ( 'NONE', #209, .T. ) ;
#107 = ORIENTED_EDGE ( 'NONE', *, *, #89, .T. ) ;
#108 = ADVANCED_FACE ( 'NONE', ( #250 ), #175, .T. ) ;
#109 =( NAMED_UNIT ( * ) PLANE_ANGLE_UNIT ( ) SI_UNIT ( $, .RADIAN. ) );
#110 = DIRECTION ( 'NONE',  ( 0.000000000000000000, 0.000000000000000000, 1.000000000000000000 ) ) ;
#111 = LINE ( 'NONE', #38, #33 ) ;
#112 = PRODUCT_DEFINITION ( 'NEZNÁMÝ', '', #118, #65 ) ;
#113 = AXIS2_PLACEMENT_3D ( 'NONE', #306, #66, #19 ) ;
#114 = ORGANIZATION ( 'NEURÈENÝ', 'NEURÈENÝ', '' ) ;
#115 = DIRECTION ( 'NONE',  ( 0.000000000000000000, 0.000000000000000000, 1.000000000000000000 ) ) ;
#116 = PERSON_AND_ORGANIZATION_ROLE ( 'classification_officer' ) ;
#117 = PERSON_AND_ORGANIZATION ( #40, #114 ) ;
#118 = PRODUCT_DEFINITION_FORMATION_WITH_SPECIFIED_SOURCE ( 'LIBOVOLNÝ', '', #198, .NOT_KNOWN. ) ;
#119 = EDGE_CURVE ( 'NONE', #157, #132, #123, .T. ) ;
#120 = COORDINATED_UNIVERSAL_TIME_OFFSET ( 1, 0, .AHEAD. ) ;
#121 = ADVANCED_BREP_SHAPE_REPRESENTATION ( 'f689', ( #218, #303 ), #247 ) ;
#122 = DATE_AND_TIME ( #27, #165 ) ;
#123 = CIRCLE ( 'NONE', #37, 0.1999999999999996503 ) ;
#124 = CALENDAR_DATE ( 2022, 20, 6 ) ;
#125 = APPLICATION_CONTEXT ( 'configuration controlled 3d designs of mechanical parts and assemblies' ) ;
#126 = ORIENTED_EDGE ( 'NONE', *, *, #167, .F. ) ;
#127 = VERTEX_POINT ( 'NONE', #32 ) ;
#128 = FACE_OUTER_BOUND ( 'NONE', #207, .T. ) ;
#129 = CARTESIAN_POINT ( 'NONE',  ( 4.099999999999999645, 5.021051876504147385E-16, 5.200000000000009948 ) ) ;
#130 = AXIS2_PLACEMENT_3D ( 'NONE', #236, #166, #259 ) ;
#131 = CARTESIAN_POINT ( 'NONE',  ( -4.299999999999998934, 5.265981236333617484E-16, 5.000000000000005329 ) ) ;
#132 = VERTEX_POINT ( 'NONE', #131 ) ;
#133 = PRODUCT_DEFINITION_SHAPE ( 'NONE', 'NONE',  #112 ) ;
#134 = DIRECTION ( 'NONE',  ( -1.000000000000000000, 0.000000000000000000, 0.000000000000000000 ) ) ;
#135 = ORIENTED_EDGE ( 'NONE', *, *, #203, .T. ) ;
#136 = AXIS2_PLACEMENT_3D ( 'NONE', #300, #225, #98 ) ;
#137 = APPROVAL ( #242, 'NEURÈENÝ' ) ;
#138 = ORIENTED_EDGE ( 'NONE', *, *, #173, .F. ) ;
#139 = APPROVAL ( #7, 'NEURÈENÝ' ) ;
#140 = ADVANCED_FACE ( 'NONE', ( #102 ), #72, .T. ) ;
#141 = LINE ( 'NONE', #233, #285 ) ;
#142 = DIRECTION ( 'NONE',  ( 1.000000000000000000, 0.000000000000000000, 0.000000000000000000 ) ) ;
#143 = APPROVAL_PERSON_ORGANIZATION ( #117, #137, #221 ) ;
#144 = DATE_TIME_ROLE ( 'creation_date' ) ;
#145 = PERSON_AND_ORGANIZATION ( #40, #114 ) ;
#146 = APPROVAL_STATUS ( 'not_yet_approved' ) ;
#147 = LOCAL_TIME ( 11, 47, 16.00000000000000000, #67 ) ;
#148 = PERSON_AND_ORGANIZATION ( #40, #114 ) ;
#149 = DIRECTION ( 'NONE',  ( 1.000000000000000000, 0.000000000000000000, 0.000000000000000000 ) ) ;
#150 = TOROIDAL_SURFACE ( 'NONE', #290, 4.299999999999998934, 0.2000000000000000111 ) ;
#151 = TOROIDAL_SURFACE ( 'NONE', #176, 4.299999999999998934, 0.2000000000000000111 ) ;
#152 = VERTEX_POINT ( 'NONE', #76 ) ;
#153 = DIRECTION ( 'NONE',  ( 0.000000000000000000, 0.000000000000000000, 1.000000000000000000 ) ) ;
#154 = VECTOR ( 'NONE', #10, 1000.000000000000000 ) ;
#155 = EDGE_CURVE ( 'NONE', #157, #75, #244, .T. ) ;
#156 = FACE_OUTER_BOUND ( 'NONE', #58, .T. ) ;
#157 = VERTEX_POINT ( 'NONE', #245 ) ;
#158 = CC_DESIGN_SECURITY_CLASSIFICATION ( #86, ( #118 ) ) ;
#159 = LINE ( 'NONE', #74, #154 ) ;
#160 = ORIENTED_EDGE ( 'NONE', *, *, #30, .T. ) ;
#161 = DIRECTION ( 'NONE',  ( 0.000000000000000000, 0.000000000000000000, 1.000000000000000000 ) ) ;
#162 = ORIENTED_EDGE ( 'NONE', *, *, #45, .F. ) ;
#163 = DIRECTION ( 'NONE',  ( 0.000000000000000000, 0.000000000000000000, 1.000000000000000000 ) ) ;
#164 = DIRECTION ( 'NONE',  ( 1.000000000000000000, 0.000000000000000000, 0.000000000000000000 ) ) ;
#165 = LOCAL_TIME ( 11, 47, 16.00000000000000000, #26 ) ;
#166 = DIRECTION ( 'NONE',  ( 0.000000000000000000, -1.000000000000000000, 0.000000000000000000 ) ) ;
#167 = EDGE_CURVE ( 'NONE', #234, #232, #211, .T. ) ;
#168 = DIRECTION ( 'NONE',  ( -0.000000000000000000, -0.000000000000000000, -1.000000000000000000 ) ) ;
#169 = CIRCLE ( 'NONE', #105, 7.000000000000000000 ) ;
#170 = ADVANCED_FACE ( 'NONE', ( #291, #62 ), #210, .T. ) ;
#171 = PERSON_AND_ORGANIZATION_ROLE ( 'creator' ) ;
#172 = DATE_AND_TIME ( #219, #181 ) ;
#173 = EDGE_CURVE ( 'NONE', #232, #234, #169, .T. ) ;
#174 = PERSON_AND_ORGANIZATION_ROLE ( 'design_owner' ) ;
#175 = CYLINDRICAL_SURFACE ( 'NONE', #136, 4.099999999999999645 ) ;
#176 = AXIS2_PLACEMENT_3D ( 'NONE', #189, #184, #64 ) ;
#177 = CARTESIAN_POINT ( 'NONE',  ( 0.000000000000000000, 0.000000000000000000, 5.200000000000009948 ) ) ;
#178 = DIRECTION ( 'NONE',  ( -0.000000000000000000, -0.000000000000000000, -1.000000000000000000 ) ) ;
#179 = ORIENTED_EDGE ( 'NONE', *, *, #2, .T. ) ;
#180 = ORIENTED_EDGE ( 'NONE', *, *, #30, .F. ) ;
#181 = LOCAL_TIME ( 11, 47, 16.00000000000000000, #120 ) ;
#182 = CARTESIAN_POINT ( 'NONE',  ( 0.000000000000000000, 0.000000000000000000, 165.0000000000000000 ) ) ;
#183 = ORIENTED_EDGE ( 'NONE', *, *, #173, .T. ) ;
#184 = DIRECTION ( 'NONE',  ( 0.000000000000000000, 0.000000000000000000, 1.000000000000000000 ) ) ;
#185 = CARTESIAN_POINT ( 'NONE',  ( 0.000000000000000000, 0.000000000000000000, 0.000000000000000000 ) ) ;
#186 = DIRECTION ( 'NONE',  ( 1.000000000000000000, 0.000000000000000000, 0.000000000000000000 ) ) ;
#187 = EDGE_CURVE ( 'NONE', #127, #157, #141, .T. ) ;
#188 = DIRECTION ( 'NONE',  ( 1.000000000000000000, 0.000000000000000000, 0.000000000000000000 ) ) ;
#189 = CARTESIAN_POINT ( 'NONE',  ( 0.000000000000000000, 0.000000000000000000, 5.200000000000009948 ) ) ;
#190 = ADVANCED_FACE ( 'NONE', ( #281 ), #150, .F. ) ;
#191 = DATE_AND_TIME ( #264, #41 ) ;
#192 = CIRCLE ( 'NONE', #235, 4.099999999999999645 ) ;
#193 = DIRECTION ( 'NONE',  ( 1.000000000000000000, 0.000000000000000000, 0.000000000000000000 ) ) ;
#194 = CC_DESIGN_PERSON_AND_ORGANIZATION_ASSIGNMENT ( #68, #116, ( #86 ) ) ;
#195 = PERSON_AND_ORGANIZATION ( #40, #114 ) ;
#196 = EDGE_CURVE ( 'NONE', #279, #93, #277, .T. ) ;
#197 = CARTESIAN_POINT ( 'NONE',  ( 0.000000000000000000, 0.000000000000000000, 5.200000000000009948 ) ) ;
#198 = PRODUCT ( 'f689', 'f689', '', ( #3 ) ) ;
#199 = DIRECTION ( 'NONE',  ( 1.000000000000000000, 0.000000000000000000, 0.000000000000000000 ) ) ;
#200 = CARTESIAN_POINT ( 'NONE',  ( 0.000000000000000000, 0.000000000000000000, 165.0000000000000000 ) ) ;
#201 = ORIENTED_EDGE ( 'NONE', *, *, #241, .T. ) ;
#202 = CIRCLE ( 'NONE', #216, 7.000000000000000000 ) ;
#203 = EDGE_CURVE ( 'NONE', #132, #294, #213, .T. ) ;
#204 = ORIENTED_EDGE ( 'NONE', *, *, #296, .F. ) ;
#205 = DIRECTION ( 'NONE',  ( -0.000000000000000000, -0.000000000000000000, -1.000000000000000000 ) ) ;
#206 = CC_DESIGN_PERSON_AND_ORGANIZATION_ASSIGNMENT ( #5, #240, ( #118 ) ) ;
#207 = EDGE_LOOP ( 'NONE', ( #269, #39, #8, #273 ) ) ;
#208 = DIRECTION ( 'NONE',  ( 1.000000000000000000, 0.000000000000000000, -0.000000000000000000 ) ) ;
#209 = EDGE_LOOP ( 'NONE', ( #126, #138 ) ) ;
#210 = PLANE ( 'NONE',  #113 ) ;
#211 = CIRCLE ( 'NONE', #301, 7.000000000000000000 ) ;
#212 = CARTESIAN_POINT ( 'NONE',  ( 0.000000000000000000, 0.000000000000000000, 0.000000000000000000 ) ) ;
#213 = CIRCLE ( 'NONE', #97, 4.299999999999998934 ) ;
#214 = CARTESIAN_POINT ( 'NONE',  ( -7.000000000000000000, 0.000000000000000000, 0.000000000000000000 ) ) ;
#215 = EDGE_CURVE ( 'NONE', #152, #127, #192, .T. ) ;
#216 = AXIS2_PLACEMENT_3D ( 'NONE', #52, #153, #199 ) ;
#217 = CARTESIAN_POINT ( 'NONE',  ( 0.000000000000000000, 0.000000000000000000, 0.000000000000000000 ) ) ;
#218 = MANIFOLD_SOLID_BREP ( 'Zaoblit1', #288 ) ;
#219 = CALENDAR_DATE ( 2022, 20, 6 ) ;
#220 = CIRCLE ( 'NONE', #227, 4.299999999999998934 ) ;
#221 = APPROVAL_ROLE ( '' ) ;
#222 = COORDINATED_UNIVERSAL_TIME_OFFSET ( 1, 0, .AHEAD. ) ;
#223 = VECTOR ( 'NONE', #178, 1000.000000000000000 ) ;
#224 = DIRECTION ( 'NONE',  ( 0.000000000000000000, 0.000000000000000000, 1.000000000000000000 ) ) ;
#225 = DIRECTION ( 'NONE',  ( -0.000000000000000000, -0.000000000000000000, -1.000000000000000000 ) ) ;
#226 = ORIENTED_EDGE ( 'NONE', *, *, #155, .F. ) ;
#227 = AXIS2_PLACEMENT_3D ( 'NONE', #16, #84, #164 ) ;
#228 = EDGE_LOOP ( 'NONE', ( #204, #180, #31, #229 ) ) ;
#229 = ORIENTED_EDGE ( 'NONE', *, *, #155, .T. ) ;
#230 = CARTESIAN_POINT ( 'NONE',  ( -4.299999999999998934, 5.265981236333617484E-16, 5.200000000000009948 ) ) ;
#231 = PRODUCT_RELATED_PRODUCT_CATEGORY ( 'detail', '', ( #198 ) ) ;
#232 = VERTEX_POINT ( 'NONE', #21 ) ;
#233 = CARTESIAN_POINT ( 'NONE',  ( -4.099999999999999645, 0.000000000000000000, 165.0000000000000000 ) ) ;
#234 = VERTEX_POINT ( 'NONE', #214 ) ;
#235 = AXIS2_PLACEMENT_3D ( 'NONE', #282, #237, #284 ) ;
#236 = CARTESIAN_POINT ( 'NONE',  ( 4.299999999999998934, 0.000000000000000000, 5.200000000000009948 ) ) ;
#237 = DIRECTION ( 'NONE',  ( 0.000000000000000000, 0.000000000000000000, 1.000000000000000000 ) ) ;
#238 = CIRCLE ( 'NONE', #130, 0.1999999999999996503 ) ;
#239 = DATE_AND_TIME ( #69, #286 ) ;
#240 = PERSON_AND_ORGANIZATION_ROLE ( 'design_supplier' ) ;
#241 = EDGE_CURVE ( 'NONE', #294, #132, #220, .T. ) ;
#242 = APPROVAL_STATUS ( 'not_yet_approved' ) ;
#243 = DATE_AND_TIME ( #124, #147 ) ;
#244 = CIRCLE ( 'NONE', #92, 4.099999999999999645 ) ;
#245 = CARTESIAN_POINT ( 'NONE',  ( -4.099999999999999645, 0.000000000000000000, 5.200000000000009948 ) ) ;
#246 = ADVANCED_FACE ( 'NONE', ( #307 ), #151, .F. ) ;
#247 =( GEOMETRIC_REPRESENTATION_CONTEXT ( 3 ) GLOBAL_UNCERTAINTY_ASSIGNED_CONTEXT ( ( #18 ) ) GLOBAL_UNIT_ASSIGNED_CONTEXT ( ( #78, #109, #305 ) ) REPRESENTATION_CONTEXT ( 'NONE', 'WORKASPACE' ) );
#248 = LINE ( 'NONE', #295, #223 ) ;
#249 = EDGE_LOOP ( 'NONE', ( #13, #254 ) ) ;
#250 = FACE_OUTER_BOUND ( 'NONE', #228, .T. ) ;
#251 = EDGE_LOOP ( 'NONE', ( #201, #135 ) ) ;
#252 = AXIS2_PLACEMENT_3D ( 'NONE', #212, #161, #208 ) ;
#253 = DIRECTION ( 'NONE',  ( 1.000000000000000000, 0.000000000000000000, -0.000000000000000000 ) ) ;
#254 = ORIENTED_EDGE ( 'NONE', *, *, #45, .T. ) ;
#255 = DIRECTION ( 'NONE',  ( -1.000000000000000000, 0.000000000000000000, 0.000000000000000000 ) ) ;
#256 = ORIENTED_EDGE ( 'NONE', *, *, #167, .T. ) ;
#257 = CARTESIAN_POINT ( 'NONE',  ( 0.000000000000000000, 0.000000000000000000, 5.000000000000000000 ) ) ;
#258 = ADVANCED_FACE ( 'NONE', ( #106 ), #59, .F. ) ;
#259 = DIRECTION ( 'NONE',  ( 0.000000000000000000, 0.000000000000000000, -1.000000000000000000 ) ) ;
#260 = AXIS2_PLACEMENT_3D ( 'NONE', #200, #224, #253 ) ;
#261 = CC_DESIGN_PERSON_AND_ORGANIZATION_ASSIGNMENT ( #24, #88, ( #112 ) ) ;
#262 = DIRECTION ( 'NONE',  ( -0.000000000000000000, -0.000000000000000000, -1.000000000000000000 ) ) ;
#263 = SHAPE_DEFINITION_REPRESENTATION ( #133, #121 ) ;
#264 = CALENDAR_DATE ( 2022, 20, 6 ) ;
#265 = APPROVAL_DATE_TIME ( #243, #6 ) ;
#266 = CC_DESIGN_APPROVAL ( #137, ( #112 ) ) ;
#267 = APPLICATION_PROTOCOL_DEFINITION ( 'international standard', 'config_control_design', 1994, #125 ) ;
#268 = ADVANCED_FACE ( 'NONE', ( #20 ), #304, .T. ) ;
#269 = ORIENTED_EDGE ( 'NONE', *, *, #215, .F. ) ;
#270 = APPROVAL_PERSON_ORGANIZATION ( #145, #139, #287 ) ;
#271 = ORIENTED_EDGE ( 'NONE', *, *, #203, .F. ) ;
#272 = EDGE_LOOP ( 'NONE', ( #162, #179, #183, #34 ) ) ;
#273 = ORIENTED_EDGE ( 'NONE', *, *, #187, .F. ) ;
#274 = EDGE_CURVE ( 'NONE', #75, #294, #238, .T. ) ;
#275 = DIRECTION ( 'NONE',  ( 1.000000000000000000, 0.000000000000000000, 0.000000000000000000 ) ) ;
#276 = ORIENTED_EDGE ( 'NONE', *, *, #241, .F. ) ;
#277 = CIRCLE ( 'NONE', #47, 7.000000000000000000 ) ;
#278 = DIRECTION ( 'NONE',  ( 0.000000000000000000, 0.000000000000000000, 1.000000000000000000 ) ) ;
#279 = VERTEX_POINT ( 'NONE', #280 ) ;
#280 = CARTESIAN_POINT ( 'NONE',  ( -7.000000000000000000, 0.000000000000000000, 5.000000000000000000 ) ) ;
#281 = FACE_OUTER_BOUND ( 'NONE', #36, .T. ) ;
#282 = CARTESIAN_POINT ( 'NONE',  ( 0.000000000000000000, 0.000000000000000000, 165.0000000000000000 ) ) ;
#283 = CC_DESIGN_PERSON_AND_ORGANIZATION_ASSIGNMENT ( #148, #174, ( #198 ) ) ;
#284 = DIRECTION ( 'NONE',  ( 1.000000000000000000, 0.000000000000000000, 0.000000000000000000 ) ) ;
#285 = VECTOR ( 'NONE', #1, 1000.000000000000000 ) ;
#286 = LOCAL_TIME ( 11, 47, 16.00000000000000000, #222 ) ;
#287 = APPROVAL_ROLE ( '' ) ;
#288 = CLOSED_SHELL ( 'NONE', ( #246, #100, #268, #140, #170, #258, #108, #94, #190 ) ) ;
#289 = SECURITY_CLASSIFICATION_LEVEL ( 'unclassified' ) ;
#290 = AXIS2_PLACEMENT_3D ( 'NONE', #83, #115, #142 ) ;
#291 = FACE_BOUND ( 'NONE', #251, .T. ) ;
#292 = DIRECTION ( 'NONE',  ( -1.000000000000000000, 1.224646799147353454E-16, 0.000000000000000000 ) ) ;
#293 = APPROVAL_PERSON_ORGANIZATION ( #48, #6, #87 ) ;
#294 = VERTEX_POINT ( 'NONE', #42 ) ;
#295 = CARTESIAN_POINT ( 'NONE',  ( -7.000000000000000000, 0.000000000000000000, 5.000000000000000000 ) ) ;
#296 = EDGE_CURVE ( 'NONE', #152, #75, #111, .T. ) ;
#297 = AXIS2_PLACEMENT_3D ( 'NONE', #182, #11, #134 ) ;
#298 = CARTESIAN_POINT ( 'NONE',  ( 0.000000000000000000, 0.000000000000000000, 165.0000000000000000 ) ) ;
#299 = ORIENTED_EDGE ( 'NONE', *, *, #2, .F. ) ;
#300 = CARTESIAN_POINT ( 'NONE',  ( 0.000000000000000000, 0.000000000000000000, 165.0000000000000000 ) ) ;
#301 = AXIS2_PLACEMENT_3D ( 'NONE', #28, #9, #73 ) ;
#302 = ORIENTED_EDGE ( 'NONE', *, *, #80, .F. ) ;
#303 = AXIS2_PLACEMENT_3D ( 'NONE', #217, #46, #193 ) ;
#304 = CYLINDRICAL_SURFACE ( 'NONE', #63, 7.000000000000000000 ) ;
#305 =( NAMED_UNIT ( * ) SI_UNIT ( $, .STERADIAN. ) SOLID_ANGLE_UNIT ( ) );
#306 = CARTESIAN_POINT ( 'NONE',  ( 0.000000000000000000, 0.000000000000000000, 5.000000000000000000 ) ) ;
#307 = FACE_OUTER_BOUND ( 'NONE', #15, .T. ) ;
ENDSEC;
END-ISO-10303-21;
