ISO-10303-21;
HEADER;
FILE_DESCRIPTION (( 'STEP AP203' ),
    '1' );
FILE_NAME ('dc68.STEP',
    '2022-06-20T09:48:49',
    ( '' ),
    ( '' ),
    'SwSTEP 2.0',
    'SolidWorks 2019',
    '' );
FILE_SCHEMA (( 'CONFIG_CONTROL_DESIGN' ));
ENDSEC;

DATA;
#1 = DIRECTION ( 'NONE',  ( -0.000000000000000000, -0.000000000000000000, -1.000000000000000000 ) ) ;
#2 =( GEOMETRIC_REPRESENTATION_CONTEXT ( 3 ) GLOBAL_UNCERTAINTY_ASSIGNED_CONTEXT ( ( #287 ) ) GLOBAL_UNIT_ASSIGNED_CONTEXT ( ( #198, #173, #26 ) ) REPRESENTATION_CONTEXT ( 'NONE', 'WORKASPACE' ) );
#3 = CARTESIAN_POINT ( 'NONE',  ( 4.000000000000000000, 4.898587196589412829E-16, 205.0000000000000284 ) ) ;
#4 = DIRECTION ( 'NONE',  ( 1.000000000000000000, 0.000000000000000000, 0.000000000000000000 ) ) ;
#5 = FACE_OUTER_BOUND ( 'NONE', #266, .T. ) ;
#6 = COORDINATED_UNIVERSAL_TIME_OFFSET ( 1, 0, .AHEAD. ) ;
#7 = EDGE_CURVE ( 'NONE', #134, #10, #121, .T. ) ;
#8 = PERSON_AND_ORGANIZATION_ROLE ( 'design_owner' ) ;
#9 = AXIS2_PLACEMENT_3D ( 'NONE', #280, #236, #114 ) ;
#10 = VERTEX_POINT ( 'NONE', #21 ) ;
#11 = CC_DESIGN_DATE_AND_TIME_ASSIGNMENT ( #52, #294, ( #149 ) ) ;
#12 = AXIS2_PLACEMENT_3D ( 'NONE', #242, #218, #269 ) ;
#13 = ORIENTED_EDGE ( 'NONE', *, *, #7, .T. ) ;
#14 = DIRECTION ( 'NONE',  ( 1.000000000000000000, 0.000000000000000000, 0.000000000000000000 ) ) ;
#15 = ORIENTED_EDGE ( 'NONE', *, *, #205, .F. ) ;
#16 = APPROVAL_DATE_TIME ( #151, #267 ) ;
#17 = CARTESIAN_POINT ( 'NONE',  ( 7.000000000000000000, 8.572527594031473190E-16, 5.000000000000000000 ) ) ;
#18 = CARTESIAN_POINT ( 'NONE',  ( -4.200000000000000178, 5.143516556418882928E-16, 5.200000000000009948 ) ) ;
#19 = DIRECTION ( 'NONE',  ( 0.000000000000000000, 0.000000000000000000, -1.000000000000000000 ) ) ;
#20 = AXIS2_PLACEMENT_3D ( 'NONE', #18, #187, #115 ) ;
#21 = CARTESIAN_POINT ( 'NONE',  ( -4.200000000000000178, 5.143516556418882928E-16, 5.000000000000005329 ) ) ;
#22 = CARTESIAN_POINT ( 'NONE',  ( 0.000000000000000000, 0.000000000000000000, 5.000000000000000000 ) ) ;
#23 = DIRECTION ( 'NONE',  ( 0.000000000000000000, 0.000000000000000000, 1.000000000000000000 ) ) ;
#24 = CIRCLE ( 'NONE', #271, 4.200000000000000178 ) ;
#25 = DIRECTION ( 'NONE',  ( 1.000000000000000000, 0.000000000000000000, 0.000000000000000000 ) ) ;
#26 =( NAMED_UNIT ( * ) SI_UNIT ( $, .STERADIAN. ) SOLID_ANGLE_UNIT ( ) );
#27 = DIRECTION ( 'NONE',  ( -1.000000000000000000, 0.000000000000000000, 0.000000000000000000 ) ) ;
#28 = AXIS2_PLACEMENT_3D ( 'NONE', #61, #307, #215 ) ;
#29 = ADVANCED_BREP_SHAPE_REPRESENTATION ( 'dc68', ( #31, #203 ), #2 ) ;
#30 = DATE_AND_TIME ( #127, #305 ) ;
#31 = MANIFOLD_SOLID_BREP ( 'Zaoblit1', #32 ) ;
#32 = CLOSED_SHELL ( 'NONE', ( #211, #138, #193, #161, #133, #214, #257, #170, #68 ) ) ;
#33 = ORIENTED_EDGE ( 'NONE', *, *, #155, .T. ) ;
#34 = LOCAL_TIME ( 11, 48, 49.00000000000000000, #131 ) ;
#35 = PERSON_AND_ORGANIZATION_ROLE ( 'classification_officer' ) ;
#36 = ORIENTED_EDGE ( 'NONE', *, *, #282, .F. ) ;
#37 = EDGE_CURVE ( 'NONE', #204, #163, #88, .T. ) ;
#38 = PERSON_AND_ORGANIZATION ( #285, #130 ) ;
#39 = CIRCLE ( 'NONE', #12, 7.000000000000000000 ) ;
#40 = CARTESIAN_POINT ( 'NONE',  ( 4.200000000000000178, 0.000000000000000000, 5.000000000000005329 ) ) ;
#41 = CC_DESIGN_PERSON_AND_ORGANIZATION_ASSIGNMENT ( #154, #101, ( #129 ) ) ;
#42 = CARTESIAN_POINT ( 'NONE',  ( -4.000000000000000000, 0.000000000000000000, 5.200000000000009948 ) ) ;
#43 = DIRECTION ( 'NONE',  ( -0.000000000000000000, -0.000000000000000000, -1.000000000000000000 ) ) ;
#44 = DIRECTION ( 'NONE',  ( 0.000000000000000000, 0.000000000000000000, 1.000000000000000000 ) ) ;
#45 = CARTESIAN_POINT ( 'NONE',  ( -7.000000000000000000, 0.000000000000000000, 5.000000000000000000 ) ) ;
#46 = DIRECTION ( 'NONE',  ( 1.000000000000000000, 0.000000000000000000, -0.000000000000000000 ) ) ;
#47 = AXIS2_PLACEMENT_3D ( 'NONE', #237, #91, #65 ) ;
#48 = AXIS2_PLACEMENT_3D ( 'NONE', #100, #171, #289 ) ;
#49 = DIRECTION ( 'NONE',  ( -0.000000000000000000, -0.000000000000000000, -1.000000000000000000 ) ) ;
#50 = AXIS2_PLACEMENT_3D ( 'NONE', #238, #44, #113 ) ;
#51 = LINE ( 'NONE', #200, #111 ) ;
#52 = DATE_AND_TIME ( #202, #34 ) ;
#53 = VERTEX_POINT ( 'NONE', #283 ) ;
#54 = DATE_AND_TIME ( #230, #94 ) ;
#55 = EDGE_LOOP ( 'NONE', ( #300, #162 ) ) ;
#56 = AXIS2_PLACEMENT_3D ( 'NONE', #120, #144, #72 ) ;
#57 = DATE_TIME_ROLE ( 'creation_date' ) ;
#58 = VERTEX_POINT ( 'NONE', #212 ) ;
#59 = EDGE_CURVE ( 'NONE', #249, #132, #140, .T. ) ;
#60 = APPLICATION_CONTEXT ( 'configuration controlled 3d designs of mechanical parts and assemblies' ) ;
#61 = CARTESIAN_POINT ( 'NONE',  ( 0.000000000000000000, 0.000000000000000000, 5.200000000000009948 ) ) ;
#62 = CC_DESIGN_PERSON_AND_ORGANIZATION_ASSIGNMENT ( #298, #35, ( #149 ) ) ;
#63 = LINE ( 'NONE', #45, #239 ) ;
#64 = DIRECTION ( 'NONE',  ( -0.000000000000000000, -0.000000000000000000, -1.000000000000000000 ) ) ;
#65 = DIRECTION ( 'NONE',  ( 1.000000000000000000, 0.000000000000000000, 0.000000000000000000 ) ) ;
#66 = DIRECTION ( 'NONE',  ( 0.000000000000000000, 0.000000000000000000, 1.000000000000000000 ) ) ;
#67 = CARTESIAN_POINT ( 'NONE',  ( 7.000000000000000000, 8.572527594031473190E-16, 5.000000000000000000 ) ) ;
#68 = ADVANCED_FACE ( 'NONE', ( #235 ), #264, .F. ) ;
#69 = DIRECTION ( 'NONE',  ( 0.000000000000000000, 0.000000000000000000, 1.000000000000000000 ) ) ;
#70 = FACE_OUTER_BOUND ( 'NONE', #102, .T. ) ;
#71 = CIRCLE ( 'NONE', #186, 4.000000000000000000 ) ;
#72 = DIRECTION ( 'NONE',  ( 1.000000000000000000, 0.000000000000000000, 0.000000000000000000 ) ) ;
#73 = SECURITY_CLASSIFICATION_LEVEL ( 'unclassified' ) ;
#74 = ORIENTED_EDGE ( 'NONE', *, *, #59, .F. ) ;
#75 = TOROIDAL_SURFACE ( 'NONE', #48, 4.200000000000000178, 0.2000000000000000111 ) ;
#76 = APPROVAL_STATUS ( 'not_yet_approved' ) ;
#77 = ORIENTED_EDGE ( 'NONE', *, *, #182, .T. ) ;
#78 = EDGE_CURVE ( 'NONE', #53, #58, #189, .T. ) ;
#79 = PERSON_AND_ORGANIZATION ( #285, #130 ) ;
#80 = ORIENTED_EDGE ( 'NONE', *, *, #263, .F. ) ;
#81 = APPLICATION_PROTOCOL_DEFINITION ( 'international standard', 'config_control_design', 1994, #124 ) ;
#82 = ORIENTED_EDGE ( 'NONE', *, *, #108, .F. ) ;
#83 = ORIENTED_EDGE ( 'NONE', *, *, #303, .T. ) ;
#84 = CC_DESIGN_DATE_AND_TIME_ASSIGNMENT ( #30, #57, ( #97 ) ) ;
#85 = DIRECTION ( 'NONE',  ( -1.000000000000000000, 0.000000000000000000, 0.000000000000000000 ) ) ;
#86 = DIRECTION ( 'NONE',  ( 1.000000000000000000, 0.000000000000000000, 0.000000000000000000 ) ) ;
#87 = AXIS2_PLACEMENT_3D ( 'NONE', #92, #194, #46 ) ;
#88 = LINE ( 'NONE', #17, #195 ) ;
#89 = CC_DESIGN_SECURITY_CLASSIFICATION ( #149, ( #129 ) ) ;
#90 = FACE_BOUND ( 'NONE', #209, .T. ) ;
#91 = DIRECTION ( 'NONE',  ( 0.000000000000000000, 0.000000000000000000, 1.000000000000000000 ) ) ;
#92 = CARTESIAN_POINT ( 'NONE',  ( 0.000000000000000000, 0.000000000000000000, 0.000000000000000000 ) ) ;
#93 = PRODUCT_DEFINITION_SHAPE ( 'NONE', 'NONE',  #97 ) ;
#94 = LOCAL_TIME ( 11, 48, 49.00000000000000000, #275 ) ;
#95 = DIRECTION ( 'NONE',  ( -0.000000000000000000, -0.000000000000000000, -1.000000000000000000 ) ) ;
#96 = CARTESIAN_POINT ( 'NONE',  ( 0.000000000000000000, 0.000000000000000000, 205.0000000000000284 ) ) ;
#97 = PRODUCT_DEFINITION ( 'NEZNÁMÝ', '', #129, #190 ) ;
#98 = DIRECTION ( 'NONE',  ( 1.000000000000000000, 0.000000000000000000, 0.000000000000000000 ) ) ;
#99 = CIRCLE ( 'NONE', #222, 4.000000000000000000 ) ;
#100 = CARTESIAN_POINT ( 'NONE',  ( 0.000000000000000000, 0.000000000000000000, 5.200000000000009948 ) ) ;
#101 = PERSON_AND_ORGANIZATION_ROLE ( 'design_supplier' ) ;
#102 = EDGE_LOOP ( 'NONE', ( #297, #153, #207, #260 ) ) ;
#103 = CIRCLE ( 'NONE', #9, 7.000000000000000000 ) ;
#104 = CALENDAR_DATE ( 2022, 20, 6 ) ;
#105 = ORIENTED_EDGE ( 'NONE', *, *, #59, .T. ) ;
#106 = COORDINATED_UNIVERSAL_TIME_OFFSET ( 1, 0, .AHEAD. ) ;
#107 = ORIENTED_EDGE ( 'NONE', *, *, #150, .T. ) ;
#108 = EDGE_CURVE ( 'NONE', #152, #231, #63, .T. ) ;
#109 = APPROVAL_DATE_TIME ( #54, #254 ) ;
#110 = ORIENTED_EDGE ( 'NONE', *, *, #250, .T. ) ;
#111 = VECTOR ( 'NONE', #119, 1000.000000000000000 ) ;
#112 = FACE_OUTER_BOUND ( 'NONE', #175, .T. ) ;
#113 = DIRECTION ( 'NONE',  ( 1.000000000000000000, 0.000000000000000000, 0.000000000000000000 ) ) ;
#114 = DIRECTION ( 'NONE',  ( 1.000000000000000000, 0.000000000000000000, 0.000000000000000000 ) ) ;
#115 = DIRECTION ( 'NONE',  ( -1.000000000000000000, 1.224646799147353454E-16, 0.000000000000000000 ) ) ;
#116 = DIRECTION ( 'NONE',  ( 0.000000000000000000, 0.000000000000000000, 1.000000000000000000 ) ) ;
#117 = DIRECTION ( 'NONE',  ( -0.000000000000000000, -0.000000000000000000, -1.000000000000000000 ) ) ;
#118 = DIRECTION ( 'NONE',  ( 1.000000000000000000, 0.000000000000000000, -0.000000000000000000 ) ) ;
#119 = DIRECTION ( 'NONE',  ( -0.000000000000000000, -0.000000000000000000, -1.000000000000000000 ) ) ;
#120 = CARTESIAN_POINT ( 'NONE',  ( 0.000000000000000000, 0.000000000000000000, 0.000000000000000000 ) ) ;
#121 = CIRCLE ( 'NONE', #20, 0.1999999999999996503 ) ;
#122 = CIRCLE ( 'NONE', #165, 7.000000000000000000 ) ;
#123 = APPROVAL_ROLE ( '' ) ;
#124 = APPLICATION_CONTEXT ( 'configuration controlled 3d designs of mechanical parts and assemblies' ) ;
#125 = PERSON_AND_ORGANIZATION_ROLE ( 'creator' ) ;
#126 = EDGE_CURVE ( 'NONE', #132, #10, #24, .T. ) ;
#127 = CALENDAR_DATE ( 2022, 20, 6 ) ;
#128 = EDGE_LOOP ( 'NONE', ( #228, #201, #105, #139 ) ) ;
#129 = PRODUCT_DEFINITION_FORMATION_WITH_SPECIFIED_SOURCE ( 'LIBOVOLNÝ', '', #185, .NOT_KNOWN. ) ;
#130 = ORGANIZATION ( 'NEURÈENÝ', 'NEURÈENÝ', '' ) ;
#131 = COORDINATED_UNIVERSAL_TIME_OFFSET ( 1, 0, .AHEAD. ) ;
#132 = VERTEX_POINT ( 'NONE', #40 ) ;
#133 = ADVANCED_FACE ( 'NONE', ( #90, #112 ), #188, .T. ) ;
#134 = VERTEX_POINT ( 'NONE', #42 ) ;
#135 = APPROVAL_PERSON_ORGANIZATION ( #248, #254, #177 ) ;
#136 = FACE_OUTER_BOUND ( 'NONE', #226, .T. ) ;
#137 = FACE_OUTER_BOUND ( 'NONE', #210, .T. ) ;
#138 = ADVANCED_FACE ( 'NONE', ( #137 ), #265, .T. ) ;
#139 = ORIENTED_EDGE ( 'NONE', *, *, #221, .F. ) ;
#140 = CIRCLE ( 'NONE', #251, 0.1999999999999996503 ) ;
#141 = FACE_OUTER_BOUND ( 'NONE', #256, .T. ) ;
#142 = CC_DESIGN_PERSON_AND_ORGANIZATION_ASSIGNMENT ( #272, #246, ( #97 ) ) ;
#143 = ORIENTED_EDGE ( 'NONE', *, *, #221, .T. ) ;
#144 = DIRECTION ( 'NONE',  ( 0.000000000000000000, 0.000000000000000000, 1.000000000000000000 ) ) ;
#145 = AXIS2_PLACEMENT_3D ( 'NONE', #166, #301, #85 ) ;
#146 = AXIS2_PLACEMENT_3D ( 'NONE', #304, #262, #284 ) ;
#147 = FACE_OUTER_BOUND ( 'NONE', #55, .T. ) ;
#148 = DATE_AND_TIME ( #104, #229 ) ;
#149 = SECURITY_CLASSIFICATION ( '', '', #73 ) ;
#150 = EDGE_CURVE ( 'NONE', #204, #152, #103, .T. ) ;
#151 = DATE_AND_TIME ( #178, #247 ) ;
#152 = VERTEX_POINT ( 'NONE', #160 ) ;
#153 = ORIENTED_EDGE ( 'NONE', *, *, #78, .F. ) ;
#154 = PERSON_AND_ORGANIZATION ( #285, #130 ) ;
#155 = EDGE_CURVE ( 'NONE', #249, #134, #183, .T. ) ;
#156 = VECTOR ( 'NONE', #49, 1000.000000000000000 ) ;
#157 = APPROVAL_PERSON_ORGANIZATION ( #252, #233, #224 ) ;
#158 = APPLICATION_PROTOCOL_DEFINITION ( 'international standard', 'config_control_design', 1994, #60 ) ;
#159 = EDGE_LOOP ( 'NONE', ( #295, #273, #299, #82 ) ) ;
#160 = CARTESIAN_POINT ( 'NONE',  ( -7.000000000000000000, 0.000000000000000000, 5.000000000000000000 ) ) ;
#161 = ADVANCED_FACE ( 'NONE', ( #136 ), #213, .T. ) ;
#162 = ORIENTED_EDGE ( 'NONE', *, *, #274, .F. ) ;
#163 = VERTEX_POINT ( 'NONE', #164 ) ;
#164 = CARTESIAN_POINT ( 'NONE',  ( 7.000000000000000000, 8.572527594031473190E-16, 0.000000000000000000 ) ) ;
#165 = AXIS2_PLACEMENT_3D ( 'NONE', #220, #69, #4 ) ;
#166 = CARTESIAN_POINT ( 'NONE',  ( 0.000000000000000000, 0.000000000000000000, 205.0000000000000284 ) ) ;
#167 = FACE_OUTER_BOUND ( 'NONE', #159, .T. ) ;
#168 = CARTESIAN_POINT ( 'NONE',  ( 0.000000000000000000, 0.000000000000000000, 5.000000000000000000 ) ) ;
#169 = AXIS2_PLACEMENT_3D ( 'NONE', #168, #117, #27 ) ;
#170 = ADVANCED_FACE ( 'NONE', ( #141 ), #216, .T. ) ;
#171 = DIRECTION ( 'NONE',  ( 0.000000000000000000, 0.000000000000000000, 1.000000000000000000 ) ) ;
#172 = CC_DESIGN_APPROVAL ( #233, ( #97 ) ) ;
#173 =( NAMED_UNIT ( * ) PLANE_ANGLE_UNIT ( ) SI_UNIT ( $, .RADIAN. ) );
#174 = CARTESIAN_POINT ( 'NONE',  ( 0.000000000000000000, 0.000000000000000000, 5.000000000000000000 ) ) ;
#175 = EDGE_LOOP ( 'NONE', ( #83, #107 ) ) ;
#176 = AXIS2_PLACEMENT_3D ( 'NONE', #286, #66, #118 ) ;
#177 = APPROVAL_ROLE ( '' ) ;
#178 = CALENDAR_DATE ( 2022, 20, 6 ) ;
#179 = ORIENTED_EDGE ( 'NONE', *, *, #126, .T. ) ;
#180 = ORIENTED_EDGE ( 'NONE', *, *, #78, .T. ) ;
#181 = DIRECTION ( 'NONE',  ( 1.000000000000000000, 0.000000000000000000, -0.000000000000000000 ) ) ;
#182 = EDGE_CURVE ( 'NONE', #231, #163, #39, .T. ) ;
#183 = CIRCLE ( 'NONE', #47, 4.000000000000000000 ) ;
#184 = DIRECTION ( 'NONE',  ( 0.000000000000000000, -1.000000000000000000, 0.000000000000000000 ) ) ;
#185 = PRODUCT ( 'dc68', 'dc68', '', ( #206 ) ) ;
#186 = AXIS2_PLACEMENT_3D ( 'NONE', #96, #23, #244 ) ;
#187 = DIRECTION ( 'NONE',  ( 1.224646799147353207E-16, 1.000000000000000000, -0.000000000000000000 ) ) ;
#188 = PLANE ( 'NONE',  #259 ) ;
#189 = CIRCLE ( 'NONE', #50, 4.000000000000000000 ) ;
#190 = DESIGN_CONTEXT ( 'detailed design', #60, 'design' ) ;
#191 = CC_DESIGN_APPROVAL ( #267, ( #129 ) ) ;
#192 = LINE ( 'NONE', #3, #156 ) ;
#193 = ADVANCED_FACE ( 'NONE', ( #167 ), #223, .T. ) ;
#194 = DIRECTION ( 'NONE',  ( 0.000000000000000000, 0.000000000000000000, 1.000000000000000000 ) ) ;
#195 = VECTOR ( 'NONE', #43, 1000.000000000000000 ) ;
#196 = PRODUCT_RELATED_PRODUCT_CATEGORY ( 'detail', '', ( #185 ) ) ;
#197 = CIRCLE ( 'NONE', #56, 7.000000000000000000 ) ;
#198 =( LENGTH_UNIT ( ) NAMED_UNIT ( * ) SI_UNIT ( .MILLI., .METRE. ) );
#199 = CC_DESIGN_APPROVAL ( #254, ( #149 ) ) ;
#200 = CARTESIAN_POINT ( 'NONE',  ( -4.000000000000000000, 0.000000000000000000, 205.0000000000000284 ) ) ;
#201 = ORIENTED_EDGE ( 'NONE', *, *, #155, .F. ) ;
#202 = CALENDAR_DATE ( 2022, 20, 6 ) ;
#203 = AXIS2_PLACEMENT_3D ( 'NONE', #296, #277, #14 ) ;
#204 = VERTEX_POINT ( 'NONE', #67 ) ;
#205 = EDGE_CURVE ( 'NONE', #58, #53, #71, .T. ) ;
#206 = MECHANICAL_CONTEXT ( 'NONE', #124, 'mechanical' ) ;
#207 = ORIENTED_EDGE ( 'NONE', *, *, #263, .T. ) ;
#208 = SHAPE_DEFINITION_REPRESENTATION ( #93, #29 ) ;
#209 = EDGE_LOOP ( 'NONE', ( #179, #143 ) ) ;
#210 = EDGE_LOOP ( 'NONE', ( #15, #110, #33, #80 ) ) ;
#211 = ADVANCED_FACE ( 'NONE', ( #5 ), #75, .F. ) ;
#212 = CARTESIAN_POINT ( 'NONE',  ( 4.000000000000000000, 4.898587196589412829E-16, 205.0000000000000284 ) ) ;
#213 = CYLINDRICAL_SURFACE ( 'NONE', #146, 7.000000000000000000 ) ;
#214 = ADVANCED_FACE ( 'NONE', ( #147 ), #292, .F. ) ;
#215 = DIRECTION ( 'NONE',  ( 1.000000000000000000, 0.000000000000000000, 0.000000000000000000 ) ) ;
#216 = PLANE ( 'NONE',  #176 ) ;
#217 = CARTESIAN_POINT ( 'NONE',  ( -7.000000000000000000, 0.000000000000000000, 0.000000000000000000 ) ) ;
#218 = DIRECTION ( 'NONE',  ( 0.000000000000000000, 0.000000000000000000, 1.000000000000000000 ) ) ;
#219 = CARTESIAN_POINT ( 'NONE',  ( 4.000000000000000000, 4.898587196589412829E-16, 5.200000000000009948 ) ) ;
#220 = CARTESIAN_POINT ( 'NONE',  ( 0.000000000000000000, 0.000000000000000000, 5.000000000000000000 ) ) ;
#221 = EDGE_CURVE ( 'NONE', #10, #132, #253, .T. ) ;
#222 = AXIS2_PLACEMENT_3D ( 'NONE', #270, #240, #25 ) ;
#223 = CYLINDRICAL_SURFACE ( 'NONE', #169, 7.000000000000000000 ) ;
#224 = APPROVAL_ROLE ( '' ) ;
#225 = APPROVAL_DATE_TIME ( #148, #233 ) ;
#226 = EDGE_LOOP ( 'NONE', ( #261, #234, #293, #77 ) ) ;
#227 = APPROVAL_STATUS ( 'not_yet_approved' ) ;
#228 = ORIENTED_EDGE ( 'NONE', *, *, #7, .F. ) ;
#229 = LOCAL_TIME ( 11, 48, 49.00000000000000000, #106 ) ;
#230 = CALENDAR_DATE ( 2022, 20, 6 ) ;
#231 = VERTEX_POINT ( 'NONE', #217 ) ;
#232 = PERSON_AND_ORGANIZATION ( #285, #130 ) ;
#233 = APPROVAL ( #279, 'NEURÈENÝ' ) ;
#234 = ORIENTED_EDGE ( 'NONE', *, *, #303, .F. ) ;
#235 = FACE_OUTER_BOUND ( 'NONE', #128, .T. ) ;
#236 = DIRECTION ( 'NONE',  ( 0.000000000000000000, 0.000000000000000000, 1.000000000000000000 ) ) ;
#237 = CARTESIAN_POINT ( 'NONE',  ( 0.000000000000000000, 0.000000000000000000, 5.200000000000009948 ) ) ;
#238 = CARTESIAN_POINT ( 'NONE',  ( 0.000000000000000000, 0.000000000000000000, 205.0000000000000284 ) ) ;
#239 = VECTOR ( 'NONE', #64, 1000.000000000000000 ) ;
#240 = DIRECTION ( 'NONE',  ( 0.000000000000000000, 0.000000000000000000, 1.000000000000000000 ) ) ;
#241 = APPROVAL_PERSON_ORGANIZATION ( #232, #267, #123 ) ;
#242 = CARTESIAN_POINT ( 'NONE',  ( 0.000000000000000000, 0.000000000000000000, 0.000000000000000000 ) ) ;
#243 = CARTESIAN_POINT ( 'NONE',  ( 0.000000000000000000, 0.000000000000000000, 205.0000000000000284 ) ) ;
#244 = DIRECTION ( 'NONE',  ( 1.000000000000000000, 0.000000000000000000, 0.000000000000000000 ) ) ;
#245 = AXIS2_PLACEMENT_3D ( 'NONE', #243, #95, #288 ) ;
#246 = PERSON_AND_ORGANIZATION_ROLE ( 'creator' ) ;
#247 = LOCAL_TIME ( 11, 48, 49.00000000000000000, #255 ) ;
#248 = PERSON_AND_ORGANIZATION ( #285, #130 ) ;
#249 = VERTEX_POINT ( 'NONE', #219 ) ;
#250 = EDGE_CURVE ( 'NONE', #58, #249, #192, .T. ) ;
#251 = AXIS2_PLACEMENT_3D ( 'NONE', #281, #184, #19 ) ;
#252 = PERSON_AND_ORGANIZATION ( #285, #130 ) ;
#253 = CIRCLE ( 'NONE', #290, 4.200000000000000178 ) ;
#254 = APPROVAL ( #76, 'NEURÈENÝ' ) ;
#255 = COORDINATED_UNIVERSAL_TIME_OFFSET ( 1, 0, .AHEAD. ) ;
#256 = EDGE_LOOP ( 'NONE', ( #180, #278 ) ) ;
#257 = ADVANCED_FACE ( 'NONE', ( #70 ), #268, .T. ) ;
#258 = ORIENTED_EDGE ( 'NONE', *, *, #126, .F. ) ;
#259 = AXIS2_PLACEMENT_3D ( 'NONE', #22, #116, #181 ) ;
#260 = ORIENTED_EDGE ( 'NONE', *, *, #282, .T. ) ;
#261 = ORIENTED_EDGE ( 'NONE', *, *, #37, .F. ) ;
#262 = DIRECTION ( 'NONE',  ( -0.000000000000000000, -0.000000000000000000, -1.000000000000000000 ) ) ;
#263 = EDGE_CURVE ( 'NONE', #53, #134, #51, .T. ) ;
#264 = TOROIDAL_SURFACE ( 'NONE', #28, 4.200000000000000178, 0.2000000000000000111 ) ;
#265 = CYLINDRICAL_SURFACE ( 'NONE', #145, 4.000000000000000000 ) ;
#266 = EDGE_LOOP ( 'NONE', ( #36, #13, #258, #74 ) ) ;
#267 = APPROVAL ( #227, 'NEURÈENÝ' ) ;
#268 = CYLINDRICAL_SURFACE ( 'NONE', #245, 4.000000000000000000 ) ;
#269 = DIRECTION ( 'NONE',  ( 1.000000000000000000, 0.000000000000000000, 0.000000000000000000 ) ) ;
#270 = CARTESIAN_POINT ( 'NONE',  ( 0.000000000000000000, 0.000000000000000000, 5.200000000000009948 ) ) ;
#271 = AXIS2_PLACEMENT_3D ( 'NONE', #306, #302, #86 ) ;
#272 = PERSON_AND_ORGANIZATION ( #285, #130 ) ;
#273 = ORIENTED_EDGE ( 'NONE', *, *, #37, .T. ) ;
#274 = EDGE_CURVE ( 'NONE', #163, #231, #197, .T. ) ;
#275 = COORDINATED_UNIVERSAL_TIME_OFFSET ( 1, 0, .AHEAD. ) ;
#276 = CC_DESIGN_PERSON_AND_ORGANIZATION_ASSIGNMENT ( #38, #125, ( #129 ) ) ;
#277 = DIRECTION ( 'NONE',  ( 0.000000000000000000, 0.000000000000000000, 1.000000000000000000 ) ) ;
#278 = ORIENTED_EDGE ( 'NONE', *, *, #205, .T. ) ;
#279 = APPROVAL_STATUS ( 'not_yet_approved' ) ;
#280 = CARTESIAN_POINT ( 'NONE',  ( 0.000000000000000000, 0.000000000000000000, 5.000000000000000000 ) ) ;
#281 = CARTESIAN_POINT ( 'NONE',  ( 4.200000000000000178, 0.000000000000000000, 5.200000000000009948 ) ) ;
#282 = EDGE_CURVE ( 'NONE', #134, #249, #99, .T. ) ;
#283 = CARTESIAN_POINT ( 'NONE',  ( -4.000000000000000000, 0.000000000000000000, 205.0000000000000284 ) ) ;
#284 = DIRECTION ( 'NONE',  ( -1.000000000000000000, 0.000000000000000000, 0.000000000000000000 ) ) ;
#285 = PERSON ( 'NEURÈENÝ', 'NEURÈENÝ', 'NEURÈENÝ', ('NEURÈENÝ'), ('NEURÈENÝ'), ('NEURÈENÝ') ) ;
#286 = CARTESIAN_POINT ( 'NONE',  ( 0.000000000000000000, 0.000000000000000000, 205.0000000000000284 ) ) ;
#287 = UNCERTAINTY_MEASURE_WITH_UNIT (LENGTH_MEASURE( 1.000000000000000082E-05 ), #198, 'distance_accuracy_value', 'NONE');
#288 = DIRECTION ( 'NONE',  ( -1.000000000000000000, 0.000000000000000000, 0.000000000000000000 ) ) ;
#289 = DIRECTION ( 'NONE',  ( 1.000000000000000000, 0.000000000000000000, 0.000000000000000000 ) ) ;
#290 = AXIS2_PLACEMENT_3D ( 'NONE', #174, #1, #98 ) ;
#291 = CC_DESIGN_PERSON_AND_ORGANIZATION_ASSIGNMENT ( #79, #8, ( #185 ) ) ;
#292 = PLANE ( 'NONE',  #87 ) ;
#293 = ORIENTED_EDGE ( 'NONE', *, *, #108, .T. ) ;
#294 = DATE_TIME_ROLE ( 'classification_date' ) ;
#295 = ORIENTED_EDGE ( 'NONE', *, *, #150, .F. ) ;
#296 = CARTESIAN_POINT ( 'NONE',  ( 0.000000000000000000, 0.000000000000000000, 0.000000000000000000 ) ) ;
#297 = ORIENTED_EDGE ( 'NONE', *, *, #250, .F. ) ;
#298 = PERSON_AND_ORGANIZATION ( #285, #130 ) ;
#299 = ORIENTED_EDGE ( 'NONE', *, *, #274, .T. ) ;
#300 = ORIENTED_EDGE ( 'NONE', *, *, #182, .F. ) ;
#301 = DIRECTION ( 'NONE',  ( -0.000000000000000000, -0.000000000000000000, -1.000000000000000000 ) ) ;
#302 = DIRECTION ( 'NONE',  ( -0.000000000000000000, -0.000000000000000000, -1.000000000000000000 ) ) ;
#303 = EDGE_CURVE ( 'NONE', #152, #204, #122, .T. ) ;
#304 = CARTESIAN_POINT ( 'NONE',  ( 0.000000000000000000, 0.000000000000000000, 5.000000000000000000 ) ) ;
#305 = LOCAL_TIME ( 11, 48, 49.00000000000000000, #6 ) ;
#306 = CARTESIAN_POINT ( 'NONE',  ( 0.000000000000000000, 0.000000000000000000, 5.000000000000000000 ) ) ;
#307 = DIRECTION ( 'NONE',  ( 0.000000000000000000, 0.000000000000000000, 1.000000000000000000 ) ) ;
ENDSEC;
END-ISO-10303-21;
