ISO-10303-21;
HEADER;
FILE_DESCRIPTION (( 'STEP AP203' ),
    '1' );
FILE_NAME ('fb91.STEP',
    '2022-06-20T09:38:55',
    ( '' ),
    ( '' ),
    'SwSTEP 2.0',
    'SolidWorks 2019',
    '' );
FILE_SCHEMA (( 'CONFIG_CONTROL_DESIGN' ));
ENDSEC;

DATA;
#1 = CARTESIAN_POINT ( 'NONE',  ( 0.000000000000000000, 0.000000000000000000, 5.199999999999982414 ) ) ;
#2 = CARTESIAN_POINT ( 'NONE',  ( 8.000000000000000000, 9.797174393178825657E-16, 5.000000000000000000 ) ) ;
#3 = DIRECTION ( 'NONE',  ( 0.000000000000000000, 0.000000000000000000, 1.000000000000000000 ) ) ;
#4 = APPLICATION_CONTEXT ( 'configuration controlled 3d designs of mechanical parts and assemblies' ) ;
#5 = ADVANCED_FACE ( 'NONE', ( #189 ), #211, .T. ) ;
#6 = DATE_TIME_ROLE ( 'classification_date' ) ;
#7 = ORIENTED_EDGE ( 'NONE', *, *, #57, .T. ) ;
#8 = ORIENTED_EDGE ( 'NONE', *, *, #232, .F. ) ;
#9 = EDGE_CURVE ( 'NONE', #66, #204, #245, .T. ) ;
#10 = ORIENTED_EDGE ( 'NONE', *, *, #40, .F. ) ;
#11 = CARTESIAN_POINT ( 'NONE',  ( 0.000000000000000000, 0.000000000000000000, 505.0000000000000000 ) ) ;
#12 = CARTESIAN_POINT ( 'NONE',  ( -5.100000000000001421, 0.000000000000000000, 505.0000000000000000 ) ) ;
#13 = DATE_TIME_ROLE ( 'creation_date' ) ;
#14 = ORIENTED_EDGE ( 'NONE', *, *, #84, .T. ) ;
#15 = DIRECTION ( 'NONE',  ( 0.000000000000000000, 0.000000000000000000, 1.000000000000000000 ) ) ;
#16 = ORIENTED_EDGE ( 'NONE', *, *, #297, .F. ) ;
#17 = DIRECTION ( 'NONE',  ( 1.000000000000000000, 0.000000000000000000, -0.000000000000000000 ) ) ;
#18 = APPROVAL_ROLE ( '' ) ;
#19 = DIRECTION ( 'NONE',  ( 1.000000000000000000, 0.000000000000000000, 0.000000000000000000 ) ) ;
#20 = CIRCLE ( 'NONE', #200, 8.000000000000000000 ) ;
#21 = CARTESIAN_POINT ( 'NONE',  ( 0.000000000000000000, 0.000000000000000000, 5.199999999999982414 ) ) ;
#22 = ADVANCED_FACE ( 'NONE', ( #248 ), #168, .T. ) ;
#23 = DIRECTION ( 'NONE',  ( -1.000000000000000000, 0.000000000000000000, 0.000000000000000000 ) ) ;
#24 = CC_DESIGN_PERSON_AND_ORGANIZATION_ASSIGNMENT ( #244, #264, ( #282 ) ) ;
#25 = DATE_AND_TIME ( #242, #250 ) ;
#26 = DIRECTION ( 'NONE',  ( 0.000000000000000000, 0.000000000000000000, 1.000000000000000000 ) ) ;
#27 = CC_DESIGN_APPROVAL ( #115, ( #179 ) ) ;
#28 = ADVANCED_FACE ( 'NONE', ( #257 ), #277, .F. ) ;
#29 = EDGE_LOOP ( 'NONE', ( #8, #246, #296, #299 ) ) ;
#30 = EDGE_CURVE ( 'NONE', #221, #155, #176, .T. ) ;
#31 = EDGE_CURVE ( 'NONE', #221, #230, #236, .T. ) ;
#32 = EDGE_LOOP ( 'NONE', ( #184, #44, #122, #134 ) ) ;
#33 = VERTEX_POINT ( 'NONE', #182 ) ;
#34 = CIRCLE ( 'NONE', #138, 0.1999999999999996503 ) ;
#35 = DIRECTION ( 'NONE',  ( 1.000000000000000000, 0.000000000000000000, -0.000000000000000000 ) ) ;
#36 = ADVANCED_BREP_SHAPE_REPRESENTATION ( 'fb91', ( #231, #133 ), #185 ) ;
#37 = AXIS2_PLACEMENT_3D ( 'NONE', #306, #53, #104 ) ;
#38 = PERSON_AND_ORGANIZATION ( #131, #103 ) ;
#39 = DIRECTION ( 'NONE',  ( 0.000000000000000000, 0.000000000000000000, 1.000000000000000000 ) ) ;
#40 = EDGE_CURVE ( 'NONE', #204, #66, #70, .T. ) ;
#41 = DIRECTION ( 'NONE',  ( 1.000000000000000000, 0.000000000000000000, 0.000000000000000000 ) ) ;
#42 = DIRECTION ( 'NONE',  ( 1.000000000000000000, 0.000000000000000000, 0.000000000000000000 ) ) ;
#43 = PERSON_AND_ORGANIZATION_ROLE ( 'design_supplier' ) ;
#44 = ORIENTED_EDGE ( 'NONE', *, *, #292, .T. ) ;
#45 = EDGE_CURVE ( 'NONE', #155, #221, #205, .T. ) ;
#46 = ORIENTED_EDGE ( 'NONE', *, *, #135, .T. ) ;
#47 = CIRCLE ( 'NONE', #270, 8.000000000000000000 ) ;
#48 = PERSON_AND_ORGANIZATION_ROLE ( 'design_owner' ) ;
#49 = CC_DESIGN_DATE_AND_TIME_ASSIGNMENT ( #141, #13, ( #179 ) ) ;
#50 = CARTESIAN_POINT ( 'NONE',  ( -5.100000000000001421, 0.000000000000000000, 5.199999999999982414 ) ) ;
#51 = DIRECTION ( 'NONE',  ( 0.000000000000000000, 0.000000000000000000, 1.000000000000000000 ) ) ;
#52 = DIRECTION ( 'NONE',  ( 0.000000000000000000, 0.000000000000000000, 1.000000000000000000 ) ) ;
#53 = DIRECTION ( 'NONE',  ( 0.000000000000000000, 0.000000000000000000, 1.000000000000000000 ) ) ;
#54 = APPROVAL_DATE_TIME ( #25, #56 ) ;
#55 = AXIS2_PLACEMENT_3D ( 'NONE', #194, #51, #266 ) ;
#56 = APPROVAL ( #71, 'NEURÈENÝ' ) ;
#57 = EDGE_CURVE ( 'NONE', #290, #204, #61, .T. ) ;
#58 = ORIENTED_EDGE ( 'NONE', *, *, #64, .F. ) ;
#59 = CARTESIAN_POINT ( 'NONE',  ( 0.000000000000000000, 0.000000000000000000, 0.000000000000000000 ) ) ;
#60 = CIRCLE ( 'NONE', #62, 5.300000000000000711 ) ;
#61 = LINE ( 'NONE', #228, #108 ) ;
#62 = AXIS2_PLACEMENT_3D ( 'NONE', #196, #69, #213 ) ;
#63 = PERSON_AND_ORGANIZATION ( #131, #103 ) ;
#64 = EDGE_CURVE ( 'NONE', #290, #271, #47, .T. ) ;
#65 = CARTESIAN_POINT ( 'NONE',  ( 0.000000000000000000, 0.000000000000000000, 5.000000000000000000 ) ) ;
#66 = VERTEX_POINT ( 'NONE', #209 ) ;
#67 = CARTESIAN_POINT ( 'NONE',  ( 0.000000000000000000, 0.000000000000000000, 0.000000000000000000 ) ) ;
#68 = PRODUCT_DEFINITION_FORMATION_WITH_SPECIFIED_SOURCE ( 'LIBOVOLNÝ', '', #256, .NOT_KNOWN. ) ;
#69 = DIRECTION ( 'NONE',  ( -0.000000000000000000, -0.000000000000000000, -1.000000000000000000 ) ) ;
#70 = CIRCLE ( 'NONE', #235, 8.000000000000000000 ) ;
#71 = APPROVAL_STATUS ( 'not_yet_approved' ) ;
#72 = CARTESIAN_POINT ( 'NONE',  ( 0.000000000000000000, 0.000000000000000000, 5.000000000000000000 ) ) ;
#73 = PRODUCT_RELATED_PRODUCT_CATEGORY ( 'detail', '', ( #256 ) ) ;
#74 = FACE_OUTER_BOUND ( 'NONE', #187, .T. ) ;
#75 = FACE_OUTER_BOUND ( 'NONE', #247, .T. ) ;
#76 = CALENDAR_DATE ( 2022, 20, 6 ) ;
#77 = AXIS2_PLACEMENT_3D ( 'NONE', #120, #148, #140 ) ;
#78 = ADVANCED_FACE ( 'NONE', ( #174 ), #175, .T. ) ;
#79 = ORIENTED_EDGE ( 'NONE', *, *, #45, .F. ) ;
#80 = TOROIDAL_SURFACE ( 'NONE', #307, 5.300000000000000711, 0.2000000000000000111 ) ;
#81 = EDGE_CURVE ( 'NONE', #33, #201, #60, .T. ) ;
#82 = CC_DESIGN_APPROVAL ( #130, ( #68 ) ) ;
#83 = ORIENTED_EDGE ( 'NONE', *, *, #40, .T. ) ;
#84 = EDGE_CURVE ( 'NONE', #291, #230, #125, .T. ) ;
#85 = VECTOR ( 'NONE', #193, 1000.000000000000000 ) ;
#86 = EDGE_LOOP ( 'NONE', ( #171, #58, #7, #83 ) ) ;
#87 = DIRECTION ( 'NONE',  ( -0.000000000000000000, -0.000000000000000000, -1.000000000000000000 ) ) ;
#88 = ADVANCED_FACE ( 'NONE', ( #126 ), #95, .F. ) ;
#89 = COORDINATED_UNIVERSAL_TIME_OFFSET ( 1, 0, .AHEAD. ) ;
#90 = CARTESIAN_POINT ( 'NONE',  ( 0.000000000000000000, 0.000000000000000000, 5.000000000000000000 ) ) ;
#91 = ADVANCED_FACE ( 'NONE', ( #106 ), #263, .T. ) ;
#92 = DIRECTION ( 'NONE',  ( 1.000000000000000000, 0.000000000000000000, 0.000000000000000000 ) ) ;
#93 = DESIGN_CONTEXT ( 'detailed design', #109, 'design' ) ;
#94 = DIRECTION ( 'NONE',  ( -0.000000000000000000, -0.000000000000000000, -1.000000000000000000 ) ) ;
#95 = TOROIDAL_SURFACE ( 'NONE', #37, 5.300000000000000711, 0.2000000000000000111 ) ;
#96 = PERSON_AND_ORGANIZATION ( #131, #103 ) ;
#97 = EDGE_CURVE ( 'NONE', #271, #66, #197, .T. ) ;
#98 = ORIENTED_EDGE ( 'NONE', *, *, #31, .F. ) ;
#99 =( NAMED_UNIT ( * ) SI_UNIT ( $, .STERADIAN. ) SOLID_ANGLE_UNIT ( ) );
#100 = DIRECTION ( 'NONE',  ( -1.000000000000000000, 0.000000000000000000, 0.000000000000000000 ) ) ;
#101 =( NAMED_UNIT ( * ) PLANE_ANGLE_UNIT ( ) SI_UNIT ( $, .RADIAN. ) );
#102 = DIRECTION ( 'NONE',  ( -0.000000000000000000, -0.000000000000000000, -1.000000000000000000 ) ) ;
#103 = ORGANIZATION ( 'NEURÈENÝ', 'NEURÈENÝ', '' ) ;
#104 = DIRECTION ( 'NONE',  ( 1.000000000000000000, 0.000000000000000000, 0.000000000000000000 ) ) ;
#105 = CARTESIAN_POINT ( 'NONE',  ( 0.000000000000000000, 0.000000000000000000, 5.000000000000000000 ) ) ;
#106 = FACE_OUTER_BOUND ( 'NONE', #113, .T. ) ;
#107 = EDGE_CURVE ( 'NONE', #201, #33, #259, .T. ) ;
#108 = VECTOR ( 'NONE', #208, 1000.000000000000000 ) ;
#109 = APPLICATION_CONTEXT ( 'configuration controlled 3d designs of mechanical parts and assemblies' ) ;
#110 = ORIENTED_EDGE ( 'NONE', *, *, #84, .F. ) ;
#111 = AXIS2_PLACEMENT_3D ( 'NONE', #105, #152, #132 ) ;
#112 = VECTOR ( 'NONE', #227, 1000.000000000000000 ) ;
#113 = EDGE_LOOP ( 'NONE', ( #16, #254, #144, #223 ) ) ;
#114 = DIRECTION ( 'NONE',  ( 0.000000000000000000, 0.000000000000000000, 1.000000000000000000 ) ) ;
#115 = APPROVAL ( #237, 'NEURÈENÝ' ) ;
#116 = CALENDAR_DATE ( 2022, 20, 6 ) ;
#117 = DIRECTION ( 'NONE',  ( 1.000000000000000000, 0.000000000000000000, 0.000000000000000000 ) ) ;
#118 = CALENDAR_DATE ( 2022, 20, 6 ) ;
#119 = UNCERTAINTY_MEASURE_WITH_UNIT (LENGTH_MEASURE( 1.000000000000000082E-05 ), #251, 'distance_accuracy_value', 'NONE');
#120 = CARTESIAN_POINT ( 'NONE',  ( 0.000000000000000000, 0.000000000000000000, 505.0000000000000000 ) ) ;
#121 = CARTESIAN_POINT ( 'NONE',  ( 5.100000000000001421, 6.245698675651502811E-16, 505.0000000000000000 ) ) ;
#122 = ORIENTED_EDGE ( 'NONE', *, *, #107, .F. ) ;
#123 = APPLICATION_PROTOCOL_DEFINITION ( 'international standard', 'config_control_design', 1994, #109 ) ;
#124 = CARTESIAN_POINT ( 'NONE',  ( -5.100000000000001421, 0.000000000000000000, 505.0000000000000000 ) ) ;
#125 = CIRCLE ( 'NONE', #160, 5.100000000000001421 ) ;
#126 = FACE_OUTER_BOUND ( 'NONE', #32, .T. ) ;
#127 = CC_DESIGN_SECURITY_CLASSIFICATION ( #282, ( #68 ) ) ;
#128 = APPROVAL_ROLE ( '' ) ;
#129 = AXIS2_PLACEMENT_3D ( 'NONE', #67, #39, #260 ) ;
#130 = APPROVAL ( #207, 'NEURÈENÝ' ) ;
#131 = PERSON ( 'NEURÈENÝ', 'NEURÈENÝ', 'NEURÈENÝ', ('NEURÈENÝ'), ('NEURÈENÝ'), ('NEURÈENÝ') ) ;
#132 = DIRECTION ( 'NONE',  ( 1.000000000000000000, 0.000000000000000000, 0.000000000000000000 ) ) ;
#133 = AXIS2_PLACEMENT_3D ( 'NONE', #169, #261, #41 ) ;
#134 = ORIENTED_EDGE ( 'NONE', *, *, #135, .F. ) ;
#135 = EDGE_CURVE ( 'NONE', #291, #201, #34, .T. ) ;
#136 = AXIS2_PLACEMENT_3D ( 'NONE', #295, #281, #35 ) ;
#137 = EDGE_LOOP ( 'NONE', ( #79, #178, #14, #98 ) ) ;
#138 = AXIS2_PLACEMENT_3D ( 'NONE', #219, #216, #151 ) ;
#139 = ADVANCED_FACE ( 'NONE', ( #75 ), #288, .T. ) ;
#140 = DIRECTION ( 'NONE',  ( 1.000000000000000000, 0.000000000000000000, 0.000000000000000000 ) ) ;
#141 = DATE_AND_TIME ( #116, #203 ) ;
#142 = DIRECTION ( 'NONE',  ( -0.000000000000000000, -0.000000000000000000, -1.000000000000000000 ) ) ;
#143 = CALENDAR_DATE ( 2022, 20, 6 ) ;
#144 = ORIENTED_EDGE ( 'NONE', *, *, #31, .T. ) ;
#145 = CARTESIAN_POINT ( 'NONE',  ( 8.000000000000000000, 9.797174393178825657E-16, 5.000000000000000000 ) ) ;
#146 = ORIENTED_EDGE ( 'NONE', *, *, #64, .T. ) ;
#147 = CARTESIAN_POINT ( 'NONE',  ( 0.000000000000000000, 0.000000000000000000, 5.199999999999982414 ) ) ;
#148 = DIRECTION ( 'NONE',  ( 0.000000000000000000, 0.000000000000000000, 1.000000000000000000 ) ) ;
#149 = DIRECTION ( 'NONE',  ( 1.000000000000000000, 0.000000000000000000, 0.000000000000000000 ) ) ;
#150 = CIRCLE ( 'NONE', #224, 5.100000000000001421 ) ;
#151 = DIRECTION ( 'NONE',  ( 0.000000000000000000, 0.000000000000000000, -1.000000000000000000 ) ) ;
#152 = DIRECTION ( 'NONE',  ( -0.000000000000000000, -0.000000000000000000, -1.000000000000000000 ) ) ;
#153 = FACE_OUTER_BOUND ( 'NONE', #159, .T. ) ;
#154 = LOCAL_TIME ( 11, 38, 55.00000000000000000, #195 ) ;
#155 = VERTEX_POINT ( 'NONE', #238 ) ;
#156 = CC_DESIGN_PERSON_AND_ORGANIZATION_ASSIGNMENT ( #167, #43, ( #68 ) ) ;
#157 = EDGE_LOOP ( 'NONE', ( #10, #163 ) ) ;
#158 = CC_DESIGN_DATE_AND_TIME_ASSIGNMENT ( #220, #6, ( #282 ) ) ;
#159 = EDGE_LOOP ( 'NONE', ( #146, #304 ) ) ;
#160 = AXIS2_PLACEMENT_3D ( 'NONE', #21, #173, #19 ) ;
#161 = COORDINATED_UNIVERSAL_TIME_OFFSET ( 1, 0, .AHEAD. ) ;
#162 = AXIS2_PLACEMENT_3D ( 'NONE', #243, #26, #17 ) ;
#163 = ORIENTED_EDGE ( 'NONE', *, *, #9, .F. ) ;
#164 = DATE_AND_TIME ( #118, #214 ) ;
#165 = AXIS2_PLACEMENT_3D ( 'NONE', #253, #94, #100 ) ;
#166 = DIRECTION ( 'NONE',  ( 0.000000000000000000, 0.000000000000000000, 1.000000000000000000 ) ) ;
#167 = PERSON_AND_ORGANIZATION ( #131, #103 ) ;
#168 = CYLINDRICAL_SURFACE ( 'NONE', #302, 8.000000000000000000 ) ;
#169 = CARTESIAN_POINT ( 'NONE',  ( 0.000000000000000000, 0.000000000000000000, 0.000000000000000000 ) ) ;
#170 = LOCAL_TIME ( 11, 38, 55.00000000000000000, #89 ) ;
#171 = ORIENTED_EDGE ( 'NONE', *, *, #97, .F. ) ;
#172 = DIRECTION ( 'NONE',  ( -0.000000000000000000, -0.000000000000000000, -1.000000000000000000 ) ) ;
#173 = DIRECTION ( 'NONE',  ( 0.000000000000000000, 0.000000000000000000, 1.000000000000000000 ) ) ;
#174 = FACE_OUTER_BOUND ( 'NONE', #29, .T. ) ;
#175 = CYLINDRICAL_SURFACE ( 'NONE', #180, 8.000000000000000000 ) ;
#176 = CIRCLE ( 'NONE', #77, 5.100000000000001421 ) ;
#177 = APPROVAL_PERSON_ORGANIZATION ( #286, #56, #128 ) ;
#178 = ORIENTED_EDGE ( 'NONE', *, *, #297, .T. ) ;
#179 = PRODUCT_DEFINITION ( 'NEZNÁMÝ', '', #68, #93 ) ;
#180 = AXIS2_PLACEMENT_3D ( 'NONE', #72, #102, #240 ) ;
#181 = CLOSED_SHELL ( 'NONE', ( #88, #5, #78, #22, #210, #28, #91, #139, #226 ) ) ;
#182 = CARTESIAN_POINT ( 'NONE',  ( -5.300000000000000711, 6.490628035480971924E-16, 4.999999999999991118 ) ) ;
#183 = DIRECTION ( 'NONE',  ( -1.000000000000000000, 1.224646799147353454E-16, 0.000000000000000000 ) ) ;
#184 = ORIENTED_EDGE ( 'NONE', *, *, #252, .F. ) ;
#185 =( GEOMETRIC_REPRESENTATION_CONTEXT ( 3 ) GLOBAL_UNCERTAINTY_ASSIGNED_CONTEXT ( ( #119 ) ) GLOBAL_UNIT_ASSIGNED_CONTEXT ( ( #251, #101, #99 ) ) REPRESENTATION_CONTEXT ( 'NONE', 'WORKASPACE' ) );
#186 = COORDINATED_UNIVERSAL_TIME_OFFSET ( 1, 0, .AHEAD. ) ;
#187 = EDGE_LOOP ( 'NONE', ( #293, #110, #46, #279 ) ) ;
#188 = CARTESIAN_POINT ( 'NONE',  ( -5.300000000000000711, 6.490628035480972910E-16, 5.199999999999982414 ) ) ;
#189 = FACE_OUTER_BOUND ( 'NONE', #137, .T. ) ;
#190 = MECHANICAL_CONTEXT ( 'NONE', #4, 'mechanical' ) ;
#191 = DIRECTION ( 'NONE',  ( -1.000000000000000000, 0.000000000000000000, 0.000000000000000000 ) ) ;
#192 = PERSON_AND_ORGANIZATION ( #131, #103 ) ;
#193 = DIRECTION ( 'NONE',  ( -0.000000000000000000, -0.000000000000000000, -1.000000000000000000 ) ) ;
#194 = CARTESIAN_POINT ( 'NONE',  ( 0.000000000000000000, 0.000000000000000000, 505.0000000000000000 ) ) ;
#195 = COORDINATED_UNIVERSAL_TIME_OFFSET ( 1, 0, .AHEAD. ) ;
#196 = CARTESIAN_POINT ( 'NONE',  ( 0.000000000000000000, 0.000000000000000000, 5.000000000000000000 ) ) ;
#197 = LINE ( 'NONE', #2, #85 ) ;
#198 = VECTOR ( 'NONE', #87, 1000.000000000000000 ) ;
#199 = ORIENTED_EDGE ( 'NONE', *, *, #30, .T. ) ;
#200 = AXIS2_PLACEMENT_3D ( 'NONE', #265, #3, #149 ) ;
#201 = VERTEX_POINT ( 'NONE', #285 ) ;
#202 = ORIENTED_EDGE ( 'NONE', *, *, #81, .T. ) ;
#203 = LOCAL_TIME ( 11, 38, 55.00000000000000000, #161 ) ;
#204 = VERTEX_POINT ( 'NONE', #287 ) ;
#205 = CIRCLE ( 'NONE', #284, 5.100000000000001421 ) ;
#206 = DIRECTION ( 'NONE',  ( 1.000000000000000000, 0.000000000000000000, 0.000000000000000000 ) ) ;
#207 = APPROVAL_STATUS ( 'not_yet_approved' ) ;
#208 = DIRECTION ( 'NONE',  ( -0.000000000000000000, -0.000000000000000000, -1.000000000000000000 ) ) ;
#209 = CARTESIAN_POINT ( 'NONE',  ( 8.000000000000000000, 9.797174393178825657E-16, 0.000000000000000000 ) ) ;
#210 = ADVANCED_FACE ( 'NONE', ( #262, #153 ), #283, .T. ) ;
#211 = CYLINDRICAL_SURFACE ( 'NONE', #165, 5.100000000000001421 ) ;
#212 = DIRECTION ( 'NONE',  ( 1.224646799147353207E-16, 1.000000000000000000, -0.000000000000000000 ) ) ;
#213 = DIRECTION ( 'NONE',  ( 1.000000000000000000, 0.000000000000000000, 0.000000000000000000 ) ) ;
#214 = LOCAL_TIME ( 11, 38, 55.00000000000000000, #186 ) ;
#215 = APPROVAL_PERSON_ORGANIZATION ( #63, #130, #298 ) ;
#216 = DIRECTION ( 'NONE',  ( 0.000000000000000000, -1.000000000000000000, 0.000000000000000000 ) ) ;
#217 = COORDINATED_UNIVERSAL_TIME_OFFSET ( 1, 0, .AHEAD. ) ;
#218 = CARTESIAN_POINT ( 'NONE',  ( 0.000000000000000000, 0.000000000000000000, 505.0000000000000000 ) ) ;
#219 = CARTESIAN_POINT ( 'NONE',  ( 5.300000000000000711, 0.000000000000000000, 5.199999999999982414 ) ) ;
#220 = DATE_AND_TIME ( #76, #154 ) ;
#221 = VERTEX_POINT ( 'NONE', #124 ) ;
#222 = CC_DESIGN_PERSON_AND_ORGANIZATION_ASSIGNMENT ( #96, #278, ( #68 ) ) ;
#223 = ORIENTED_EDGE ( 'NONE', *, *, #252, .T. ) ;
#224 = AXIS2_PLACEMENT_3D ( 'NONE', #147, #15, #92 ) ;
#225 = DIRECTION ( 'NONE',  ( 0.000000000000000000, 0.000000000000000000, 1.000000000000000000 ) ) ;
#226 = ADVANCED_FACE ( 'NONE', ( #74 ), #80, .F. ) ;
#227 = DIRECTION ( 'NONE',  ( -0.000000000000000000, -0.000000000000000000, -1.000000000000000000 ) ) ;
#228 = CARTESIAN_POINT ( 'NONE',  ( -8.000000000000000000, 0.000000000000000000, 5.000000000000000000 ) ) ;
#229 = DATE_AND_TIME ( #143, #170 ) ;
#230 = VERTEX_POINT ( 'NONE', #50 ) ;
#231 = MANIFOLD_SOLID_BREP ( 'Zaoblit1', #181 ) ;
#232 = EDGE_CURVE ( 'NONE', #271, #290, #20, .T. ) ;
#233 = SECURITY_CLASSIFICATION_LEVEL ( 'unclassified' ) ;
#234 = ORIENTED_EDGE ( 'NONE', *, *, #45, .T. ) ;
#235 = AXIS2_PLACEMENT_3D ( 'NONE', #59, #225, #117 ) ;
#236 = LINE ( 'NONE', #12, #198 ) ;
#237 = APPROVAL_STATUS ( 'not_yet_approved' ) ;
#238 = CARTESIAN_POINT ( 'NONE',  ( 5.100000000000001421, 6.245698675651502811E-16, 505.0000000000000000 ) ) ;
#239 = AXIS2_PLACEMENT_3D ( 'NONE', #188, #212, #183 ) ;
#240 = DIRECTION ( 'NONE',  ( -1.000000000000000000, 0.000000000000000000, 0.000000000000000000 ) ) ;
#241 = DIRECTION ( 'NONE',  ( 1.000000000000000000, 0.000000000000000000, 0.000000000000000000 ) ) ;
#242 = CALENDAR_DATE ( 2022, 20, 6 ) ;
#243 = CARTESIAN_POINT ( 'NONE',  ( 0.000000000000000000, 0.000000000000000000, 5.000000000000000000 ) ) ;
#244 = PERSON_AND_ORGANIZATION ( #131, #103 ) ;
#245 = CIRCLE ( 'NONE', #129, 8.000000000000000000 ) ;
#246 = ORIENTED_EDGE ( 'NONE', *, *, #97, .T. ) ;
#247 = EDGE_LOOP ( 'NONE', ( #199, #234 ) ) ;
#248 = FACE_OUTER_BOUND ( 'NONE', #86, .T. ) ;
#249 = CC_DESIGN_APPROVAL ( #56, ( #282 ) ) ;
#250 = LOCAL_TIME ( 11, 38, 55.00000000000000000, #217 ) ;
#251 =( LENGTH_UNIT ( ) NAMED_UNIT ( * ) SI_UNIT ( .MILLI., .METRE. ) );
#252 = EDGE_CURVE ( 'NONE', #230, #291, #150, .T. ) ;
#253 = CARTESIAN_POINT ( 'NONE',  ( 0.000000000000000000, 0.000000000000000000, 505.0000000000000000 ) ) ;
#254 = ORIENTED_EDGE ( 'NONE', *, *, #30, .F. ) ;
#255 = LINE ( 'NONE', #121, #112 ) ;
#256 = PRODUCT ( 'fb91', 'fb91', '', ( #190 ) ) ;
#257 = FACE_OUTER_BOUND ( 'NONE', #157, .T. ) ;
#258 = APPLICATION_PROTOCOL_DEFINITION ( 'international standard', 'config_control_design', 1994, #4 ) ;
#259 = CIRCLE ( 'NONE', #111, 5.300000000000000711 ) ;
#260 = DIRECTION ( 'NONE',  ( 1.000000000000000000, 0.000000000000000000, 0.000000000000000000 ) ) ;
#261 = DIRECTION ( 'NONE',  ( 0.000000000000000000, 0.000000000000000000, 1.000000000000000000 ) ) ;
#262 = FACE_BOUND ( 'NONE', #274, .T. ) ;
#263 = CYLINDRICAL_SURFACE ( 'NONE', #275, 5.100000000000001421 ) ;
#264 = PERSON_AND_ORGANIZATION_ROLE ( 'classification_officer' ) ;
#265 = CARTESIAN_POINT ( 'NONE',  ( 0.000000000000000000, 0.000000000000000000, 5.000000000000000000 ) ) ;
#266 = DIRECTION ( 'NONE',  ( 1.000000000000000000, 0.000000000000000000, -0.000000000000000000 ) ) ;
#267 = SHAPE_DEFINITION_REPRESENTATION ( #289, #36 ) ;
#268 = CIRCLE ( 'NONE', #239, 0.1999999999999996503 ) ;
#269 = CC_DESIGN_PERSON_AND_ORGANIZATION_ASSIGNMENT ( #192, #48, ( #256 ) ) ;
#270 = AXIS2_PLACEMENT_3D ( 'NONE', #65, #166, #42 ) ;
#271 = VERTEX_POINT ( 'NONE', #145 ) ;
#272 = CC_DESIGN_PERSON_AND_ORGANIZATION_ASSIGNMENT ( #280, #303, ( #179 ) ) ;
#273 = APPROVAL_DATE_TIME ( #229, #115 ) ;
#274 = EDGE_LOOP ( 'NONE', ( #301, #202 ) ) ;
#275 = AXIS2_PLACEMENT_3D ( 'NONE', #218, #172, #23 ) ;
#276 = CARTESIAN_POINT ( 'NONE',  ( 5.100000000000001421, 6.245698675651502811E-16, 5.199999999999982414 ) ) ;
#277 = PLANE ( 'NONE',  #136 ) ;
#278 = PERSON_AND_ORGANIZATION_ROLE ( 'creator' ) ;
#279 = ORIENTED_EDGE ( 'NONE', *, *, #81, .F. ) ;
#280 = PERSON_AND_ORGANIZATION ( #131, #103 ) ;
#281 = DIRECTION ( 'NONE',  ( 0.000000000000000000, 0.000000000000000000, 1.000000000000000000 ) ) ;
#282 = SECURITY_CLASSIFICATION ( '', '', #233 ) ;
#283 = PLANE ( 'NONE',  #162 ) ;
#284 = AXIS2_PLACEMENT_3D ( 'NONE', #11, #114, #206 ) ;
#285 = CARTESIAN_POINT ( 'NONE',  ( 5.300000000000000711, 0.000000000000000000, 4.999999999999991118 ) ) ;
#286 = PERSON_AND_ORGANIZATION ( #131, #103 ) ;
#287 = CARTESIAN_POINT ( 'NONE',  ( -8.000000000000000000, 0.000000000000000000, 0.000000000000000000 ) ) ;
#288 = PLANE ( 'NONE',  #55 ) ;
#289 = PRODUCT_DEFINITION_SHAPE ( 'NONE', 'NONE',  #179 ) ;
#290 = VERTEX_POINT ( 'NONE', #305 ) ;
#291 = VERTEX_POINT ( 'NONE', #276 ) ;
#292 = EDGE_CURVE ( 'NONE', #230, #33, #268, .T. ) ;
#293 = ORIENTED_EDGE ( 'NONE', *, *, #292, .F. ) ;
#294 = APPROVAL_PERSON_ORGANIZATION ( #38, #115, #18 ) ;
#295 = CARTESIAN_POINT ( 'NONE',  ( 0.000000000000000000, 0.000000000000000000, 0.000000000000000000 ) ) ;
#296 = ORIENTED_EDGE ( 'NONE', *, *, #9, .T. ) ;
#297 = EDGE_CURVE ( 'NONE', #155, #291, #255, .T. ) ;
#298 = APPROVAL_ROLE ( '' ) ;
#299 = ORIENTED_EDGE ( 'NONE', *, *, #57, .F. ) ;
#300 = APPROVAL_DATE_TIME ( #164, #130 ) ;
#301 = ORIENTED_EDGE ( 'NONE', *, *, #107, .T. ) ;
#302 = AXIS2_PLACEMENT_3D ( 'NONE', #90, #142, #191 ) ;
#303 = PERSON_AND_ORGANIZATION_ROLE ( 'creator' ) ;
#304 = ORIENTED_EDGE ( 'NONE', *, *, #232, .T. ) ;
#305 = CARTESIAN_POINT ( 'NONE',  ( -8.000000000000000000, 0.000000000000000000, 5.000000000000000000 ) ) ;
#306 = CARTESIAN_POINT ( 'NONE',  ( 0.000000000000000000, 0.000000000000000000, 5.199999999999982414 ) ) ;
#307 = AXIS2_PLACEMENT_3D ( 'NONE', #1, #52, #241 ) ;
ENDSEC;
END-ISO-10303-21;
