ISO-10303-21;
HEADER;
FILE_DESCRIPTION (( 'STEP AP203' ),
    '1' );
FILE_NAME ('6ec5.STEP',
    '2022-06-20T10:00:05',
    ( '' ),
    ( '' ),
    'SwSTEP 2.0',
    'SolidWorks 2019',
    '' );
FILE_SCHEMA (( 'CONFIG_CONTROL_DESIGN' ));
ENDSEC;

DATA;
#1 = ORIENTED_EDGE ( 'NONE', *, *, #156, .T. ) ;
#2 = DIRECTION ( 'NONE',  ( 1.000000000000000000, 0.000000000000000000, 0.000000000000000000 ) ) ;
#3 = EDGE_LOOP ( 'NONE', ( #146, #211 ) ) ;
#4 = ADVANCED_FACE ( 'NONE', ( #149 ), #125, .T. ) ;
#5 = FACE_OUTER_BOUND ( 'NONE', #111, .T. ) ;
#6 = CIRCLE ( 'NONE', #23, 2.949999999999999734 ) ;
#7 =( NAMED_UNIT ( * ) SI_UNIT ( $, .STERADIAN. ) SOLID_ANGLE_UNIT ( ) );
#8 = CARTESIAN_POINT ( 'NONE',  ( 5.000000000000000000, 6.123233995736766282E-16, 3.000000000000000000 ) ) ;
#9 = CIRCLE ( 'NONE', #287, 2.750000000000000000 ) ;
#10 = APPROVAL_PERSON_ORGANIZATION ( #182, #56, #273 ) ;
#11 = DIRECTION ( 'NONE',  ( 0.000000000000000000, 0.000000000000000000, 1.000000000000000000 ) ) ;
#12 = ORIENTED_EDGE ( 'NONE', *, *, #62, .F. ) ;
#13 = PRODUCT_RELATED_PRODUCT_CATEGORY ( 'detail', '', ( #95 ) ) ;
#14 = DIRECTION ( 'NONE',  ( 0.000000000000000000, 0.000000000000000000, 1.000000000000000000 ) ) ;
#15 = CIRCLE ( 'NONE', #291, 5.000000000000000000 ) ;
#16 = ORIENTED_EDGE ( 'NONE', *, *, #71, .F. ) ;
#17 = VECTOR ( 'NONE', #259, 1000.000000000000000 ) ;
#18 = CIRCLE ( 'NONE', #205, 0.2000000000000000944 ) ;
#19 = DIRECTION ( 'NONE',  ( -0.000000000000000000, -0.000000000000000000, -1.000000000000000000 ) ) ;
#20 = AXIS2_PLACEMENT_3D ( 'NONE', #22, #168, #193 ) ;
#21 = EDGE_CURVE ( 'NONE', #94, #127, #30, .T. ) ;
#22 = CARTESIAN_POINT ( 'NONE',  ( 0.000000000000000000, 0.000000000000000000, 203.0000000000000000 ) ) ;
#23 = AXIS2_PLACEMENT_3D ( 'NONE', #244, #218, #2 ) ;
#24 = DIRECTION ( 'NONE',  ( -0.000000000000000000, -0.000000000000000000, -1.000000000000000000 ) ) ;
#25 = ADVANCED_FACE ( 'NONE', ( #75 ), #283, .F. ) ;
#26 = ORIENTED_EDGE ( 'NONE', *, *, #282, .T. ) ;
#27 = DIRECTION ( 'NONE',  ( -0.000000000000000000, -0.000000000000000000, -1.000000000000000000 ) ) ;
#28 =( GEOMETRIC_REPRESENTATION_CONTEXT ( 3 ) GLOBAL_UNCERTAINTY_ASSIGNED_CONTEXT ( ( #63 ) ) GLOBAL_UNIT_ASSIGNED_CONTEXT ( ( #155, #38, #7 ) ) REPRESENTATION_CONTEXT ( 'NONE', 'WORKASPACE' ) );
#29 = CARTESIAN_POINT ( 'NONE',  ( -2.750000000000000000, 0.000000000000000000, 203.0000000000000000 ) ) ;
#30 = LINE ( 'NONE', #29, #120 ) ;
#31 = CC_DESIGN_PERSON_AND_ORGANIZATION_ASSIGNMENT ( #115, #119, ( #281 ) ) ;
#32 = FACE_OUTER_BOUND ( 'NONE', #3, .T. ) ;
#33 = CARTESIAN_POINT ( 'NONE',  ( 0.000000000000000000, 0.000000000000000000, 3.000000000000000000 ) ) ;
#34 = COORDINATED_UNIVERSAL_TIME_OFFSET ( 1, 0, .AHEAD. ) ;
#35 = CARTESIAN_POINT ( 'NONE',  ( -2.750000000000000000, 0.000000000000000000, 203.0000000000000000 ) ) ;
#36 = ADVANCED_FACE ( 'NONE', ( #163 ), #184, .F. ) ;
#37 = APPROVAL_STATUS ( 'not_yet_approved' ) ;
#38 =( NAMED_UNIT ( * ) PLANE_ANGLE_UNIT ( ) SI_UNIT ( $, .RADIAN. ) );
#39 = ORIENTED_EDGE ( 'NONE', *, *, #156, .F. ) ;
#40 = CC_DESIGN_PERSON_AND_ORGANIZATION_ASSIGNMENT ( #248, #129, ( #195 ) ) ;
#41 = DIRECTION ( 'NONE',  ( 0.000000000000000000, -1.000000000000000000, 0.000000000000000000 ) ) ;
#42 = ORIENTED_EDGE ( 'NONE', *, *, #253, .T. ) ;
#43 = APPROVAL_ROLE ( '' ) ;
#44 = ADVANCED_BREP_SHAPE_REPRESENTATION ( '6ec5', ( #240, #236 ), #28 ) ;
#45 = DIRECTION ( 'NONE',  ( 1.000000000000000000, 0.000000000000000000, 0.000000000000000000 ) ) ;
#46 = CARTESIAN_POINT ( 'NONE',  ( 0.000000000000000000, 0.000000000000000000, 3.200000000000008171 ) ) ;
#47 = ORIENTED_EDGE ( 'NONE', *, *, #258, .T. ) ;
#48 = CARTESIAN_POINT ( 'NONE',  ( -5.000000000000000000, 0.000000000000000000, 3.000000000000000000 ) ) ;
#49 = ORIENTED_EDGE ( 'NONE', *, *, #138, .F. ) ;
#50 = LOCAL_TIME ( 12, 0, 5.000000000000000000, #80 ) ;
#51 = VERTEX_POINT ( 'NONE', #161 ) ;
#52 = ORIENTED_EDGE ( 'NONE', *, *, #238, .F. ) ;
#53 = DIRECTION ( 'NONE',  ( 0.000000000000000000, 0.000000000000000000, 1.000000000000000000 ) ) ;
#54 = VERTEX_POINT ( 'NONE', #297 ) ;
#55 = CC_DESIGN_APPROVAL ( #180, ( #281 ) ) ;
#56 = APPROVAL ( #37, 'NEURÈENÝ' ) ;
#57 = AXIS2_PLACEMENT_3D ( 'NONE', #272, #226, #102 ) ;
#58 = APPROVAL_DATE_TIME ( #134, #56 ) ;
#59 = APPROVAL_STATUS ( 'not_yet_approved' ) ;
#60 = LOCAL_TIME ( 12, 0, 5.000000000000000000, #109 ) ;
#61 = CARTESIAN_POINT ( 'NONE',  ( 0.000000000000000000, 0.000000000000000000, 3.000000000000000000 ) ) ;
#62 = EDGE_CURVE ( 'NONE', #136, #94, #289, .T. ) ;
#63 = UNCERTAINTY_MEASURE_WITH_UNIT (LENGTH_MEASURE( 1.000000000000000082E-05 ), #155, 'distance_accuracy_value', 'NONE');
#64 = LOCAL_TIME ( 12, 0, 5.000000000000000000, #169 ) ;
#65 = DIRECTION ( 'NONE',  ( 0.000000000000000000, 0.000000000000000000, 1.000000000000000000 ) ) ;
#66 = VERTEX_POINT ( 'NONE', #105 ) ;
#67 = SECURITY_CLASSIFICATION_LEVEL ( 'unclassified' ) ;
#68 = CARTESIAN_POINT ( 'NONE',  ( 2.750000000000000000, 3.367778697655221012E-16, 203.0000000000000000 ) ) ;
#69 = EDGE_LOOP ( 'NONE', ( #187, #198, #255, #52 ) ) ;
#70 = DIRECTION ( 'NONE',  ( 1.000000000000000000, 0.000000000000000000, 0.000000000000000000 ) ) ;
#71 = EDGE_CURVE ( 'NONE', #222, #87, #157, .T. ) ;
#72 = EDGE_LOOP ( 'NONE', ( #47, #302 ) ) ;
#73 = APPROVAL_PERSON_ORGANIZATION ( #215, #180, #43 ) ;
#74 = DIRECTION ( 'NONE',  ( 1.000000000000000000, 0.000000000000000000, 0.000000000000000000 ) ) ;
#75 = FACE_OUTER_BOUND ( 'NONE', #69, .T. ) ;
#76 = CLOSED_SHELL ( 'NONE', ( #25, #110, #268, #204, #296, #36, #269, #4, #288 ) ) ;
#77 = FACE_OUTER_BOUND ( 'NONE', #164, .T. ) ;
#78 = CC_DESIGN_PERSON_AND_ORGANIZATION_ASSIGNMENT ( #101, #104, ( #174 ) ) ;
#79 = APPROVAL_ROLE ( '' ) ;
#80 = COORDINATED_UNIVERSAL_TIME_OFFSET ( 1, 0, .AHEAD. ) ;
#81 = AXIS2_PLACEMENT_3D ( 'NONE', #284, #263, #210 ) ;
#82 = APPLICATION_PROTOCOL_DEFINITION ( 'international standard', 'config_control_design', 1994, #116 ) ;
#83 = ORIENTED_EDGE ( 'NONE', *, *, #223, .F. ) ;
#84 = CALENDAR_DATE ( 2022, 20, 6 ) ;
#85 = CALENDAR_DATE ( 2022, 20, 6 ) ;
#86 = CC_DESIGN_DATE_AND_TIME_ASSIGNMENT ( #298, #251, ( #174 ) ) ;
#87 = VERTEX_POINT ( 'NONE', #8 ) ;
#88 = ORIENTED_EDGE ( 'NONE', *, *, #89, .F. ) ;
#89 = EDGE_CURVE ( 'NONE', #127, #306, #270, .T. ) ;
#90 = AXIS2_PLACEMENT_3D ( 'NONE', #231, #300, #249 ) ;
#91 = DIRECTION ( 'NONE',  ( 1.000000000000000000, 0.000000000000000000, 0.000000000000000000 ) ) ;
#92 = VECTOR ( 'NONE', #197, 1000.000000000000000 ) ;
#93 = AXIS2_PLACEMENT_3D ( 'NONE', #279, #277, #133 ) ;
#94 = VERTEX_POINT ( 'NONE', #35 ) ;
#95 = PRODUCT ( '6ec5', '6ec5', '', ( #131 ) ) ;
#96 = ORIENTED_EDGE ( 'NONE', *, *, #140, .T. ) ;
#97 = DIRECTION ( 'NONE',  ( -0.000000000000000000, -0.000000000000000000, -1.000000000000000000 ) ) ;
#98 = CYLINDRICAL_SURFACE ( 'NONE', #99, 2.750000000000000000 ) ;
#99 = AXIS2_PLACEMENT_3D ( 'NONE', #200, #24, #265 ) ;
#100 = EDGE_CURVE ( 'NONE', #267, #306, #181, .T. ) ;
#101 = PERSON_AND_ORGANIZATION ( #166, #221 ) ;
#102 = DIRECTION ( 'NONE',  ( -1.000000000000000000, 1.224646799147353207E-16, 0.000000000000000000 ) ) ;
#103 = CC_DESIGN_PERSON_AND_ORGANIZATION_ASSIGNMENT ( #137, #274, ( #95 ) ) ;
#104 = PERSON_AND_ORGANIZATION_ROLE ( 'creator' ) ;
#105 = CARTESIAN_POINT ( 'NONE',  ( 5.000000000000000000, 6.123233995736766282E-16, 0.000000000000000000 ) ) ;
#106 = CARTESIAN_POINT ( 'NONE',  ( 0.000000000000000000, 0.000000000000000000, 3.200000000000008171 ) ) ;
#107 = AXIS2_PLACEMENT_3D ( 'NONE', #170, #121, #241 ) ;
#108 = CC_DESIGN_APPROVAL ( #56, ( #195 ) ) ;
#109 = COORDINATED_UNIVERSAL_TIME_OFFSET ( 1, 0, .AHEAD. ) ;
#110 = ADVANCED_FACE ( 'NONE', ( #124 ), #307, .T. ) ;
#111 = EDGE_LOOP ( 'NONE', ( #39, #278, #177, #117 ) ) ;
#112 = CARTESIAN_POINT ( 'NONE',  ( 0.000000000000000000, 0.000000000000000000, 0.000000000000000000 ) ) ;
#113 = APPROVAL ( #59, 'NEURÈENÝ' ) ;
#114 = ORIENTED_EDGE ( 'NONE', *, *, #162, .T. ) ;
#115 = PERSON_AND_ORGANIZATION ( #166, #221 ) ;
#116 = APPLICATION_CONTEXT ( 'configuration controlled 3d designs of mechanical parts and assemblies' ) ;
#117 = ORIENTED_EDGE ( 'NONE', *, *, #214, .T. ) ;
#118 = LINE ( 'NONE', #142, #176 ) ;
#119 = PERSON_AND_ORGANIZATION_ROLE ( 'classification_officer' ) ;
#120 = VECTOR ( 'NONE', #27, 1000.000000000000000 ) ;
#121 = DIRECTION ( 'NONE',  ( -0.000000000000000000, -0.000000000000000000, -1.000000000000000000 ) ) ;
#122 = AXIS2_PLACEMENT_3D ( 'NONE', #207, #159, #227 ) ;
#123 = ORIENTED_EDGE ( 'NONE', *, *, #162, .F. ) ;
#124 = FACE_OUTER_BOUND ( 'NONE', #301, .T. ) ;
#125 = PLANE ( 'NONE',  #299 ) ;
#126 = LINE ( 'NONE', #153, #92 ) ;
#127 = VERTEX_POINT ( 'NONE', #192 ) ;
#128 = CYLINDRICAL_SURFACE ( 'NONE', #254, 5.000000000000000000 ) ;
#129 = PERSON_AND_ORGANIZATION_ROLE ( 'creator' ) ;
#130 = DIRECTION ( 'NONE',  ( 0.000000000000000000, 0.000000000000000000, 1.000000000000000000 ) ) ;
#131 = MECHANICAL_CONTEXT ( 'NONE', #116, 'mechanical' ) ;
#132 = DIRECTION ( 'NONE',  ( 0.000000000000000000, 0.000000000000000000, 1.000000000000000000 ) ) ;
#133 = DIRECTION ( 'NONE',  ( 1.000000000000000000, 0.000000000000000000, -0.000000000000000000 ) ) ;
#134 = DATE_AND_TIME ( #84, #60 ) ;
#135 = CARTESIAN_POINT ( 'NONE',  ( 0.000000000000000000, 0.000000000000000000, 203.0000000000000000 ) ) ;
#136 = VERTEX_POINT ( 'NONE', #68 ) ;
#137 = PERSON_AND_ORGANIZATION ( #166, #221 ) ;
#138 = EDGE_CURVE ( 'NONE', #66, #54, #202, .T. ) ;
#139 = ORIENTED_EDGE ( 'NONE', *, *, #223, .T. ) ;
#140 = EDGE_CURVE ( 'NONE', #54, #66, #15, .T. ) ;
#141 = LOCAL_TIME ( 12, 0, 5.000000000000000000, #34 ) ;
#142 = CARTESIAN_POINT ( 'NONE',  ( 5.000000000000000000, 6.123233995736766282E-16, 3.000000000000000000 ) ) ;
#143 = DIRECTION ( 'NONE',  ( -0.000000000000000000, -0.000000000000000000, -1.000000000000000000 ) ) ;
#144 = CARTESIAN_POINT ( 'NONE',  ( 0.000000000000000000, 0.000000000000000000, 0.000000000000000000 ) ) ;
#145 = AXIS2_PLACEMENT_3D ( 'NONE', #290, #53, #74 ) ;
#146 = ORIENTED_EDGE ( 'NONE', *, *, #71, .T. ) ;
#147 = CC_DESIGN_PERSON_AND_ORGANIZATION_ASSIGNMENT ( #235, #280, ( #195 ) ) ;
#148 = PRODUCT_DEFINITION_SHAPE ( 'NONE', 'NONE',  #174 ) ;
#149 = FACE_OUTER_BOUND ( 'NONE', #72, .T. ) ;
#150 = AXIS2_PLACEMENT_3D ( 'NONE', #61, #143, #189 ) ;
#151 = AXIS2_PLACEMENT_3D ( 'NONE', #46, #305, #91 ) ;
#152 = AXIS2_PLACEMENT_3D ( 'NONE', #106, #132, #228 ) ;
#153 = CARTESIAN_POINT ( 'NONE',  ( -5.000000000000000000, 0.000000000000000000, 3.000000000000000000 ) ) ;
#154 = CALENDAR_DATE ( 2022, 20, 6 ) ;
#155 =( LENGTH_UNIT ( ) NAMED_UNIT ( * ) SI_UNIT ( .MILLI., .METRE. ) );
#156 = EDGE_CURVE ( 'NONE', #136, #51, #213, .T. ) ;
#157 = CIRCLE ( 'NONE', #232, 5.000000000000000000 ) ;
#158 = APPROVAL_DATE_TIME ( #225, #113 ) ;
#159 = DIRECTION ( 'NONE',  ( 0.000000000000000000, 0.000000000000000000, 1.000000000000000000 ) ) ;
#160 = LOCAL_TIME ( 12, 0, 5.000000000000000000, #191 ) ;
#161 = CARTESIAN_POINT ( 'NONE',  ( 2.750000000000000000, 3.367778697655221012E-16, 3.200000000000008171 ) ) ;
#162 = EDGE_CURVE ( 'NONE', #87, #66, #118, .T. ) ;
#163 = FACE_OUTER_BOUND ( 'NONE', #178, .T. ) ;
#164 = EDGE_LOOP ( 'NONE', ( #275, #114, #186, #217 ) ) ;
#165 = CARTESIAN_POINT ( 'NONE',  ( 2.750000000000000000, 3.367778697655221012E-16, 203.0000000000000000 ) ) ;
#166 = PERSON ( 'NEURÈENÝ', 'NEURÈENÝ', 'NEURÈENÝ', ('NEURÈENÝ'), ('NEURÈENÝ'), ('NEURÈENÝ') ) ;
#167 = DATE_AND_TIME ( #85, #64 ) ;
#168 = DIRECTION ( 'NONE',  ( -0.000000000000000000, -0.000000000000000000, -1.000000000000000000 ) ) ;
#169 = COORDINATED_UNIVERSAL_TIME_OFFSET ( 1, 0, .AHEAD. ) ;
#170 = CARTESIAN_POINT ( 'NONE',  ( 0.000000000000000000, 0.000000000000000000, 3.000000000000000000 ) ) ;
#171 = EDGE_CURVE ( 'NONE', #87, #222, #220, .T. ) ;
#172 = SHAPE_DEFINITION_REPRESENTATION ( #148, #44 ) ;
#173 = CARTESIAN_POINT ( 'NONE',  ( 0.000000000000000000, 0.000000000000000000, 0.000000000000000000 ) ) ;
#174 = PRODUCT_DEFINITION ( 'NEZNÁMÝ', '', #195, #304 ) ;
#175 = ORIENTED_EDGE ( 'NONE', *, *, #238, .T. ) ;
#176 = VECTOR ( 'NONE', #19, 1000.000000000000000 ) ;
#177 = ORIENTED_EDGE ( 'NONE', *, *, #21, .T. ) ;
#178 = EDGE_LOOP ( 'NONE', ( #286, #49 ) ) ;
#179 = DIRECTION ( 'NONE',  ( -1.000000000000000000, 0.000000000000000000, 0.000000000000000000 ) ) ;
#180 = APPROVAL ( #262, 'NEURÈENÝ' ) ;
#181 = CIRCLE ( 'NONE', #150, 2.949999999999999734 ) ;
#182 = PERSON_AND_ORGANIZATION ( #166, #221 ) ;
#183 = CALENDAR_DATE ( 2022, 20, 6 ) ;
#184 = PLANE ( 'NONE',  #93 ) ;
#185 = DATE_TIME_ROLE ( 'classification_date' ) ;
#186 = ORIENTED_EDGE ( 'NONE', *, *, #138, .T. ) ;
#187 = ORIENTED_EDGE ( 'NONE', *, *, #214, .F. ) ;
#188 = DATE_AND_TIME ( #212, #160 ) ;
#189 = DIRECTION ( 'NONE',  ( 1.000000000000000000, 0.000000000000000000, 0.000000000000000000 ) ) ;
#190 = CARTESIAN_POINT ( 'NONE',  ( 0.000000000000000000, 0.000000000000000000, 3.200000000000008171 ) ) ;
#191 = COORDINATED_UNIVERSAL_TIME_OFFSET ( 1, 0, .AHEAD. ) ;
#192 = CARTESIAN_POINT ( 'NONE',  ( -2.750000000000000000, 0.000000000000000000, 3.200000000000008171 ) ) ;
#193 = DIRECTION ( 'NONE',  ( -1.000000000000000000, 0.000000000000000000, 0.000000000000000000 ) ) ;
#194 = FACE_OUTER_BOUND ( 'NONE', #196, .T. ) ;
#195 = PRODUCT_DEFINITION_FORMATION_WITH_SPECIFIED_SOURCE ( 'LIBOVOLNÝ', '', #95, .NOT_KNOWN. ) ;
#196 = EDGE_LOOP ( 'NONE', ( #88, #83, #175, #234 ) ) ;
#197 = DIRECTION ( 'NONE',  ( -0.000000000000000000, -0.000000000000000000, -1.000000000000000000 ) ) ;
#198 = ORIENTED_EDGE ( 'NONE', *, *, #89, .T. ) ;
#199 = APPROVAL_PERSON_ORGANIZATION ( #203, #113, #79 ) ;
#200 = CARTESIAN_POINT ( 'NONE',  ( 0.000000000000000000, 0.000000000000000000, 203.0000000000000000 ) ) ;
#201 = APPLICATION_PROTOCOL_DEFINITION ( 'international standard', 'config_control_design', 1994, #250 ) ;
#202 = CIRCLE ( 'NONE', #292, 5.000000000000000000 ) ;
#203 = PERSON_AND_ORGANIZATION ( #166, #221 ) ;
#204 = ADVANCED_FACE ( 'NONE', ( #303 ), #239, .T. ) ;
#205 = AXIS2_PLACEMENT_3D ( 'NONE', #256, #41, #233 ) ;
#206 = AXIS2_PLACEMENT_3D ( 'NONE', #252, #14, #208 ) ;
#207 = CARTESIAN_POINT ( 'NONE',  ( 0.000000000000000000, 0.000000000000000000, 3.000000000000000000 ) ) ;
#208 = DIRECTION ( 'NONE',  ( 1.000000000000000000, 0.000000000000000000, 0.000000000000000000 ) ) ;
#209 = CC_DESIGN_APPROVAL ( #113, ( #174 ) ) ;
#210 = DIRECTION ( 'NONE',  ( 1.000000000000000000, 0.000000000000000000, 0.000000000000000000 ) ) ;
#211 = ORIENTED_EDGE ( 'NONE', *, *, #171, .T. ) ;
#212 = CALENDAR_DATE ( 2022, 20, 6 ) ;
#213 = LINE ( 'NONE', #165, #17 ) ;
#214 = EDGE_CURVE ( 'NONE', #127, #51, #245, .T. ) ;
#215 = PERSON_AND_ORGANIZATION ( #166, #221 ) ;
#216 = APPROVAL_DATE_TIME ( #167, #180 ) ;
#217 = ORIENTED_EDGE ( 'NONE', *, *, #253, .F. ) ;
#218 = DIRECTION ( 'NONE',  ( -0.000000000000000000, -0.000000000000000000, -1.000000000000000000 ) ) ;
#219 = CARTESIAN_POINT ( 'NONE',  ( 0.000000000000000000, 0.000000000000000000, 3.000000000000000000 ) ) ;
#220 = CIRCLE ( 'NONE', #81, 5.000000000000000000 ) ;
#221 = ORGANIZATION ( 'NEURÈENÝ', 'NEURÈENÝ', '' ) ;
#222 = VERTEX_POINT ( 'NONE', #48 ) ;
#223 = EDGE_CURVE ( 'NONE', #51, #127, #9, .T. ) ;
#224 = FACE_BOUND ( 'NONE', #257, .T. ) ;
#225 = DATE_AND_TIME ( #154, #141 ) ;
#226 = DIRECTION ( 'NONE',  ( 1.224646799147353207E-16, 1.000000000000000000, -0.000000000000000000 ) ) ;
#227 = DIRECTION ( 'NONE',  ( 1.000000000000000000, 0.000000000000000000, -0.000000000000000000 ) ) ;
#228 = DIRECTION ( 'NONE',  ( 1.000000000000000000, 0.000000000000000000, 0.000000000000000000 ) ) ;
#229 = ORIENTED_EDGE ( 'NONE', *, *, #100, .T. ) ;
#230 = PLANE ( 'NONE',  #122 ) ;
#231 = CARTESIAN_POINT ( 'NONE',  ( 0.000000000000000000, 0.000000000000000000, 3.200000000000008171 ) ) ;
#232 = AXIS2_PLACEMENT_3D ( 'NONE', #33, #130, #293 ) ;
#233 = DIRECTION ( 'NONE',  ( 0.000000000000000000, 0.000000000000000000, -1.000000000000000000 ) ) ;
#234 = ORIENTED_EDGE ( 'NONE', *, *, #282, .F. ) ;
#235 = PERSON_AND_ORGANIZATION ( #166, #221 ) ;
#236 = AXIS2_PLACEMENT_3D ( 'NONE', #112, #271, #276 ) ;
#237 = DIRECTION ( 'NONE',  ( 0.000000000000000000, 0.000000000000000000, 1.000000000000000000 ) ) ;
#238 = EDGE_CURVE ( 'NONE', #51, #267, #18, .T. ) ;
#239 = CYLINDRICAL_SURFACE ( 'NONE', #107, 5.000000000000000000 ) ;
#240 = MANIFOLD_SOLID_BREP ( 'Zaoblit1', #76 ) ;
#241 = DIRECTION ( 'NONE',  ( -1.000000000000000000, 0.000000000000000000, 0.000000000000000000 ) ) ;
#242 = DIRECTION ( 'NONE',  ( 0.000000000000000000, 0.000000000000000000, 1.000000000000000000 ) ) ;
#243 = CC_DESIGN_SECURITY_CLASSIFICATION ( #281, ( #195 ) ) ;
#244 = CARTESIAN_POINT ( 'NONE',  ( 0.000000000000000000, 0.000000000000000000, 3.000000000000000000 ) ) ;
#245 = CIRCLE ( 'NONE', #151, 2.750000000000000000 ) ;
#246 = CIRCLE ( 'NONE', #145, 2.750000000000000000 ) ;
#247 = CARTESIAN_POINT ( 'NONE',  ( 2.949999999999999734, 0.000000000000000000, 3.000000000000004441 ) ) ;
#248 = PERSON_AND_ORGANIZATION ( #166, #221 ) ;
#249 = DIRECTION ( 'NONE',  ( 1.000000000000000000, 0.000000000000000000, 0.000000000000000000 ) ) ;
#250 = APPLICATION_CONTEXT ( 'configuration controlled 3d designs of mechanical parts and assemblies' ) ;
#251 = DATE_TIME_ROLE ( 'creation_date' ) ;
#252 = CARTESIAN_POINT ( 'NONE',  ( 0.000000000000000000, 0.000000000000000000, 203.0000000000000000 ) ) ;
#253 = EDGE_CURVE ( 'NONE', #222, #54, #126, .T. ) ;
#254 = AXIS2_PLACEMENT_3D ( 'NONE', #219, #97, #179 ) ;
#255 = ORIENTED_EDGE ( 'NONE', *, *, #100, .F. ) ;
#256 = CARTESIAN_POINT ( 'NONE',  ( 2.949999999999999734, 0.000000000000000000, 3.200000000000008171 ) ) ;
#257 = EDGE_LOOP ( 'NONE', ( #229, #26 ) ) ;
#258 = EDGE_CURVE ( 'NONE', #94, #136, #246, .T. ) ;
#259 = DIRECTION ( 'NONE',  ( -0.000000000000000000, -0.000000000000000000, -1.000000000000000000 ) ) ;
#260 = DIRECTION ( 'NONE',  ( 1.000000000000000000, 0.000000000000000000, 0.000000000000000000 ) ) ;
#261 = DIRECTION ( 'NONE',  ( 1.000000000000000000, 0.000000000000000000, -0.000000000000000000 ) ) ;
#262 = APPROVAL_STATUS ( 'not_yet_approved' ) ;
#263 = DIRECTION ( 'NONE',  ( 0.000000000000000000, 0.000000000000000000, 1.000000000000000000 ) ) ;
#264 = ORIENTED_EDGE ( 'NONE', *, *, #21, .F. ) ;
#265 = DIRECTION ( 'NONE',  ( -1.000000000000000000, 0.000000000000000000, 0.000000000000000000 ) ) ;
#266 = EDGE_LOOP ( 'NONE', ( #123, #16, #42, #96 ) ) ;
#267 = VERTEX_POINT ( 'NONE', #247 ) ;
#268 = ADVANCED_FACE ( 'NONE', ( #77 ), #128, .T. ) ;
#269 = ADVANCED_FACE ( 'NONE', ( #5 ), #98, .T. ) ;
#270 = CIRCLE ( 'NONE', #57, 0.2000000000000000944 ) ;
#271 = DIRECTION ( 'NONE',  ( 0.000000000000000000, 0.000000000000000000, 1.000000000000000000 ) ) ;
#272 = CARTESIAN_POINT ( 'NONE',  ( -2.949999999999999734, 3.612708057484692097E-16, 3.200000000000008171 ) ) ;
#273 = APPROVAL_ROLE ( '' ) ;
#274 = PERSON_AND_ORGANIZATION_ROLE ( 'design_owner' ) ;
#275 = ORIENTED_EDGE ( 'NONE', *, *, #171, .F. ) ;
#276 = DIRECTION ( 'NONE',  ( 1.000000000000000000, 0.000000000000000000, 0.000000000000000000 ) ) ;
#277 = DIRECTION ( 'NONE',  ( 0.000000000000000000, 0.000000000000000000, 1.000000000000000000 ) ) ;
#278 = ORIENTED_EDGE ( 'NONE', *, *, #258, .F. ) ;
#279 = CARTESIAN_POINT ( 'NONE',  ( 0.000000000000000000, 0.000000000000000000, 0.000000000000000000 ) ) ;
#280 = PERSON_AND_ORGANIZATION_ROLE ( 'design_supplier' ) ;
#281 = SECURITY_CLASSIFICATION ( '', '', #67 ) ;
#282 = EDGE_CURVE ( 'NONE', #306, #267, #6, .T. ) ;
#283 = TOROIDAL_SURFACE ( 'NONE', #90, 2.949999999999999734, 0.2000000000000000111 ) ;
#284 = CARTESIAN_POINT ( 'NONE',  ( 0.000000000000000000, 0.000000000000000000, 3.000000000000000000 ) ) ;
#285 = CC_DESIGN_DATE_AND_TIME_ASSIGNMENT ( #188, #185, ( #281 ) ) ;
#286 = ORIENTED_EDGE ( 'NONE', *, *, #140, .F. ) ;
#287 = AXIS2_PLACEMENT_3D ( 'NONE', #190, #242, #70 ) ;
#288 = ADVANCED_FACE ( 'NONE', ( #194 ), #294, .F. ) ;
#289 = CIRCLE ( 'NONE', #206, 2.750000000000000000 ) ;
#290 = CARTESIAN_POINT ( 'NONE',  ( 0.000000000000000000, 0.000000000000000000, 203.0000000000000000 ) ) ;
#291 = AXIS2_PLACEMENT_3D ( 'NONE', #144, #237, #45 ) ;
#292 = AXIS2_PLACEMENT_3D ( 'NONE', #173, #65, #260 ) ;
#293 = DIRECTION ( 'NONE',  ( 1.000000000000000000, 0.000000000000000000, 0.000000000000000000 ) ) ;
#294 = TOROIDAL_SURFACE ( 'NONE', #152, 2.949999999999999734, 0.2000000000000000111 ) ;
#295 = CARTESIAN_POINT ( 'NONE',  ( -2.949999999999999734, 3.612708057484692097E-16, 3.000000000000004441 ) ) ;
#296 = ADVANCED_FACE ( 'NONE', ( #224, #32 ), #230, .T. ) ;
#297 = CARTESIAN_POINT ( 'NONE',  ( -5.000000000000000000, 0.000000000000000000, 0.000000000000000000 ) ) ;
#298 = DATE_AND_TIME ( #183, #50 ) ;
#299 = AXIS2_PLACEMENT_3D ( 'NONE', #135, #11, #261 ) ;
#300 = DIRECTION ( 'NONE',  ( 0.000000000000000000, 0.000000000000000000, 1.000000000000000000 ) ) ;
#301 = EDGE_LOOP ( 'NONE', ( #12, #1, #139, #264 ) ) ;
#302 = ORIENTED_EDGE ( 'NONE', *, *, #62, .T. ) ;
#303 = FACE_OUTER_BOUND ( 'NONE', #266, .T. ) ;
#304 = DESIGN_CONTEXT ( 'detailed design', #250, 'design' ) ;
#305 = DIRECTION ( 'NONE',  ( 0.000000000000000000, 0.000000000000000000, 1.000000000000000000 ) ) ;
#306 = VERTEX_POINT ( 'NONE', #295 ) ;
#307 = CYLINDRICAL_SURFACE ( 'NONE', #20, 2.750000000000000000 ) ;
ENDSEC;
END-ISO-10303-21;
