ISO-10303-21;
HEADER;
FILE_DESCRIPTION (( 'STEP AP203' ),
    '1' );
FILE_NAME ('6c60.STEP',
    '2022-06-20T10:28:09',
    ( '' ),
    ( '' ),
    'SwSTEP 2.0',
    'SolidWorks 2019',
    '' );
FILE_SCHEMA (( 'CONFIG_CONTROL_DESIGN' ));
ENDSEC;

DATA;
#1 = EDGE_LOOP ( 'NONE', ( #106, #25 ) ) ;
#2 = CARTESIAN_POINT ( 'NONE',  ( -0.6999999999999999556, 8.572527594031473190E-17, 1.199999999999999289 ) ) ;
#3 = AXIS2_PLACEMENT_3D ( 'NONE', #77, #79, #166 ) ;
#4 = ORIENTED_EDGE ( 'NONE', *, *, #180, .F. ) ;
#5 = LINE ( 'NONE', #83, #110 ) ;
#6 = AXIS2_PLACEMENT_3D ( 'NONE', #135, #247, #275 ) ;
#7 = TOROIDAL_SURFACE ( 'NONE', #47, 0.6999999999999999556, 0.2000000000000000111 ) ;
#8 = CARTESIAN_POINT ( 'NONE',  ( 0.000000000000000000, 0.000000000000000000, 1.399999999999998579 ) ) ;
#9 = DIRECTION ( 'NONE',  ( -0.000000000000000000, -0.000000000000000000, -1.000000000000000000 ) ) ;
#10 = MECHANICAL_CONTEXT ( 'NONE', #204, 'mechanical' ) ;
#11 = FACE_OUTER_BOUND ( 'NONE', #78, .T. ) ;
#12 = EDGE_CURVE ( 'NONE', #127, #277, #249, .T. ) ;
#13 = AXIS2_PLACEMENT_3D ( 'NONE', #262, #292, #240 ) ;
#14 = PERSON_AND_ORGANIZATION ( #42, #20 ) ;
#15 = ORIENTED_EDGE ( 'NONE', *, *, #21, .F. ) ;
#16 = DIRECTION ( 'NONE',  ( 0.000000000000000000, 0.000000000000000000, 1.000000000000000000 ) ) ;
#17 = CARTESIAN_POINT ( 'NONE',  ( 0.000000000000000000, 0.000000000000000000, 101.2000000000000171 ) ) ;
#18 = PERSON_AND_ORGANIZATION ( #42, #20 ) ;
#19 = CARTESIAN_POINT ( 'NONE',  ( -1.250000000000000000, 0.000000000000000000, 1.199999999999999956 ) ) ;
#20 = ORGANIZATION ( 'NEURÈENÝ', 'NEURÈENÝ', '' ) ;
#21 = EDGE_CURVE ( 'NONE', #299, #213, #62, .T. ) ;
#22 = APPROVAL_STATUS ( 'not_yet_approved' ) ;
#23 = DIRECTION ( 'NONE',  ( 0.000000000000000000, -1.000000000000000000, 0.000000000000000000 ) ) ;
#24 = DATE_AND_TIME ( #90, #94 ) ;
#25 = ORIENTED_EDGE ( 'NONE', *, *, #88, .T. ) ;
#26 = PRODUCT_RELATED_PRODUCT_CATEGORY ( 'detail', '', ( #149 ) ) ;
#27 = DIRECTION ( 'NONE',  ( 1.000000000000000000, 0.000000000000000000, 0.000000000000000000 ) ) ;
#28 = ORIENTED_EDGE ( 'NONE', *, *, #75, .T. ) ;
#29 = MANIFOLD_SOLID_BREP ( 'Zaoblit1', #205 ) ;
#30 = VECTOR ( 'NONE', #253, 1000.000000000000000 ) ;
#31 = CIRCLE ( 'NONE', #199, 0.2000000000000000944 ) ;
#32 = ORIENTED_EDGE ( 'NONE', *, *, #107, .F. ) ;
#33 = ORIENTED_EDGE ( 'NONE', *, *, #12, .F. ) ;
#34 = ADVANCED_FACE ( 'NONE', ( #133 ), #224, .T. ) ;
#35 = CARTESIAN_POINT ( 'NONE',  ( 1.250000000000000000, 1.530808498934191571E-16, 1.199999999999999956 ) ) ;
#36 = VERTEX_POINT ( 'NONE', #111 ) ;
#37 = CC_DESIGN_APPROVAL ( #302, ( #293 ) ) ;
#38 = CARTESIAN_POINT ( 'NONE',  ( 0.000000000000000000, 0.000000000000000000, 1.199999999999999956 ) ) ;
#39 = DIRECTION ( 'NONE',  ( 1.000000000000000000, 0.000000000000000000, 0.000000000000000000 ) ) ;
#40 = ORIENTED_EDGE ( 'NONE', *, *, #208, .F. ) ;
#41 = CARTESIAN_POINT ( 'NONE',  ( 0.5000000000000000000, 6.123233995736766036E-17, 101.2000000000000171 ) ) ;
#42 = PERSON ( 'NEURÈENÝ', 'NEURÈENÝ', 'NEURÈENÝ', ('NEURÈENÝ'), ('NEURÈENÝ'), ('NEURÈENÝ') ) ;
#43 = PERSON_AND_ORGANIZATION ( #42, #20 ) ;
#44 = DIRECTION ( 'NONE',  ( -1.000000000000000000, 1.224646799147352714E-16, 0.000000000000000000 ) ) ;
#45 = APPROVAL_DATE_TIME ( #142, #302 ) ;
#46 = SECURITY_CLASSIFICATION_LEVEL ( 'unclassified' ) ;
#47 = AXIS2_PLACEMENT_3D ( 'NONE', #150, #16, #198 ) ;
#48 = DIRECTION ( 'NONE',  ( -0.000000000000000000, -0.000000000000000000, -1.000000000000000000 ) ) ;
#49 = CC_DESIGN_PERSON_AND_ORGANIZATION_ASSIGNMENT ( #72, #50, ( #293 ) ) ;
#50 = PERSON_AND_ORGANIZATION_ROLE ( 'design_supplier' ) ;
#51 = DIRECTION ( 'NONE',  ( 1.000000000000000000, 0.000000000000000000, 0.000000000000000000 ) ) ;
#52 = ADVANCED_FACE ( 'NONE', ( #245 ), #267, .T. ) ;
#53 = DATE_AND_TIME ( #181, #265 ) ;
#54 = CARTESIAN_POINT ( 'NONE',  ( 0.000000000000000000, 0.000000000000000000, 101.2000000000000171 ) ) ;
#55 = VERTEX_POINT ( 'NONE', #160 ) ;
#56 = AXIS2_PLACEMENT_3D ( 'NONE', #196, #259, #27 ) ;
#57 = ORIENTED_EDGE ( 'NONE', *, *, #154, .T. ) ;
#58 = ORIENTED_EDGE ( 'NONE', *, *, #180, .T. ) ;
#59 = DIRECTION ( 'NONE',  ( -0.000000000000000000, -0.000000000000000000, -1.000000000000000000 ) ) ;
#60 = ADVANCED_FACE ( 'NONE', ( #231, #121 ), #209, .T. ) ;
#61 = EDGE_LOOP ( 'NONE', ( #236, #153, #32, #295 ) ) ;
#62 = CIRCLE ( 'NONE', #243, 0.5000000000000000000 ) ;
#63 = AXIS2_PLACEMENT_3D ( 'NONE', #220, #112, #274 ) ;
#64 = FACE_OUTER_BOUND ( 'NONE', #1, .T. ) ;
#65 = CC_DESIGN_DATE_AND_TIME_ASSIGNMENT ( #188, #124, ( #241 ) ) ;
#66 = AXIS2_PLACEMENT_3D ( 'NONE', #54, #257, #305 ) ;
#67 = LOCAL_TIME ( 12, 28, 9.000000000000000000, #122 ) ;
#68 = CARTESIAN_POINT ( 'NONE',  ( 0.000000000000000000, 0.000000000000000000, 0.000000000000000000 ) ) ;
#69 = DIRECTION ( 'NONE',  ( 1.000000000000000000, 0.000000000000000000, 0.000000000000000000 ) ) ;
#70 = EDGE_CURVE ( 'NONE', #36, #169, #288, .T. ) ;
#71 = CARTESIAN_POINT ( 'NONE',  ( 0.000000000000000000, 0.000000000000000000, 1.199999999999999956 ) ) ;
#72 = PERSON_AND_ORGANIZATION ( #42, #20 ) ;
#73 = CIRCLE ( 'NONE', #272, 0.5000000000000000000 ) ;
#74 = CARTESIAN_POINT ( 'NONE',  ( -0.6999999999999999556, 8.572527594031471957E-17, 1.399999999999998579 ) ) ;
#75 = EDGE_CURVE ( 'NONE', #213, #55, #189, .T. ) ;
#76 = COORDINATED_UNIVERSAL_TIME_OFFSET ( 1, 0, .AHEAD. ) ;
#77 = CARTESIAN_POINT ( 'NONE',  ( 0.000000000000000000, 0.000000000000000000, 1.199999999999999956 ) ) ;
#78 = EDGE_LOOP ( 'NONE', ( #255, #40, #57, #201 ) ) ;
#79 = DIRECTION ( 'NONE',  ( -0.000000000000000000, -0.000000000000000000, -1.000000000000000000 ) ) ;
#80 = AXIS2_PLACEMENT_3D ( 'NONE', #17, #9, #203 ) ;
#81 = CIRCLE ( 'NONE', #99, 1.250000000000000000 ) ;
#82 = ORIENTED_EDGE ( 'NONE', *, *, #88, .F. ) ;
#83 = CARTESIAN_POINT ( 'NONE',  ( -0.5000000000000000000, 0.000000000000000000, 101.2000000000000171 ) ) ;
#84 = ORIENTED_EDGE ( 'NONE', *, *, #12, .T. ) ;
#85 = DIRECTION ( 'NONE',  ( 1.000000000000000000, 0.000000000000000000, -0.000000000000000000 ) ) ;
#86 = AXIS2_PLACEMENT_3D ( 'NONE', #104, #237, #85 ) ;
#87 =( LENGTH_UNIT ( ) NAMED_UNIT ( * ) SI_UNIT ( .MILLI., .METRE. ) );
#88 = EDGE_CURVE ( 'NONE', #213, #299, #268, .T. ) ;
#89 = AXIS2_PLACEMENT_3D ( 'NONE', #71, #182, #252 ) ;
#90 = CALENDAR_DATE ( 2022, 20, 6 ) ;
#91 = CC_DESIGN_PERSON_AND_ORGANIZATION_ASSIGNMENT ( #165, #163, ( #217 ) ) ;
#92 = ORIENTED_EDGE ( 'NONE', *, *, #75, .F. ) ;
#93 = APPROVAL_ROLE ( '' ) ;
#94 = LOCAL_TIME ( 12, 28, 9.000000000000000000, #298 ) ;
#95 = ORIENTED_EDGE ( 'NONE', *, *, #107, .T. ) ;
#96 = CALENDAR_DATE ( 2022, 20, 6 ) ;
#97 = CARTESIAN_POINT ( 'NONE',  ( 0.000000000000000000, 0.000000000000000000, 0.000000000000000000 ) ) ;
#98 = APPROVAL_DATE_TIME ( #24, #119 ) ;
#99 = AXIS2_PLACEMENT_3D ( 'NONE', #227, #164, #51 ) ;
#100 = ORIENTED_EDGE ( 'NONE', *, *, #109, .T. ) ;
#101 = ADVANCED_BREP_SHAPE_REPRESENTATION ( '6c60', ( #29, #179 ), #289 ) ;
#102 = ORIENTED_EDGE ( 'NONE', *, *, #276, .T. ) ;
#103 = VERTEX_POINT ( 'NONE', #286 ) ;
#104 = CARTESIAN_POINT ( 'NONE',  ( 0.000000000000000000, 0.000000000000000000, 0.000000000000000000 ) ) ;
#105 = VECTOR ( 'NONE', #126, 1000.000000000000000 ) ;
#106 = ORIENTED_EDGE ( 'NONE', *, *, #21, .T. ) ;
#107 = EDGE_CURVE ( 'NONE', #248, #176, #228, .T. ) ;
#108 = DIRECTION ( 'NONE',  ( 1.000000000000000000, 0.000000000000000000, 0.000000000000000000 ) ) ;
#109 = EDGE_CURVE ( 'NONE', #176, #248, #185, .T. ) ;
#110 = VECTOR ( 'NONE', #59, 1000.000000000000000 ) ;
#111 = CARTESIAN_POINT ( 'NONE',  ( -1.250000000000000000, 0.000000000000000000, 0.000000000000000000 ) ) ;
#112 = DIRECTION ( 'NONE',  ( -0.000000000000000000, -0.000000000000000000, -1.000000000000000000 ) ) ;
#113 = DIRECTION ( 'NONE',  ( 1.000000000000000000, 0.000000000000000000, 0.000000000000000000 ) ) ;
#114 = EDGE_CURVE ( 'NONE', #127, #36, #229, .T. ) ;
#115 = APPROVAL_STATUS ( 'not_yet_approved' ) ;
#116 = CARTESIAN_POINT ( 'NONE',  ( -0.5000000000000000000, 0.000000000000000000, 101.2000000000000171 ) ) ;
#117 = EDGE_CURVE ( 'NONE', #277, #169, #120, .T. ) ;
#118 = APPROVAL_DATE_TIME ( #211, #192 ) ;
#119 = APPROVAL ( #115, 'NEURÈENÝ' ) ;
#120 = LINE ( 'NONE', #141, #105 ) ;
#121 = FACE_OUTER_BOUND ( 'NONE', #263, .T. ) ;
#122 = COORDINATED_UNIVERSAL_TIME_OFFSET ( 1, 0, .AHEAD. ) ;
#123 = EDGE_LOOP ( 'NONE', ( #92, #15, #58, #266 ) ) ;
#124 = DATE_TIME_ROLE ( 'creation_date' ) ;
#125 = TOROIDAL_SURFACE ( 'NONE', #278, 0.6999999999999999556, 0.2000000000000000111 ) ;
#126 = DIRECTION ( 'NONE',  ( -0.000000000000000000, -0.000000000000000000, -1.000000000000000000 ) ) ;
#127 = VERTEX_POINT ( 'NONE', #307 ) ;
#128 = EDGE_CURVE ( 'NONE', #103, #176, #187, .T. ) ;
#129 = FACE_OUTER_BOUND ( 'NONE', #159, .T. ) ;
#130 = ORIENTED_EDGE ( 'NONE', *, *, #146, .T. ) ;
#131 = CC_DESIGN_PERSON_AND_ORGANIZATION_ASSIGNMENT ( #136, #273, ( #149 ) ) ;
#132 = CARTESIAN_POINT ( 'NONE',  ( 1.250000000000000000, 1.530808498934191571E-16, 0.000000000000000000 ) ) ;
#133 = FACE_OUTER_BOUND ( 'NONE', #123, .T. ) ;
#134 = CC_DESIGN_APPROVAL ( #192, ( #217 ) ) ;
#135 = CARTESIAN_POINT ( 'NONE',  ( 0.000000000000000000, 0.000000000000000000, 1.199999999999999956 ) ) ;
#136 = PERSON_AND_ORGANIZATION ( #42, #20 ) ;
#137 = CC_DESIGN_SECURITY_CLASSIFICATION ( #217, ( #293 ) ) ;
#138 = CARTESIAN_POINT ( 'NONE',  ( 0.000000000000000000, 0.000000000000000000, 101.2000000000000171 ) ) ;
#139 = UNCERTAINTY_MEASURE_WITH_UNIT (LENGTH_MEASURE( 1.000000000000000082E-05 ), #87, 'distance_accuracy_value', 'NONE');
#140 = AXIS2_PLACEMENT_3D ( 'NONE', #235, #162, #145 ) ;
#141 = CARTESIAN_POINT ( 'NONE',  ( 1.250000000000000000, 1.530808498934191571E-16, 1.199999999999999956 ) ) ;
#142 = DATE_AND_TIME ( #283, #238 ) ;
#143 = CARTESIAN_POINT ( 'NONE',  ( 0.6999999999999999556, 0.000000000000000000, 1.399999999999998579 ) ) ;
#144 = CC_DESIGN_PERSON_AND_ORGANIZATION_ASSIGNMENT ( #43, #301, ( #293 ) ) ;
#145 = DIRECTION ( 'NONE',  ( 1.000000000000000000, 0.000000000000000000, 0.000000000000000000 ) ) ;
#146 = EDGE_CURVE ( 'NONE', #277, #127, #81, .T. ) ;
#147 = DIRECTION ( 'NONE',  ( 0.000000000000000000, 0.000000000000000000, -1.000000000000000000 ) ) ;
#148 = DIRECTION ( 'NONE',  ( 0.000000000000000000, 0.000000000000000000, 1.000000000000000000 ) ) ;
#149 = PRODUCT ( '6c60', '6c60', '', ( #10 ) ) ;
#150 = CARTESIAN_POINT ( 'NONE',  ( 0.000000000000000000, 0.000000000000000000, 1.399999999999998579 ) ) ;
#151 = LOCAL_TIME ( 12, 28, 9.000000000000000000, #304 ) ;
#152 = APPLICATION_PROTOCOL_DEFINITION ( 'international standard', 'config_control_design', 1994, #204 ) ;
#153 = ORIENTED_EDGE ( 'NONE', *, *, #128, .T. ) ;
#154 = EDGE_CURVE ( 'NONE', #55, #248, #31, .T. ) ;
#155 = FACE_OUTER_BOUND ( 'NONE', #279, .T. ) ;
#156 = CARTESIAN_POINT ( 'NONE',  ( 0.000000000000000000, 0.000000000000000000, 101.2000000000000171 ) ) ;
#157 = APPLICATION_CONTEXT ( 'configuration controlled 3d designs of mechanical parts and assemblies' ) ;
#158 = ORIENTED_EDGE ( 'NONE', *, *, #117, .T. ) ;
#159 = EDGE_LOOP ( 'NONE', ( #82, #28, #297, #4 ) ) ;
#160 = CARTESIAN_POINT ( 'NONE',  ( 0.5000000000000000000, 6.123233995736766036E-17, 1.399999999999998579 ) ) ;
#161 = ADVANCED_FACE ( 'NONE', ( #129 ), #195, .T. ) ;
#162 = DIRECTION ( 'NONE',  ( -0.000000000000000000, -0.000000000000000000, -1.000000000000000000 ) ) ;
#163 = PERSON_AND_ORGANIZATION_ROLE ( 'classification_officer' ) ;
#164 = DIRECTION ( 'NONE',  ( 0.000000000000000000, 0.000000000000000000, 1.000000000000000000 ) ) ;
#165 = PERSON_AND_ORGANIZATION ( #42, #20 ) ;
#166 = DIRECTION ( 'NONE',  ( 1.000000000000000000, 0.000000000000000000, 0.000000000000000000 ) ) ;
#167 = ORIENTED_EDGE ( 'NONE', *, *, #146, .F. ) ;
#168 = AXIS2_PLACEMENT_3D ( 'NONE', #74, #251, #44 ) ;
#169 = VERTEX_POINT ( 'NONE', #132 ) ;
#170 = DIRECTION ( 'NONE',  ( 0.000000000000000000, 0.000000000000000000, 1.000000000000000000 ) ) ;
#171 =( NAMED_UNIT ( * ) SI_UNIT ( $, .STERADIAN. ) SOLID_ANGLE_UNIT ( ) );
#172 = ORIENTED_EDGE ( 'NONE', *, *, #114, .F. ) ;
#173 = VECTOR ( 'NONE', #48, 1000.000000000000000 ) ;
#174 = AXIS2_PLACEMENT_3D ( 'NONE', #138, #148, #242 ) ;
#175 = CARTESIAN_POINT ( 'NONE',  ( 0.6999999999999999556, 0.000000000000000000, 1.199999999999999289 ) ) ;
#176 = VERTEX_POINT ( 'NONE', #2 ) ;
#177 = ORIENTED_EDGE ( 'NONE', *, *, #70, .T. ) ;
#178 = AXIS2_PLACEMENT_3D ( 'NONE', #38, #186, #207 ) ;
#179 = AXIS2_PLACEMENT_3D ( 'NONE', #68, #246, #39 ) ;
#180 = EDGE_CURVE ( 'NONE', #299, #103, #5, .T. ) ;
#181 = CALENDAR_DATE ( 2022, 20, 6 ) ;
#182 = DIRECTION ( 'NONE',  ( 0.000000000000000000, 0.000000000000000000, 1.000000000000000000 ) ) ;
#183 = PERSON_AND_ORGANIZATION ( #42, #20 ) ;
#184 = ADVANCED_FACE ( 'NONE', ( #193 ), #215, .F. ) ;
#185 = CIRCLE ( 'NONE', #3, 0.6999999999999999556 ) ;
#186 = DIRECTION ( 'NONE',  ( -0.000000000000000000, -0.000000000000000000, -1.000000000000000000 ) ) ;
#187 = CIRCLE ( 'NONE', #168, 0.1999999999999999833 ) ;
#188 = DATE_AND_TIME ( #96, #151 ) ;
#189 = LINE ( 'NONE', #303, #30 ) ;
#190 = ORIENTED_EDGE ( 'NONE', *, *, #276, .F. ) ;
#191 = DIRECTION ( 'NONE',  ( 1.000000000000000000, 0.000000000000000000, 0.000000000000000000 ) ) ;
#192 = APPROVAL ( #22, 'NEURÈENÝ' ) ;
#193 = FACE_OUTER_BOUND ( 'NONE', #258, .T. ) ;
#194 = APPROVAL_PERSON_ORGANIZATION ( #183, #302, #256 ) ;
#195 = CYLINDRICAL_SURFACE ( 'NONE', #13, 0.5000000000000000000 ) ;
#196 = CARTESIAN_POINT ( 'NONE',  ( 0.000000000000000000, 0.000000000000000000, 1.399999999999998579 ) ) ;
#197 = FACE_OUTER_BOUND ( 'NONE', #61, .T. ) ;
#198 = DIRECTION ( 'NONE',  ( 1.000000000000000000, 0.000000000000000000, 0.000000000000000000 ) ) ;
#199 = AXIS2_PLACEMENT_3D ( 'NONE', #143, #23, #147 ) ;
#200 = APPROVAL_ROLE ( '' ) ;
#201 = ORIENTED_EDGE ( 'NONE', *, *, #109, .F. ) ;
#202 = CYLINDRICAL_SURFACE ( 'NONE', #63, 1.250000000000000000 ) ;
#203 = DIRECTION ( 'NONE',  ( -1.000000000000000000, 0.000000000000000000, 0.000000000000000000 ) ) ;
#204 = APPLICATION_CONTEXT ( 'configuration controlled 3d designs of mechanical parts and assemblies' ) ;
#205 = CLOSED_SHELL ( 'NONE', ( #271, #161, #52, #226, #60, #184, #34, #264, #287 ) ) ;
#206 = DATE_TIME_ROLE ( 'classification_date' ) ;
#207 = DIRECTION ( 'NONE',  ( -1.000000000000000000, 0.000000000000000000, 0.000000000000000000 ) ) ;
#208 = EDGE_CURVE ( 'NONE', #55, #103, #73, .T. ) ;
#209 = PLANE ( 'NONE',  #89 ) ;
#210 = PERSON_AND_ORGANIZATION_ROLE ( 'creator' ) ;
#211 = DATE_AND_TIME ( #232, #67 ) ;
#212 = EDGE_CURVE ( 'NONE', #103, #55, #230, .T. ) ;
#213 = VERTEX_POINT ( 'NONE', #41 ) ;
#214 = CARTESIAN_POINT ( 'NONE',  ( 0.000000000000000000, 0.000000000000000000, 1.399999999999998579 ) ) ;
#215 = PLANE ( 'NONE',  #86 ) ;
#216 = ORIENTED_EDGE ( 'NONE', *, *, #114, .T. ) ;
#217 = SECURITY_CLASSIFICATION ( '', '', #46 ) ;
#218 = CARTESIAN_POINT ( 'NONE',  ( 0.000000000000000000, 0.000000000000000000, 0.000000000000000000 ) ) ;
#219 = DIRECTION ( 'NONE',  ( 0.000000000000000000, 0.000000000000000000, 1.000000000000000000 ) ) ;
#220 = CARTESIAN_POINT ( 'NONE',  ( 0.000000000000000000, 0.000000000000000000, 1.199999999999999956 ) ) ;
#221 = APPLICATION_PROTOCOL_DEFINITION ( 'international standard', 'config_control_design', 1994, #157 ) ;
#222 = CC_DESIGN_APPROVAL ( #119, ( #241 ) ) ;
#223 = DIRECTION ( 'NONE',  ( 0.000000000000000000, 0.000000000000000000, 1.000000000000000000 ) ) ;
#224 = CYLINDRICAL_SURFACE ( 'NONE', #80, 0.5000000000000000000 ) ;
#225 = APPROVAL_STATUS ( 'not_yet_approved' ) ;
#226 = ADVANCED_FACE ( 'NONE', ( #155 ), #202, .T. ) ;
#227 = CARTESIAN_POINT ( 'NONE',  ( 0.000000000000000000, 0.000000000000000000, 1.199999999999999956 ) ) ;
#228 = CIRCLE ( 'NONE', #140, 0.6999999999999999556 ) ;
#229 = LINE ( 'NONE', #19, #173 ) ;
#230 = CIRCLE ( 'NONE', #56, 0.5000000000000000000 ) ;
#231 = FACE_BOUND ( 'NONE', #300, .T. ) ;
#232 = CALENDAR_DATE ( 2022, 20, 6 ) ;
#233 = DIRECTION ( 'NONE',  ( 0.000000000000000000, 0.000000000000000000, 1.000000000000000000 ) ) ;
#234 = AXIS2_PLACEMENT_3D ( 'NONE', #97, #233, #191 ) ;
#235 = CARTESIAN_POINT ( 'NONE',  ( 0.000000000000000000, 0.000000000000000000, 1.199999999999999956 ) ) ;
#236 = ORIENTED_EDGE ( 'NONE', *, *, #212, .F. ) ;
#237 = DIRECTION ( 'NONE',  ( 0.000000000000000000, 0.000000000000000000, 1.000000000000000000 ) ) ;
#238 = LOCAL_TIME ( 12, 28, 9.000000000000000000, #281 ) ;
#239 = PRODUCT_DEFINITION_SHAPE ( 'NONE', 'NONE',  #241 ) ;
#240 = DIRECTION ( 'NONE',  ( -1.000000000000000000, 0.000000000000000000, 0.000000000000000000 ) ) ;
#241 = PRODUCT_DEFINITION ( 'NEZNÁMÝ', '', #293, #280 ) ;
#242 = DIRECTION ( 'NONE',  ( 1.000000000000000000, 0.000000000000000000, -0.000000000000000000 ) ) ;
#243 = AXIS2_PLACEMENT_3D ( 'NONE', #156, #219, #113 ) ;
#244 = CIRCLE ( 'NONE', #269, 1.250000000000000000 ) ;
#245 = FACE_OUTER_BOUND ( 'NONE', #291, .T. ) ;
#246 = DIRECTION ( 'NONE',  ( 0.000000000000000000, 0.000000000000000000, 1.000000000000000000 ) ) ;
#247 = DIRECTION ( 'NONE',  ( 0.000000000000000000, 0.000000000000000000, 1.000000000000000000 ) ) ;
#248 = VERTEX_POINT ( 'NONE', #175 ) ;
#249 = CIRCLE ( 'NONE', #6, 1.250000000000000000 ) ;
#250 = DIRECTION ( 'NONE',  ( 0.000000000000000000, 0.000000000000000000, 1.000000000000000000 ) ) ;
#251 = DIRECTION ( 'NONE',  ( 1.224646799147353207E-16, 1.000000000000000000, -0.000000000000000000 ) ) ;
#252 = DIRECTION ( 'NONE',  ( 1.000000000000000000, 0.000000000000000000, -0.000000000000000000 ) ) ;
#253 = DIRECTION ( 'NONE',  ( -0.000000000000000000, -0.000000000000000000, -1.000000000000000000 ) ) ;
#254 = PERSON_AND_ORGANIZATION ( #42, #20 ) ;
#255 = ORIENTED_EDGE ( 'NONE', *, *, #128, .F. ) ;
#256 = APPROVAL_ROLE ( '' ) ;
#257 = DIRECTION ( 'NONE',  ( 0.000000000000000000, 0.000000000000000000, 1.000000000000000000 ) ) ;
#258 = EDGE_LOOP ( 'NONE', ( #261, #190 ) ) ;
#259 = DIRECTION ( 'NONE',  ( 0.000000000000000000, 0.000000000000000000, 1.000000000000000000 ) ) ;
#260 = APPROVAL_PERSON_ORGANIZATION ( #18, #192, #93 ) ;
#261 = ORIENTED_EDGE ( 'NONE', *, *, #70, .F. ) ;
#262 = CARTESIAN_POINT ( 'NONE',  ( 0.000000000000000000, 0.000000000000000000, 101.2000000000000171 ) ) ;
#263 = EDGE_LOOP ( 'NONE', ( #84, #130 ) ) ;
#264 = ADVANCED_FACE ( 'NONE', ( #64 ), #296, .T. ) ;
#265 = LOCAL_TIME ( 12, 28, 9.000000000000000000, #76 ) ;
#266 = ORIENTED_EDGE ( 'NONE', *, *, #212, .T. ) ;
#267 = CYLINDRICAL_SURFACE ( 'NONE', #178, 1.250000000000000000 ) ;
#268 = CIRCLE ( 'NONE', #66, 0.5000000000000000000 ) ;
#269 = AXIS2_PLACEMENT_3D ( 'NONE', #218, #250, #270 ) ;
#270 = DIRECTION ( 'NONE',  ( 1.000000000000000000, 0.000000000000000000, 0.000000000000000000 ) ) ;
#271 = ADVANCED_FACE ( 'NONE', ( #197 ), #125, .F. ) ;
#272 = AXIS2_PLACEMENT_3D ( 'NONE', #214, #170, #108 ) ;
#273 = PERSON_AND_ORGANIZATION_ROLE ( 'design_owner' ) ;
#274 = DIRECTION ( 'NONE',  ( -1.000000000000000000, 0.000000000000000000, 0.000000000000000000 ) ) ;
#275 = DIRECTION ( 'NONE',  ( 1.000000000000000000, 0.000000000000000000, 0.000000000000000000 ) ) ;
#276 = EDGE_CURVE ( 'NONE', #169, #36, #244, .T. ) ;
#277 = VERTEX_POINT ( 'NONE', #35 ) ;
#278 = AXIS2_PLACEMENT_3D ( 'NONE', #8, #223, #69 ) ;
#279 = EDGE_LOOP ( 'NONE', ( #285, #33, #216, #177 ) ) ;
#280 = DESIGN_CONTEXT ( 'detailed design', #157, 'design' ) ;
#281 = COORDINATED_UNIVERSAL_TIME_OFFSET ( 1, 0, .AHEAD. ) ;
#282 = APPROVAL_PERSON_ORGANIZATION ( #14, #119, #200 ) ;
#283 = CALENDAR_DATE ( 2022, 20, 6 ) ;
#284 = CC_DESIGN_PERSON_AND_ORGANIZATION_ASSIGNMENT ( #254, #210, ( #241 ) ) ;
#285 = ORIENTED_EDGE ( 'NONE', *, *, #117, .F. ) ;
#286 = CARTESIAN_POINT ( 'NONE',  ( -0.5000000000000000000, 0.000000000000000000, 1.399999999999998579 ) ) ;
#287 = ADVANCED_FACE ( 'NONE', ( #11 ), #7, .F. ) ;
#288 = CIRCLE ( 'NONE', #234, 1.250000000000000000 ) ;
#289 =( GEOMETRIC_REPRESENTATION_CONTEXT ( 3 ) GLOBAL_UNCERTAINTY_ASSIGNED_CONTEXT ( ( #139 ) ) GLOBAL_UNIT_ASSIGNED_CONTEXT ( ( #87, #294, #171 ) ) REPRESENTATION_CONTEXT ( 'NONE', 'WORKASPACE' ) );
#290 = CC_DESIGN_DATE_AND_TIME_ASSIGNMENT ( #53, #206, ( #217 ) ) ;
#291 = EDGE_LOOP ( 'NONE', ( #167, #158, #102, #172 ) ) ;
#292 = DIRECTION ( 'NONE',  ( -0.000000000000000000, -0.000000000000000000, -1.000000000000000000 ) ) ;
#293 = PRODUCT_DEFINITION_FORMATION_WITH_SPECIFIED_SOURCE ( 'LIBOVOLNÝ', '', #149, .NOT_KNOWN. ) ;
#294 =( NAMED_UNIT ( * ) PLANE_ANGLE_UNIT ( ) SI_UNIT ( $, .RADIAN. ) );
#295 = ORIENTED_EDGE ( 'NONE', *, *, #154, .F. ) ;
#296 = PLANE ( 'NONE',  #174 ) ;
#297 = ORIENTED_EDGE ( 'NONE', *, *, #208, .T. ) ;
#298 = COORDINATED_UNIVERSAL_TIME_OFFSET ( 1, 0, .AHEAD. ) ;
#299 = VERTEX_POINT ( 'NONE', #116 ) ;
#300 = EDGE_LOOP ( 'NONE', ( #95, #100 ) ) ;
#301 = PERSON_AND_ORGANIZATION_ROLE ( 'creator' ) ;
#302 = APPROVAL ( #225, 'NEURÈENÝ' ) ;
#303 = CARTESIAN_POINT ( 'NONE',  ( 0.5000000000000000000, 6.123233995736766036E-17, 101.2000000000000171 ) ) ;
#304 = COORDINATED_UNIVERSAL_TIME_OFFSET ( 1, 0, .AHEAD. ) ;
#305 = DIRECTION ( 'NONE',  ( 1.000000000000000000, 0.000000000000000000, 0.000000000000000000 ) ) ;
#306 = SHAPE_DEFINITION_REPRESENTATION ( #239, #101 ) ;
#307 = CARTESIAN_POINT ( 'NONE',  ( -1.250000000000000000, 0.000000000000000000, 1.199999999999999956 ) ) ;
ENDSEC;
END-ISO-10303-21;
