ISO-10303-21;
HEADER;
FILE_DESCRIPTION (( 'STEP AP203' ),
    '1' );
FILE_NAME ('3791.STEP',
    '2022-06-20T10:27:04',
    ( '' ),
    ( '' ),
    'SwSTEP 2.0',
    'SolidWorks 2019',
    '' );
FILE_SCHEMA (( 'CONFIG_CONTROL_DESIGN' ));
ENDSEC;

DATA;
#1 = FACE_OUTER_BOUND ( 'NONE', #29, .T. ) ;
#2 = AXIS2_PLACEMENT_3D ( 'NONE', #105, #207, #157 ) ;
#3 = FACE_OUTER_BOUND ( 'NONE', #284, .T. ) ;
#4 = AXIS2_PLACEMENT_3D ( 'NONE', #183, #280, #43 ) ;
#5 = VERTEX_POINT ( 'NONE', #197 ) ;
#6 = ADVANCED_FACE ( 'NONE', ( #287 ), #200, .T. ) ;
#7 = FACE_BOUND ( 'NONE', #70, .T. ) ;
#8 = CC_DESIGN_PERSON_AND_ORGANIZATION_ASSIGNMENT ( #47, #141, ( #283 ) ) ;
#9 = ORIENTED_EDGE ( 'NONE', *, *, #145, .T. ) ;
#10 = CARTESIAN_POINT ( 'NONE',  ( 1.250000000000000000, 1.530808498934191571E-16, 0.000000000000000000 ) ) ;
#11 = FACE_OUTER_BOUND ( 'NONE', #66, .T. ) ;
#12 = DIRECTION ( 'NONE',  ( 0.000000000000000000, 0.000000000000000000, 1.000000000000000000 ) ) ;
#13 = FACE_OUTER_BOUND ( 'NONE', #169, .T. ) ;
#14 = DATE_AND_TIME ( #227, #178 ) ;
#15 = AXIS2_PLACEMENT_3D ( 'NONE', #17, #276, #176 ) ;
#16 = EDGE_CURVE ( 'NONE', #147, #166, #123, .T. ) ;
#17 = CARTESIAN_POINT ( 'NONE',  ( 0.000000000000000000, 0.000000000000000000, 101.2000000000000171 ) ) ;
#18 = ORIENTED_EDGE ( 'NONE', *, *, #299, .T. ) ;
#19 = CIRCLE ( 'NONE', #74, 0.6999999999999999556 ) ;
#20 = CARTESIAN_POINT ( 'NONE',  ( 0.000000000000000000, 0.000000000000000000, 101.2000000000000171 ) ) ;
#21 = AXIS2_PLACEMENT_3D ( 'NONE', #94, #268, #222 ) ;
#22 = PLANE ( 'NONE',  #138 ) ;
#23 = EDGE_LOOP ( 'NONE', ( #239, #259, #256, #27 ) ) ;
#24 = APPROVAL_DATE_TIME ( #190, #196 ) ;
#25 = CC_DESIGN_DATE_AND_TIME_ASSIGNMENT ( #14, #101, ( #160 ) ) ;
#26 = CARTESIAN_POINT ( 'NONE',  ( 0.000000000000000000, 0.000000000000000000, 1.399999999999998579 ) ) ;
#27 = ORIENTED_EDGE ( 'NONE', *, *, #37, .F. ) ;
#28 = COORDINATED_UNIVERSAL_TIME_OFFSET ( 1, 0, .AHEAD. ) ;
#29 = EDGE_LOOP ( 'NONE', ( #240, #73, #119, #111 ) ) ;
#30 = DIRECTION ( 'NONE',  ( -0.000000000000000000, -0.000000000000000000, -1.000000000000000000 ) ) ;
#31 = CARTESIAN_POINT ( 'NONE',  ( 0.000000000000000000, 0.000000000000000000, 1.399999999999998579 ) ) ;
#32 = EDGE_CURVE ( 'NONE', #59, #143, #165, .T. ) ;
#33 = AXIS2_PLACEMENT_3D ( 'NONE', #26, #150, #247 ) ;
#34 = DIRECTION ( 'NONE',  ( 0.000000000000000000, 0.000000000000000000, 1.000000000000000000 ) ) ;
#35 = LINE ( 'NONE', #269, #136 ) ;
#36 = DIRECTION ( 'NONE',  ( 1.000000000000000000, 0.000000000000000000, 0.000000000000000000 ) ) ;
#37 = EDGE_CURVE ( 'NONE', #208, #290, #116, .T. ) ;
#38 = PERSON_AND_ORGANIZATION ( #281, #305 ) ;
#39 = PERSON_AND_ORGANIZATION_ROLE ( 'creator' ) ;
#40 = PERSON_AND_ORGANIZATION_ROLE ( 'design_owner' ) ;
#41 = APPROVAL_ROLE ( '' ) ;
#42 = DIRECTION ( 'NONE',  ( 1.000000000000000000, 0.000000000000000000, -0.000000000000000000 ) ) ;
#43 = DIRECTION ( 'NONE',  ( -1.000000000000000000, 0.000000000000000000, 0.000000000000000000 ) ) ;
#44 = CARTESIAN_POINT ( 'NONE',  ( 0.6999999999999999556, 0.000000000000000000, 1.199999999999999289 ) ) ;
#45 = ORIENTED_EDGE ( 'NONE', *, *, #37, .T. ) ;
#46 = COORDINATED_UNIVERSAL_TIME_OFFSET ( 1, 0, .AHEAD. ) ;
#47 = PERSON_AND_ORGANIZATION ( #281, #305 ) ;
#48 = DIRECTION ( 'NONE',  ( 1.000000000000000000, 0.000000000000000000, 0.000000000000000000 ) ) ;
#49 = SHAPE_DEFINITION_REPRESENTATION ( #156, #90 ) ;
#50 = VERTEX_POINT ( 'NONE', #93 ) ;
#51 = DIRECTION ( 'NONE',  ( 1.000000000000000000, 0.000000000000000000, 0.000000000000000000 ) ) ;
#52 = FACE_OUTER_BOUND ( 'NONE', #231, .T. ) ;
#53 = FACE_OUTER_BOUND ( 'NONE', #153, .T. ) ;
#54 = CARTESIAN_POINT ( 'NONE',  ( -0.5000000000000000000, 0.000000000000000000, 101.2000000000000171 ) ) ;
#55 = CARTESIAN_POINT ( 'NONE',  ( 0.000000000000000000, 0.000000000000000000, 0.000000000000000000 ) ) ;
#56 = MECHANICAL_CONTEXT ( 'NONE', #295, 'mechanical' ) ;
#57 = AXIS2_PLACEMENT_3D ( 'NONE', #79, #180, #107 ) ;
#58 = PERSON_AND_ORGANIZATION ( #281, #305 ) ;
#59 = VERTEX_POINT ( 'NONE', #149 ) ;
#60 = ADVANCED_FACE ( 'NONE', ( #1 ), #63, .F. ) ;
#61 = FACE_OUTER_BOUND ( 'NONE', #80, .T. ) ;
#62 = CALENDAR_DATE ( 2022, 20, 6 ) ;
#63 = TOROIDAL_SURFACE ( 'NONE', #282, 0.6999999999999999556, 0.2000000000000000111 ) ;
#64 = DIRECTION ( 'NONE',  ( 0.000000000000000000, -1.000000000000000000, 0.000000000000000000 ) ) ;
#65 = APPROVAL ( #253, 'NEURÈENÝ' ) ;
#66 = EDGE_LOOP ( 'NONE', ( #188, #193 ) ) ;
#67 = AXIS2_PLACEMENT_3D ( 'NONE', #292, #226, #97 ) ;
#68 = EDGE_CURVE ( 'NONE', #143, #50, #19, .T. ) ;
#69 = UNCERTAINTY_MEASURE_WITH_UNIT (LENGTH_MEASURE( 1.000000000000000082E-05 ), #250, 'distance_accuracy_value', 'NONE');
#70 = EDGE_LOOP ( 'NONE', ( #85, #89 ) ) ;
#71 = ORIENTED_EDGE ( 'NONE', *, *, #201, .T. ) ;
#72 = LINE ( 'NONE', #241, #154 ) ;
#73 = ORIENTED_EDGE ( 'NONE', *, *, #174, .T. ) ;
#74 = AXIS2_PLACEMENT_3D ( 'NONE', #117, #91, #242 ) ;
#75 = DIRECTION ( 'NONE',  ( -1.000000000000000000, 0.000000000000000000, 0.000000000000000000 ) ) ;
#76 = EDGE_CURVE ( 'NONE', #81, #166, #35, .T. ) ;
#77 = CIRCLE ( 'NONE', #260, 0.5000000000000000000 ) ;
#78 = APPROVAL_PERSON_ORGANIZATION ( #263, #196, #213 ) ;
#79 = CARTESIAN_POINT ( 'NONE',  ( 0.000000000000000000, 0.000000000000000000, 0.000000000000000000 ) ) ;
#80 = EDGE_LOOP ( 'NONE', ( #18, #233 ) ) ;
#81 = VERTEX_POINT ( 'NONE', #288 ) ;
#82 = LOCAL_TIME ( 12, 27, 4.000000000000000000, #28 ) ;
#83 = ADVANCED_FACE ( 'NONE', ( #52 ), #127, .F. ) ;
#84 = DIRECTION ( 'NONE',  ( 1.000000000000000000, 0.000000000000000000, 0.000000000000000000 ) ) ;
#85 = ORIENTED_EDGE ( 'NONE', *, *, #68, .T. ) ;
#86 = DATE_AND_TIME ( #187, #82 ) ;
#87 = CIRCLE ( 'NONE', #67, 0.1999999999999999833 ) ;
#88 = PERSON_AND_ORGANIZATION_ROLE ( 'creator' ) ;
#89 = ORIENTED_EDGE ( 'NONE', *, *, #120, .T. ) ;
#90 = ADVANCED_BREP_SHAPE_REPRESENTATION ( '3791', ( #230, #57 ), #139 ) ;
#91 = DIRECTION ( 'NONE',  ( -0.000000000000000000, -0.000000000000000000, -1.000000000000000000 ) ) ;
#92 = CC_DESIGN_PERSON_AND_ORGANIZATION_ASSIGNMENT ( #58, #40, ( #245 ) ) ;
#93 = CARTESIAN_POINT ( 'NONE',  ( -0.6999999999999999556, 8.572527594031473190E-17, 1.199999999999999289 ) ) ;
#94 = CARTESIAN_POINT ( 'NONE',  ( 0.000000000000000000, 0.000000000000000000, 101.2000000000000171 ) ) ;
#95 = ORIENTED_EDGE ( 'NONE', *, *, #120, .F. ) ;
#96 = AXIS2_PLACEMENT_3D ( 'NONE', #99, #202, #266 ) ;
#97 = DIRECTION ( 'NONE',  ( -1.000000000000000000, 1.224646799147352714E-16, 0.000000000000000000 ) ) ;
#98 = CC_DESIGN_PERSON_AND_ORGANIZATION_ASSIGNMENT ( #228, #88, ( #283 ) ) ;
#99 = CARTESIAN_POINT ( 'NONE',  ( 0.000000000000000000, 0.000000000000000000, 1.199999999999999956 ) ) ;
#100 = DATE_AND_TIME ( #179, #212 ) ;
#101 = DATE_TIME_ROLE ( 'creation_date' ) ;
#102 = CC_DESIGN_APPROVAL ( #192, ( #160 ) ) ;
#103 = COORDINATED_UNIVERSAL_TIME_OFFSET ( 1, 0, .AHEAD. ) ;
#104 =( NAMED_UNIT ( * ) SI_UNIT ( $, .STERADIAN. ) SOLID_ANGLE_UNIT ( ) );
#105 = CARTESIAN_POINT ( 'NONE',  ( 0.000000000000000000, 0.000000000000000000, 1.199999999999999956 ) ) ;
#106 = ADVANCED_FACE ( 'NONE', ( #7, #61 ), #210, .T. ) ;
#107 = DIRECTION ( 'NONE',  ( 1.000000000000000000, 0.000000000000000000, 0.000000000000000000 ) ) ;
#108 = AXIS2_PLACEMENT_3D ( 'NONE', #223, #64, #163 ) ;
#109 = DIRECTION ( 'NONE',  ( 1.000000000000000000, 0.000000000000000000, 0.000000000000000000 ) ) ;
#110 = AXIS2_PLACEMENT_3D ( 'NONE', #113, #142, #238 ) ;
#111 = ORIENTED_EDGE ( 'NONE', *, *, #32, .F. ) ;
#112 = PERSON_AND_ORGANIZATION ( #281, #305 ) ;
#113 = CARTESIAN_POINT ( 'NONE',  ( 0.000000000000000000, 0.000000000000000000, 1.399999999999998579 ) ) ;
#114 = CLOSED_SHELL ( 'NONE', ( #60, #6, #307, #237, #106, #148, #297, #258, #83 ) ) ;
#115 = DIRECTION ( 'NONE',  ( -1.000000000000000000, 0.000000000000000000, 0.000000000000000000 ) ) ;
#116 = LINE ( 'NONE', #54, #215 ) ;
#117 = CARTESIAN_POINT ( 'NONE',  ( 0.000000000000000000, 0.000000000000000000, 1.199999999999999956 ) ) ;
#118 = CYLINDRICAL_SURFACE ( 'NONE', #15, 0.5000000000000000000 ) ;
#119 = ORIENTED_EDGE ( 'NONE', *, *, #68, .F. ) ;
#120 = EDGE_CURVE ( 'NONE', #50, #143, #175, .T. ) ;
#121 = ORIENTED_EDGE ( 'NONE', *, *, #299, .F. ) ;
#122 = DIRECTION ( 'NONE',  ( -0.000000000000000000, -0.000000000000000000, -1.000000000000000000 ) ) ;
#123 = CIRCLE ( 'NONE', #304, 1.250000000000000000 ) ;
#124 = CYLINDRICAL_SURFACE ( 'NONE', #205, 1.250000000000000000 ) ;
#125 = APPROVAL_STATUS ( 'not_yet_approved' ) ;
#126 = COORDINATED_UNIVERSAL_TIME_OFFSET ( 1, 0, .AHEAD. ) ;
#127 = TOROIDAL_SURFACE ( 'NONE', #252, 0.6999999999999999556, 0.2000000000000000111 ) ;
#128 = CALENDAR_DATE ( 2022, 20, 6 ) ;
#129 = CIRCLE ( 'NONE', #298, 1.250000000000000000 ) ;
#130 = APPROVAL_DATE_TIME ( #300, #65 ) ;
#131 = DIRECTION ( 'NONE',  ( 0.000000000000000000, 0.000000000000000000, 1.000000000000000000 ) ) ;
#132 = ORIENTED_EDGE ( 'NONE', *, *, #145, .F. ) ;
#133 = CARTESIAN_POINT ( 'NONE',  ( 0.000000000000000000, 0.000000000000000000, 0.000000000000000000 ) ) ;
#134 = PRODUCT_RELATED_PRODUCT_CATEGORY ( 'detail', '', ( #245 ) ) ;
#135 = DATE_TIME_ROLE ( 'classification_date' ) ;
#136 = VECTOR ( 'NONE', #220, 1000.000000000000000 ) ;
#137 = AXIS2_PLACEMENT_3D ( 'NONE', #133, #277, #255 ) ;
#138 = AXIS2_PLACEMENT_3D ( 'NONE', #55, #12, #42 ) ;
#139 =( GEOMETRIC_REPRESENTATION_CONTEXT ( 3 ) GLOBAL_UNCERTAINTY_ASSIGNED_CONTEXT ( ( #69 ) ) GLOBAL_UNIT_ASSIGNED_CONTEXT ( ( #250, #155, #104 ) ) REPRESENTATION_CONTEXT ( 'NONE', 'WORKASPACE' ) );
#140 = APPROVAL_STATUS ( 'not_yet_approved' ) ;
#141 = PERSON_AND_ORGANIZATION_ROLE ( 'design_supplier' ) ;
#142 = DIRECTION ( 'NONE',  ( 0.000000000000000000, 0.000000000000000000, 1.000000000000000000 ) ) ;
#143 = VERTEX_POINT ( 'NONE', #44 ) ;
#144 = CARTESIAN_POINT ( 'NONE',  ( 1.250000000000000000, 1.530808498934191571E-16, 1.199999999999999956 ) ) ;
#145 = EDGE_CURVE ( 'NONE', #166, #147, #279, .T. ) ;
#146 = CARTESIAN_POINT ( 'NONE',  ( 0.000000000000000000, 0.000000000000000000, 101.2000000000000171 ) ) ;
#147 = VERTEX_POINT ( 'NONE', #10 ) ;
#148 = ADVANCED_FACE ( 'NONE', ( #273 ), #22, .F. ) ;
#149 = CARTESIAN_POINT ( 'NONE',  ( 0.5000000000000000000, 6.123233995736766036E-17, 1.399999999999998579 ) ) ;
#150 = DIRECTION ( 'NONE',  ( 0.000000000000000000, 0.000000000000000000, 1.000000000000000000 ) ) ;
#151 = APPLICATION_PROTOCOL_DEFINITION ( 'international standard', 'config_control_design', 1994, #246 ) ;
#152 = APPROVAL_ROLE ( '' ) ;
#153 = EDGE_LOOP ( 'NONE', ( #301, #121, #170, #9 ) ) ;
#154 = VECTOR ( 'NONE', #30, 1000.000000000000000 ) ;
#155 =( NAMED_UNIT ( * ) PLANE_ANGLE_UNIT ( ) SI_UNIT ( $, .RADIAN. ) );
#156 = PRODUCT_DEFINITION_SHAPE ( 'NONE', 'NONE',  #160 ) ;
#157 = DIRECTION ( 'NONE',  ( 1.000000000000000000, 0.000000000000000000, -0.000000000000000000 ) ) ;
#158 = ORIENTED_EDGE ( 'NONE', *, *, #16, .F. ) ;
#159 = SECURITY_CLASSIFICATION_LEVEL ( 'unclassified' ) ;
#160 = PRODUCT_DEFINITION ( 'NEZNÁMÝ', '', #283, #219 ) ;
#161 = CC_DESIGN_PERSON_AND_ORGANIZATION_ASSIGNMENT ( #274, #39, ( #160 ) ) ;
#162 = VECTOR ( 'NONE', #236, 1000.000000000000000 ) ;
#163 = DIRECTION ( 'NONE',  ( 0.000000000000000000, 0.000000000000000000, -1.000000000000000000 ) ) ;
#164 = EDGE_CURVE ( 'NONE', #208, #278, #211, .T. ) ;
#165 = CIRCLE ( 'NONE', #108, 0.2000000000000000944 ) ;
#166 = VERTEX_POINT ( 'NONE', #296 ) ;
#167 = ORIENTED_EDGE ( 'NONE', *, *, #174, .F. ) ;
#168 = EDGE_CURVE ( 'NONE', #278, #208, #77, .T. ) ;
#169 = EDGE_LOOP ( 'NONE', ( #306, #71, #303, #185 ) ) ;
#170 = ORIENTED_EDGE ( 'NONE', *, *, #76, .T. ) ;
#171 = PLANE ( 'NONE',  #21 ) ;
#172 = CARTESIAN_POINT ( 'NONE',  ( 0.000000000000000000, 0.000000000000000000, 1.199999999999999956 ) ) ;
#173 = APPLICATION_PROTOCOL_DEFINITION ( 'international standard', 'config_control_design', 1994, #295 ) ;
#174 = EDGE_CURVE ( 'NONE', #290, #50, #87, .T. ) ;
#175 = CIRCLE ( 'NONE', #199, 0.6999999999999999556 ) ;
#176 = DIRECTION ( 'NONE',  ( -1.000000000000000000, 0.000000000000000000, 0.000000000000000000 ) ) ;
#177 = AXIS2_PLACEMENT_3D ( 'NONE', #20, #203, #109 ) ;
#178 = LOCAL_TIME ( 12, 27, 4.000000000000000000, #126 ) ;
#179 = CALENDAR_DATE ( 2022, 20, 6 ) ;
#180 = DIRECTION ( 'NONE',  ( 0.000000000000000000, 0.000000000000000000, 1.000000000000000000 ) ) ;
#181 = CARTESIAN_POINT ( 'NONE',  ( 0.000000000000000000, 0.000000000000000000, 101.2000000000000171 ) ) ;
#182 = ORIENTED_EDGE ( 'NONE', *, *, #289, .F. ) ;
#183 = CARTESIAN_POINT ( 'NONE',  ( 0.000000000000000000, 0.000000000000000000, 1.199999999999999956 ) ) ;
#184 = DIRECTION ( 'NONE',  ( 1.000000000000000000, 0.000000000000000000, 0.000000000000000000 ) ) ;
#185 = ORIENTED_EDGE ( 'NONE', *, *, #76, .F. ) ;
#186 = LOCAL_TIME ( 12, 27, 4.000000000000000000, #46 ) ;
#187 = CALENDAR_DATE ( 2022, 20, 6 ) ;
#188 = ORIENTED_EDGE ( 'NONE', *, *, #164, .T. ) ;
#189 = CC_DESIGN_APPROVAL ( #196, ( #302 ) ) ;
#190 = DATE_AND_TIME ( #62, #186 ) ;
#191 = ORIENTED_EDGE ( 'NONE', *, *, #32, .T. ) ;
#192 = APPROVAL ( #125, 'NEURÈENÝ' ) ;
#193 = ORIENTED_EDGE ( 'NONE', *, *, #168, .T. ) ;
#194 = CARTESIAN_POINT ( 'NONE',  ( 0.5000000000000000000, 6.123233995736766036E-17, 101.2000000000000171 ) ) ;
#195 = ORIENTED_EDGE ( 'NONE', *, *, #214, .T. ) ;
#196 = APPROVAL ( #140, 'NEURÈENÝ' ) ;
#197 = CARTESIAN_POINT ( 'NONE',  ( 1.250000000000000000, 1.530808498934191571E-16, 1.199999999999999956 ) ) ;
#198 = CARTESIAN_POINT ( 'NONE',  ( 0.000000000000000000, 0.000000000000000000, 1.199999999999999956 ) ) ;
#199 = AXIS2_PLACEMENT_3D ( 'NONE', #172, #122, #36 ) ;
#200 = CYLINDRICAL_SURFACE ( 'NONE', #248, 0.5000000000000000000 ) ;
#201 = EDGE_CURVE ( 'NONE', #5, #147, #232, .T. ) ;
#202 = DIRECTION ( 'NONE',  ( 0.000000000000000000, 0.000000000000000000, 1.000000000000000000 ) ) ;
#203 = DIRECTION ( 'NONE',  ( 0.000000000000000000, 0.000000000000000000, 1.000000000000000000 ) ) ;
#204 = APPROVAL_DATE_TIME ( #100, #192 ) ;
#205 = AXIS2_PLACEMENT_3D ( 'NONE', #198, #291, #75 ) ;
#206 = COORDINATED_UNIVERSAL_TIME_OFFSET ( 1, 0, .AHEAD. ) ;
#207 = DIRECTION ( 'NONE',  ( 0.000000000000000000, 0.000000000000000000, 1.000000000000000000 ) ) ;
#208 = VERTEX_POINT ( 'NONE', #285 ) ;
#209 = DIRECTION ( 'NONE',  ( 1.000000000000000000, 0.000000000000000000, 0.000000000000000000 ) ) ;
#210 = PLANE ( 'NONE',  #2 ) ;
#211 = CIRCLE ( 'NONE', #177, 0.5000000000000000000 ) ;
#212 = LOCAL_TIME ( 12, 27, 4.000000000000000000, #103 ) ;
#213 = APPROVAL_ROLE ( '' ) ;
#214 = EDGE_CURVE ( 'NONE', #290, #59, #249, .T. ) ;
#215 = VECTOR ( 'NONE', #217, 1000.000000000000000 ) ;
#216 = DIRECTION ( 'NONE',  ( -0.000000000000000000, -0.000000000000000000, -1.000000000000000000 ) ) ;
#217 = DIRECTION ( 'NONE',  ( -0.000000000000000000, -0.000000000000000000, -1.000000000000000000 ) ) ;
#218 = CARTESIAN_POINT ( 'NONE',  ( -0.5000000000000000000, 0.000000000000000000, 1.399999999999998579 ) ) ;
#219 = DESIGN_CONTEXT ( 'detailed design', #246, 'design' ) ;
#220 = DIRECTION ( 'NONE',  ( -0.000000000000000000, -0.000000000000000000, -1.000000000000000000 ) ) ;
#221 = CC_DESIGN_APPROVAL ( #65, ( #283 ) ) ;
#222 = DIRECTION ( 'NONE',  ( 1.000000000000000000, 0.000000000000000000, -0.000000000000000000 ) ) ;
#223 = CARTESIAN_POINT ( 'NONE',  ( 0.6999999999999999556, 0.000000000000000000, 1.399999999999998579 ) ) ;
#224 = DIRECTION ( 'NONE',  ( 0.000000000000000000, 0.000000000000000000, 1.000000000000000000 ) ) ;
#225 = EDGE_CURVE ( 'NONE', #59, #290, #286, .T. ) ;
#226 = DIRECTION ( 'NONE',  ( 1.224646799147353207E-16, 1.000000000000000000, -0.000000000000000000 ) ) ;
#227 = CALENDAR_DATE ( 2022, 20, 6 ) ;
#228 = PERSON_AND_ORGANIZATION ( #281, #305 ) ;
#229 = CARTESIAN_POINT ( 'NONE',  ( 0.000000000000000000, 0.000000000000000000, 1.199999999999999956 ) ) ;
#230 = MANIFOLD_SOLID_BREP ( 'Zaoblit1', #114 ) ;
#231 = EDGE_LOOP ( 'NONE', ( #167, #265, #191, #95 ) ) ;
#232 = LINE ( 'NONE', #144, #162 ) ;
#233 = ORIENTED_EDGE ( 'NONE', *, *, #261, .T. ) ;
#234 = LOCAL_TIME ( 12, 27, 4.000000000000000000, #206 ) ;
#235 = PERSON_AND_ORGANIZATION_ROLE ( 'classification_officer' ) ;
#236 = DIRECTION ( 'NONE',  ( -0.000000000000000000, -0.000000000000000000, -1.000000000000000000 ) ) ;
#237 = ADVANCED_FACE ( 'NONE', ( #53 ), #124, .T. ) ;
#238 = DIRECTION ( 'NONE',  ( 1.000000000000000000, 0.000000000000000000, 0.000000000000000000 ) ) ;
#239 = ORIENTED_EDGE ( 'NONE', *, *, #168, .F. ) ;
#240 = ORIENTED_EDGE ( 'NONE', *, *, #214, .F. ) ;
#241 = CARTESIAN_POINT ( 'NONE',  ( 0.5000000000000000000, 6.123233995736766036E-17, 101.2000000000000171 ) ) ;
#242 = DIRECTION ( 'NONE',  ( 1.000000000000000000, 0.000000000000000000, 0.000000000000000000 ) ) ;
#243 = CARTESIAN_POINT ( 'NONE',  ( 0.000000000000000000, 0.000000000000000000, 1.399999999999998579 ) ) ;
#244 = EDGE_LOOP ( 'NONE', ( #132, #158 ) ) ;
#245 = PRODUCT ( '3791', '3791', '', ( #56 ) ) ;
#246 = APPLICATION_CONTEXT ( 'configuration controlled 3d designs of mechanical parts and assemblies' ) ;
#247 = DIRECTION ( 'NONE',  ( 1.000000000000000000, 0.000000000000000000, 0.000000000000000000 ) ) ;
#248 = AXIS2_PLACEMENT_3D ( 'NONE', #146, #216, #115 ) ;
#249 = CIRCLE ( 'NONE', #110, 0.5000000000000000000 ) ;
#250 =( LENGTH_UNIT ( ) NAMED_UNIT ( * ) SI_UNIT ( .MILLI., .METRE. ) );
#251 = DIRECTION ( 'NONE',  ( 0.000000000000000000, 0.000000000000000000, 1.000000000000000000 ) ) ;
#252 = AXIS2_PLACEMENT_3D ( 'NONE', #243, #34, #184 ) ;
#253 = APPROVAL_STATUS ( 'not_yet_approved' ) ;
#254 = CC_DESIGN_SECURITY_CLASSIFICATION ( #302, ( #283 ) ) ;
#255 = DIRECTION ( 'NONE',  ( 1.000000000000000000, 0.000000000000000000, 0.000000000000000000 ) ) ;
#256 = ORIENTED_EDGE ( 'NONE', *, *, #225, .T. ) ;
#257 = CYLINDRICAL_SURFACE ( 'NONE', #4, 1.250000000000000000 ) ;
#258 = ADVANCED_FACE ( 'NONE', ( #11 ), #171, .T. ) ;
#259 = ORIENTED_EDGE ( 'NONE', *, *, #289, .T. ) ;
#260 = AXIS2_PLACEMENT_3D ( 'NONE', #181, #131, #84 ) ;
#261 = EDGE_CURVE ( 'NONE', #5, #81, #271, .T. ) ;
#262 = DIRECTION ( 'NONE',  ( 0.000000000000000000, 0.000000000000000000, 1.000000000000000000 ) ) ;
#263 = PERSON_AND_ORGANIZATION ( #281, #305 ) ;
#264 = APPROVAL_PERSON_ORGANIZATION ( #38, #192, #152 ) ;
#265 = ORIENTED_EDGE ( 'NONE', *, *, #225, .F. ) ;
#266 = DIRECTION ( 'NONE',  ( 1.000000000000000000, 0.000000000000000000, 0.000000000000000000 ) ) ;
#267 = ORIENTED_EDGE ( 'NONE', *, *, #164, .F. ) ;
#268 = DIRECTION ( 'NONE',  ( 0.000000000000000000, 0.000000000000000000, 1.000000000000000000 ) ) ;
#269 = CARTESIAN_POINT ( 'NONE',  ( -1.250000000000000000, 0.000000000000000000, 1.199999999999999956 ) ) ;
#270 = CARTESIAN_POINT ( 'NONE',  ( 0.000000000000000000, 0.000000000000000000, 0.000000000000000000 ) ) ;
#271 = CIRCLE ( 'NONE', #96, 1.250000000000000000 ) ;
#272 = CC_DESIGN_PERSON_AND_ORGANIZATION_ASSIGNMENT ( #112, #235, ( #302 ) ) ;
#273 = FACE_OUTER_BOUND ( 'NONE', #244, .T. ) ;
#274 = PERSON_AND_ORGANIZATION ( #281, #305 ) ;
#275 = PERSON_AND_ORGANIZATION ( #281, #305 ) ;
#276 = DIRECTION ( 'NONE',  ( -0.000000000000000000, -0.000000000000000000, -1.000000000000000000 ) ) ;
#277 = DIRECTION ( 'NONE',  ( 0.000000000000000000, 0.000000000000000000, 1.000000000000000000 ) ) ;
#278 = VERTEX_POINT ( 'NONE', #194 ) ;
#279 = CIRCLE ( 'NONE', #137, 1.250000000000000000 ) ;
#280 = DIRECTION ( 'NONE',  ( -0.000000000000000000, -0.000000000000000000, -1.000000000000000000 ) ) ;
#281 = PERSON ( 'NEURÈENÝ', 'NEURÈENÝ', 'NEURÈENÝ', ('NEURÈENÝ'), ('NEURÈENÝ'), ('NEURÈENÝ') ) ;
#282 = AXIS2_PLACEMENT_3D ( 'NONE', #31, #262, #48 ) ;
#283 = PRODUCT_DEFINITION_FORMATION_WITH_SPECIFIED_SOURCE ( 'LIBOVOLNÝ', '', #245, .NOT_KNOWN. ) ;
#284 = EDGE_LOOP ( 'NONE', ( #182, #267, #45, #195 ) ) ;
#285 = CARTESIAN_POINT ( 'NONE',  ( -0.5000000000000000000, 0.000000000000000000, 101.2000000000000171 ) ) ;
#286 = CIRCLE ( 'NONE', #33, 0.5000000000000000000 ) ;
#287 = FACE_OUTER_BOUND ( 'NONE', #23, .T. ) ;
#288 = CARTESIAN_POINT ( 'NONE',  ( -1.250000000000000000, 0.000000000000000000, 1.199999999999999956 ) ) ;
#289 = EDGE_CURVE ( 'NONE', #278, #59, #72, .T. ) ;
#290 = VERTEX_POINT ( 'NONE', #218 ) ;
#291 = DIRECTION ( 'NONE',  ( -0.000000000000000000, -0.000000000000000000, -1.000000000000000000 ) ) ;
#292 = CARTESIAN_POINT ( 'NONE',  ( -0.6999999999999999556, 8.572527594031471957E-17, 1.399999999999998579 ) ) ;
#293 = APPROVAL_PERSON_ORGANIZATION ( #275, #65, #41 ) ;
#294 = CC_DESIGN_DATE_AND_TIME_ASSIGNMENT ( #86, #135, ( #302 ) ) ;
#295 = APPLICATION_CONTEXT ( 'configuration controlled 3d designs of mechanical parts and assemblies' ) ;
#296 = CARTESIAN_POINT ( 'NONE',  ( -1.250000000000000000, 0.000000000000000000, 0.000000000000000000 ) ) ;
#297 = ADVANCED_FACE ( 'NONE', ( #3 ), #118, .T. ) ;
#298 = AXIS2_PLACEMENT_3D ( 'NONE', #229, #251, #209 ) ;
#299 = EDGE_CURVE ( 'NONE', #81, #5, #129, .T. ) ;
#300 = DATE_AND_TIME ( #128, #234 ) ;
#301 = ORIENTED_EDGE ( 'NONE', *, *, #201, .F. ) ;
#302 = SECURITY_CLASSIFICATION ( '', '', #159 ) ;
#303 = ORIENTED_EDGE ( 'NONE', *, *, #16, .T. ) ;
#304 = AXIS2_PLACEMENT_3D ( 'NONE', #270, #224, #51 ) ;
#305 = ORGANIZATION ( 'NEURÈENÝ', 'NEURÈENÝ', '' ) ;
#306 = ORIENTED_EDGE ( 'NONE', *, *, #261, .F. ) ;
#307 = ADVANCED_FACE ( 'NONE', ( #13 ), #257, .T. ) ;
ENDSEC;
END-ISO-10303-21;
