ISO-10303-21;
HEADER;
FILE_DESCRIPTION (( 'STEP AP203' ),
    '1' );
FILE_NAME ('47a4.STEP',
    '2022-06-20T10:29:45',
    ( '' ),
    ( '' ),
    'SwSTEP 2.0',
    'SolidWorks 2019',
    '' );
FILE_SCHEMA (( 'CONFIG_CONTROL_DESIGN' ));
ENDSEC;

DATA;
#1 = APPLICATION_CONTEXT ( 'configuration controlled 3d designs of mechanical parts and assemblies' ) ;
#2 = ORIENTED_EDGE ( 'NONE', *, *, #125, .T. ) ;
#3 = EDGE_LOOP ( 'NONE', ( #60, #63, #281, #239 ) ) ;
#4 = AXIS2_PLACEMENT_3D ( 'NONE', #218, #13, #270 ) ;
#5 = CC_DESIGN_PERSON_AND_ORGANIZATION_ASSIGNMENT ( #184, #204, ( #163 ) ) ;
#6 = LOCAL_TIME ( 12, 29, 45.00000000000000000, #122 ) ;
#7 = CARTESIAN_POINT ( 'NONE',  ( 0.000000000000000000, 0.000000000000000000, 1.199999999999999956 ) ) ;
#8 = CARTESIAN_POINT ( 'NONE',  ( -0.5000000000000000000, 0.000000000000000000, 101.2000000000000171 ) ) ;
#9 = DIRECTION ( 'NONE',  ( 1.000000000000000000, 0.000000000000000000, 0.000000000000000000 ) ) ;
#10 = AXIS2_PLACEMENT_3D ( 'NONE', #206, #193, #133 ) ;
#11 = LINE ( 'NONE', #117, #267 ) ;
#12 = SECURITY_CLASSIFICATION ( '', '', #183 ) ;
#13 = DIRECTION ( 'NONE',  ( 0.000000000000000000, 0.000000000000000000, 1.000000000000000000 ) ) ;
#14 = LINE ( 'NONE', #162, #295 ) ;
#15 = EDGE_CURVE ( 'NONE', #74, #244, #190, .T. ) ;
#16 = CLOSED_SHELL ( 'NONE', ( #212, #182, #303, #69, #148, #139, #104, #247, #136 ) ) ;
#17 = CARTESIAN_POINT ( 'NONE',  ( 0.000000000000000000, 0.000000000000000000, 1.199999999999999956 ) ) ;
#18 = DIRECTION ( 'NONE',  ( -0.000000000000000000, -0.000000000000000000, -1.000000000000000000 ) ) ;
#19 = CALENDAR_DATE ( 2022, 20, 6 ) ;
#20 = AXIS2_PLACEMENT_3D ( 'NONE', #90, #64, #34 ) ;
#21 = CIRCLE ( 'NONE', #168, 0.5000000000000000000 ) ;
#22 = EDGE_CURVE ( 'NONE', #244, #74, #68, .T. ) ;
#23 = PERSON_AND_ORGANIZATION ( #169, #236 ) ;
#24 = TOROIDAL_SURFACE ( 'NONE', #44, 0.6999999999999999556, 0.2000000000000000111 ) ;
#25 = VERTEX_POINT ( 'NONE', #135 ) ;
#26 = APPROVAL_ROLE ( '' ) ;
#27 = PLANE ( 'NONE',  #129 ) ;
#28 = MANIFOLD_SOLID_BREP ( 'Zaoblit1', #16 ) ;
#29 = EDGE_LOOP ( 'NONE', ( #152, #150, #131, #130 ) ) ;
#30 = ORIENTED_EDGE ( 'NONE', *, *, #46, .F. ) ;
#31 = CIRCLE ( 'NONE', #293, 1.250000000000000000 ) ;
#32 = LOCAL_TIME ( 12, 29, 45.00000000000000000, #96 ) ;
#33 = DIRECTION ( 'NONE',  ( 1.000000000000000000, 0.000000000000000000, 0.000000000000000000 ) ) ;
#34 = DIRECTION ( 'NONE',  ( 1.000000000000000000, 0.000000000000000000, 0.000000000000000000 ) ) ;
#35 = APPROVAL ( #98, 'NEURÈENÝ' ) ;
#36 = CARTESIAN_POINT ( 'NONE',  ( 1.250000000000000000, 1.530808498934191571E-16, 1.199999999999999956 ) ) ;
#37 = DIRECTION ( 'NONE',  ( 1.000000000000000000, 0.000000000000000000, 0.000000000000000000 ) ) ;
#38 = DIRECTION ( 'NONE',  ( 0.000000000000000000, 0.000000000000000000, 1.000000000000000000 ) ) ;
#39 = APPROVAL_PERSON_ORGANIZATION ( #23, #55, #26 ) ;
#40 = CARTESIAN_POINT ( 'NONE',  ( 0.000000000000000000, 0.000000000000000000, 1.199999999999999956 ) ) ;
#41 = CARTESIAN_POINT ( 'NONE',  ( 0.000000000000000000, 0.000000000000000000, 1.399999999999998579 ) ) ;
#42 = CIRCLE ( 'NONE', #250, 0.6999999999999999556 ) ;
#43 = CARTESIAN_POINT ( 'NONE',  ( -1.250000000000000000, 0.000000000000000000, 1.199999999999999956 ) ) ;
#44 = AXIS2_PLACEMENT_3D ( 'NONE', #158, #301, #187 ) ;
#45 = DIRECTION ( 'NONE',  ( -0.000000000000000000, -0.000000000000000000, -1.000000000000000000 ) ) ;
#46 = EDGE_CURVE ( 'NONE', #74, #271, #14, .T. ) ;
#47 = APPROVAL_STATUS ( 'not_yet_approved' ) ;
#48 = CARTESIAN_POINT ( 'NONE',  ( 0.000000000000000000, 0.000000000000000000, 101.2000000000000171 ) ) ;
#49 = COORDINATED_UNIVERSAL_TIME_OFFSET ( 1, 0, .AHEAD. ) ;
#50 = DIRECTION ( 'NONE',  ( -1.000000000000000000, 0.000000000000000000, 0.000000000000000000 ) ) ;
#51 = APPROVAL_DATE_TIME ( #167, #279 ) ;
#52 = EDGE_CURVE ( 'NONE', #296, #99, #102, .T. ) ;
#53 = APPROVAL_STATUS ( 'not_yet_approved' ) ;
#54 = CIRCLE ( 'NONE', #217, 0.6999999999999999556 ) ;
#55 = APPROVAL ( #53, 'NEURÈENÝ' ) ;
#56 = ORIENTED_EDGE ( 'NONE', *, *, #261, .T. ) ;
#57 = DIRECTION ( 'NONE',  ( 1.000000000000000000, 0.000000000000000000, 0.000000000000000000 ) ) ;
#58 = AXIS2_PLACEMENT_3D ( 'NONE', #196, #245, #33 ) ;
#59 = DIRECTION ( 'NONE',  ( 0.000000000000000000, 0.000000000000000000, 1.000000000000000000 ) ) ;
#60 = ORIENTED_EDGE ( 'NONE', *, *, #125, .F. ) ;
#61 = DATE_AND_TIME ( #285, #107 ) ;
#62 = VERTEX_POINT ( 'NONE', #286 ) ;
#63 = ORIENTED_EDGE ( 'NONE', *, *, #15, .F. ) ;
#64 = DIRECTION ( 'NONE',  ( 0.000000000000000000, 0.000000000000000000, 1.000000000000000000 ) ) ;
#65 = LINE ( 'NONE', #36, #123 ) ;
#66 = SHAPE_DEFINITION_REPRESENTATION ( #71, #288 ) ;
#67 = CC_DESIGN_PERSON_AND_ORGANIZATION_ASSIGNMENT ( #147, #294, ( #97 ) ) ;
#68 = CIRCLE ( 'NONE', #262, 1.250000000000000000 ) ;
#69 = ADVANCED_FACE ( 'NONE', ( #159 ), #220, .T. ) ;
#70 = AXIS2_PLACEMENT_3D ( 'NONE', #41, #112, #155 ) ;
#71 = PRODUCT_DEFINITION_SHAPE ( 'NONE', 'NONE',  #97 ) ;
#72 = DIRECTION ( 'NONE',  ( 0.000000000000000000, 0.000000000000000000, 1.000000000000000000 ) ) ;
#73 = DATE_TIME_ROLE ( 'creation_date' ) ;
#74 = VERTEX_POINT ( 'NONE', #43 ) ;
#75 = PERSON_AND_ORGANIZATION_ROLE ( 'classification_officer' ) ;
#76 = CYLINDRICAL_SURFACE ( 'NONE', #248, 0.5000000000000000000 ) ;
#77 = EDGE_CURVE ( 'NONE', #296, #108, #11, .T. ) ;
#78 = PERSON_AND_ORGANIZATION ( #169, #236 ) ;
#79 = APPLICATION_PROTOCOL_DEFINITION ( 'international standard', 'config_control_design', 1994, #185 ) ;
#80 = ORIENTED_EDGE ( 'NONE', *, *, #113, .F. ) ;
#81 =( NAMED_UNIT ( * ) PLANE_ANGLE_UNIT ( ) SI_UNIT ( $, .RADIAN. ) );
#82 = APPROVAL_PERSON_ORGANIZATION ( #121, #35, #84 ) ;
#83 = ORIENTED_EDGE ( 'NONE', *, *, #77, .F. ) ;
#84 = APPROVAL_ROLE ( '' ) ;
#85 = ORIENTED_EDGE ( 'NONE', *, *, #77, .T. ) ;
#86 = APPROVAL_PERSON_ORGANIZATION ( #254, #279, #260 ) ;
#87 = EDGE_LOOP ( 'NONE', ( #83, #192, #283, #56 ) ) ;
#88 = AXIS2_PLACEMENT_3D ( 'NONE', #48, #142, #109 ) ;
#89 = FACE_OUTER_BOUND ( 'NONE', #87, .T. ) ;
#90 = CARTESIAN_POINT ( 'NONE',  ( 0.000000000000000000, 0.000000000000000000, 1.399999999999998579 ) ) ;
#91 = CC_DESIGN_APPROVAL ( #35, ( #12 ) ) ;
#92 = DIRECTION ( 'NONE',  ( 0.000000000000000000, 0.000000000000000000, 1.000000000000000000 ) ) ;
#93 = CC_DESIGN_PERSON_AND_ORGANIZATION_ASSIGNMENT ( #274, #165, ( #237 ) ) ;
#94 = CYLINDRICAL_SURFACE ( 'NONE', #88, 0.5000000000000000000 ) ;
#95 =( LENGTH_UNIT ( ) NAMED_UNIT ( * ) SI_UNIT ( .MILLI., .METRE. ) );
#96 = COORDINATED_UNIVERSAL_TIME_OFFSET ( 1, 0, .AHEAD. ) ;
#97 = PRODUCT_DEFINITION ( 'NEZNÁMÝ', '', #163, #174 ) ;
#98 = APPROVAL_STATUS ( 'not_yet_approved' ) ;
#99 = VERTEX_POINT ( 'NONE', #8 ) ;
#100 = EDGE_CURVE ( 'NONE', #115, #271, #203, .T. ) ;
#101 = DIRECTION ( 'NONE',  ( 1.000000000000000000, 0.000000000000000000, -0.000000000000000000 ) ) ;
#102 = CIRCLE ( 'NONE', #207, 0.5000000000000000000 ) ;
#103 = EDGE_LOOP ( 'NONE', ( #149, #132, #80, #195 ) ) ;
#104 = ADVANCED_FACE ( 'NONE', ( #89 ), #94, .T. ) ;
#105 = EDGE_LOOP ( 'NONE', ( #181, #209 ) ) ;
#106 = TOROIDAL_SURFACE ( 'NONE', #70, 0.6999999999999999556, 0.2000000000000000111 ) ;
#107 = LOCAL_TIME ( 12, 29, 45.00000000000000000, #173 ) ;
#108 = VERTEX_POINT ( 'NONE', #230 ) ;
#109 = DIRECTION ( 'NONE',  ( -1.000000000000000000, 0.000000000000000000, 0.000000000000000000 ) ) ;
#110 = FACE_OUTER_BOUND ( 'NONE', #103, .T. ) ;
#111 = FACE_OUTER_BOUND ( 'NONE', #29, .T. ) ;
#112 = DIRECTION ( 'NONE',  ( 0.000000000000000000, 0.000000000000000000, 1.000000000000000000 ) ) ;
#113 = EDGE_CURVE ( 'NONE', #62, #25, #42, .T. ) ;
#114 = AXIS2_PLACEMENT_3D ( 'NONE', #307, #277, #101 ) ;
#115 = VERTEX_POINT ( 'NONE', #289 ) ;
#116 = DIRECTION ( 'NONE',  ( 1.000000000000000000, 0.000000000000000000, -0.000000000000000000 ) ) ;
#117 = CARTESIAN_POINT ( 'NONE',  ( 0.5000000000000000000, 6.123233995736766036E-17, 101.2000000000000171 ) ) ;
#118 = PERSON_AND_ORGANIZATION_ROLE ( 'creator' ) ;
#119 = DIRECTION ( 'NONE',  ( -0.000000000000000000, -0.000000000000000000, -1.000000000000000000 ) ) ;
#120 = CIRCLE ( 'NONE', #20, 0.5000000000000000000 ) ;
#121 = PERSON_AND_ORGANIZATION ( #169, #236 ) ;
#122 = COORDINATED_UNIVERSAL_TIME_OFFSET ( 1, 0, .AHEAD. ) ;
#123 = VECTOR ( 'NONE', #137, 1000.000000000000000 ) ;
#124 = DIRECTION ( 'NONE',  ( 1.000000000000000000, 0.000000000000000000, -0.000000000000000000 ) ) ;
#125 = EDGE_CURVE ( 'NONE', #244, #115, #65, .T. ) ;
#126 = EDGE_LOOP ( 'NONE', ( #175, #2, #251, #30 ) ) ;
#127 = APPROVAL_DATE_TIME ( #208, #55 ) ;
#128 = DIRECTION ( 'NONE',  ( 0.000000000000000000, 0.000000000000000000, -1.000000000000000000 ) ) ;
#129 = AXIS2_PLACEMENT_3D ( 'NONE', #304, #59, #124 ) ;
#130 = ORIENTED_EDGE ( 'NONE', *, *, #227, .F. ) ;
#131 = ORIENTED_EDGE ( 'NONE', *, *, #143, .T. ) ;
#132 = ORIENTED_EDGE ( 'NONE', *, *, #186, .T. ) ;
#133 = DIRECTION ( 'NONE',  ( -1.000000000000000000, 1.224646799147352714E-16, 0.000000000000000000 ) ) ;
#134 =( GEOMETRIC_REPRESENTATION_CONTEXT ( 3 ) GLOBAL_UNCERTAINTY_ASSIGNED_CONTEXT ( ( #213 ) ) GLOBAL_UNIT_ASSIGNED_CONTEXT ( ( #95, #81, #188 ) ) REPRESENTATION_CONTEXT ( 'NONE', 'WORKASPACE' ) );
#135 = CARTESIAN_POINT ( 'NONE',  ( -0.6999999999999999556, 8.572527594031473190E-17, 1.199999999999999289 ) ) ;
#136 = ADVANCED_FACE ( 'NONE', ( #111 ), #24, .F. ) ;
#137 = DIRECTION ( 'NONE',  ( -0.000000000000000000, -0.000000000000000000, -1.000000000000000000 ) ) ;
#138 = CARTESIAN_POINT ( 'NONE',  ( 0.000000000000000000, 0.000000000000000000, 101.2000000000000171 ) ) ;
#139 = ADVANCED_FACE ( 'NONE', ( #180 ), #27, .F. ) ;
#140 = DIRECTION ( 'NONE',  ( 1.000000000000000000, 0.000000000000000000, 0.000000000000000000 ) ) ;
#141 = CALENDAR_DATE ( 2022, 20, 6 ) ;
#142 = DIRECTION ( 'NONE',  ( -0.000000000000000000, -0.000000000000000000, -1.000000000000000000 ) ) ;
#143 = EDGE_CURVE ( 'NONE', #108, #62, #197, .T. ) ;
#144 = CALENDAR_DATE ( 2022, 20, 6 ) ;
#145 = CARTESIAN_POINT ( 'NONE',  ( 0.6999999999999999556, 0.000000000000000000, 1.399999999999998579 ) ) ;
#146 = PERSON_AND_ORGANIZATION ( #169, #236 ) ;
#147 = PERSON_AND_ORGANIZATION ( #169, #236 ) ;
#148 = ADVANCED_FACE ( 'NONE', ( #235, #171 ), #210, .T. ) ;
#149 = ORIENTED_EDGE ( 'NONE', *, *, #261, .F. ) ;
#150 = ORIENTED_EDGE ( 'NONE', *, *, #205, .F. ) ;
#151 = AXIS2_PLACEMENT_3D ( 'NONE', #229, #231, #240 ) ;
#152 = ORIENTED_EDGE ( 'NONE', *, *, #186, .F. ) ;
#153 = ORIENTED_EDGE ( 'NONE', *, *, #52, .F. ) ;
#154 = DIRECTION ( 'NONE',  ( -0.000000000000000000, -0.000000000000000000, -1.000000000000000000 ) ) ;
#155 = DIRECTION ( 'NONE',  ( 1.000000000000000000, 0.000000000000000000, 0.000000000000000000 ) ) ;
#156 = PRODUCT_RELATED_PRODUCT_CATEGORY ( 'detail', '', ( #237 ) ) ;
#157 = CARTESIAN_POINT ( 'NONE',  ( 0.000000000000000000, 0.000000000000000000, 0.000000000000000000 ) ) ;
#158 = CARTESIAN_POINT ( 'NONE',  ( 0.000000000000000000, 0.000000000000000000, 1.399999999999998579 ) ) ;
#159 = FACE_OUTER_BOUND ( 'NONE', #3, .T. ) ;
#160 = CARTESIAN_POINT ( 'NONE',  ( -0.5000000000000000000, 0.000000000000000000, 1.399999999999998579 ) ) ;
#161 = AXIS2_PLACEMENT_3D ( 'NONE', #145, #259, #128 ) ;
#162 = CARTESIAN_POINT ( 'NONE',  ( -1.250000000000000000, 0.000000000000000000, 1.199999999999999956 ) ) ;
#163 = PRODUCT_DEFINITION_FORMATION_WITH_SPECIFIED_SOURCE ( 'LIBOVOLNÝ', '', #237, .NOT_KNOWN. ) ;
#164 = EDGE_CURVE ( 'NONE', #99, #305, #232, .T. ) ;
#165 = PERSON_AND_ORGANIZATION_ROLE ( 'design_owner' ) ;
#166 = CARTESIAN_POINT ( 'NONE',  ( 0.000000000000000000, 0.000000000000000000, 101.2000000000000171 ) ) ;
#167 = DATE_AND_TIME ( #141, #32 ) ;
#168 = AXIS2_PLACEMENT_3D ( 'NONE', #179, #199, #9 ) ;
#169 = PERSON ( 'NEURÈENÝ', 'NEURÈENÝ', 'NEURÈENÝ', ('NEURÈENÝ'), ('NEURÈENÝ'), ('NEURÈENÝ') ) ;
#170 = AXIS2_PLACEMENT_3D ( 'NONE', #7, #45, #255 ) ;
#171 = FACE_OUTER_BOUND ( 'NONE', #105, .T. ) ;
#172 = EDGE_LOOP ( 'NONE', ( #228, #221 ) ) ;
#173 = COORDINATED_UNIVERSAL_TIME_OFFSET ( 1, 0, .AHEAD. ) ;
#174 = DESIGN_CONTEXT ( 'detailed design', #185, 'design' ) ;
#175 = ORIENTED_EDGE ( 'NONE', *, *, #22, .F. ) ;
#176 = DIRECTION ( 'NONE',  ( 1.000000000000000000, 0.000000000000000000, 0.000000000000000000 ) ) ;
#177 = EDGE_LOOP ( 'NONE', ( #153, #85, #266, #189 ) ) ;
#178 = CARTESIAN_POINT ( 'NONE',  ( -1.250000000000000000, 0.000000000000000000, 0.000000000000000000 ) ) ;
#179 = CARTESIAN_POINT ( 'NONE',  ( 0.000000000000000000, 0.000000000000000000, 1.399999999999998579 ) ) ;
#180 = FACE_OUTER_BOUND ( 'NONE', #241, .T. ) ;
#181 = ORIENTED_EDGE ( 'NONE', *, *, #15, .T. ) ;
#182 = ADVANCED_FACE ( 'NONE', ( #275 ), #76, .T. ) ;
#183 = SECURITY_CLASSIFICATION_LEVEL ( 'unclassified' ) ;
#184 = PERSON_AND_ORGANIZATION ( #169, #236 ) ;
#185 = APPLICATION_CONTEXT ( 'configuration controlled 3d designs of mechanical parts and assemblies' ) ;
#186 = EDGE_CURVE ( 'NONE', #305, #25, #282, .T. ) ;
#187 = DIRECTION ( 'NONE',  ( 1.000000000000000000, 0.000000000000000000, 0.000000000000000000 ) ) ;
#188 =( NAMED_UNIT ( * ) SI_UNIT ( $, .STERADIAN. ) SOLID_ANGLE_UNIT ( ) );
#189 = ORIENTED_EDGE ( 'NONE', *, *, #164, .F. ) ;
#190 = CIRCLE ( 'NONE', #58, 1.250000000000000000 ) ;
#191 = APPROVAL_DATE_TIME ( #61, #35 ) ;
#192 = ORIENTED_EDGE ( 'NONE', *, *, #216, .F. ) ;
#193 = DIRECTION ( 'NONE',  ( 1.224646799147353207E-16, 1.000000000000000000, -0.000000000000000000 ) ) ;
#194 = CC_DESIGN_SECURITY_CLASSIFICATION ( #12, ( #163 ) ) ;
#195 = ORIENTED_EDGE ( 'NONE', *, *, #143, .F. ) ;
#196 = CARTESIAN_POINT ( 'NONE',  ( 0.000000000000000000, 0.000000000000000000, 1.199999999999999956 ) ) ;
#197 = CIRCLE ( 'NONE', #161, 0.2000000000000000944 ) ;
#198 = DIRECTION ( 'NONE',  ( -0.000000000000000000, -0.000000000000000000, -1.000000000000000000 ) ) ;
#199 = DIRECTION ( 'NONE',  ( 0.000000000000000000, 0.000000000000000000, 1.000000000000000000 ) ) ;
#200 = AXIS2_PLACEMENT_3D ( 'NONE', #138, #92, #116 ) ;
#201 = DIRECTION ( 'NONE',  ( 0.000000000000000000, 0.000000000000000000, 1.000000000000000000 ) ) ;
#202 = DIRECTION ( 'NONE',  ( -0.000000000000000000, -0.000000000000000000, -1.000000000000000000 ) ) ;
#203 = CIRCLE ( 'NONE', #302, 1.250000000000000000 ) ;
#204 = PERSON_AND_ORGANIZATION_ROLE ( 'design_supplier' ) ;
#205 = EDGE_CURVE ( 'NONE', #108, #305, #120, .T. ) ;
#206 = CARTESIAN_POINT ( 'NONE',  ( -0.6999999999999999556, 8.572527594031471957E-17, 1.399999999999998579 ) ) ;
#207 = AXIS2_PLACEMENT_3D ( 'NONE', #253, #269, #246 ) ;
#208 = DATE_AND_TIME ( #19, #6 ) ;
#209 = ORIENTED_EDGE ( 'NONE', *, *, #22, .T. ) ;
#210 = PLANE ( 'NONE',  #114 ) ;
#211 = LOCAL_TIME ( 12, 29, 45.00000000000000000, #238 ) ;
#212 = ADVANCED_FACE ( 'NONE', ( #110 ), #106, .F. ) ;
#213 = UNCERTAINTY_MEASURE_WITH_UNIT (LENGTH_MEASURE( 1.000000000000000082E-05 ), #95, 'distance_accuracy_value', 'NONE');
#214 = CC_DESIGN_DATE_AND_TIME_ASSIGNMENT ( #272, #73, ( #97 ) ) ;
#215 = ORIENTED_EDGE ( 'NONE', *, *, #216, .T. ) ;
#216 = EDGE_CURVE ( 'NONE', #99, #296, #234, .T. ) ;
#217 = AXIS2_PLACEMENT_3D ( 'NONE', #40, #198, #37 ) ;
#218 = CARTESIAN_POINT ( 'NONE',  ( 0.000000000000000000, 0.000000000000000000, 101.2000000000000171 ) ) ;
#219 = CC_DESIGN_DATE_AND_TIME_ASSIGNMENT ( #276, #233, ( #12 ) ) ;
#220 = CYLINDRICAL_SURFACE ( 'NONE', #170, 1.250000000000000000 ) ;
#221 = ORIENTED_EDGE ( 'NONE', *, *, #227, .T. ) ;
#222 = PLANE ( 'NONE',  #200 ) ;
#223 = CC_DESIGN_APPROVAL ( #279, ( #163 ) ) ;
#224 = DIRECTION ( 'NONE',  ( 1.000000000000000000, 0.000000000000000000, 0.000000000000000000 ) ) ;
#225 = CARTESIAN_POINT ( 'NONE',  ( 1.250000000000000000, 1.530808498934191571E-16, 1.199999999999999956 ) ) ;
#226 = FACE_OUTER_BOUND ( 'NONE', #126, .T. ) ;
#227 = EDGE_CURVE ( 'NONE', #25, #62, #54, .T. ) ;
#228 = ORIENTED_EDGE ( 'NONE', *, *, #113, .T. ) ;
#229 = CARTESIAN_POINT ( 'NONE',  ( 0.000000000000000000, 0.000000000000000000, 1.199999999999999956 ) ) ;
#230 = CARTESIAN_POINT ( 'NONE',  ( 0.5000000000000000000, 6.123233995736766036E-17, 1.399999999999998579 ) ) ;
#231 = DIRECTION ( 'NONE',  ( -0.000000000000000000, -0.000000000000000000, -1.000000000000000000 ) ) ;
#232 = LINE ( 'NONE', #298, #242 ) ;
#233 = DATE_TIME_ROLE ( 'classification_date' ) ;
#234 = CIRCLE ( 'NONE', #4, 0.5000000000000000000 ) ;
#235 = FACE_BOUND ( 'NONE', #172, .T. ) ;
#236 = ORGANIZATION ( 'NEURÈENÝ', 'NEURÈENÝ', '' ) ;
#237 = PRODUCT ( '47a4', '47a4', '', ( #278 ) ) ;
#238 = COORDINATED_UNIVERSAL_TIME_OFFSET ( 1, 0, .AHEAD. ) ;
#239 = ORIENTED_EDGE ( 'NONE', *, *, #287, .T. ) ;
#240 = DIRECTION ( 'NONE',  ( -1.000000000000000000, 0.000000000000000000, 0.000000000000000000 ) ) ;
#241 = EDGE_LOOP ( 'NONE', ( #265, #263 ) ) ;
#242 = VECTOR ( 'NONE', #18, 1000.000000000000000 ) ;
#243 = EDGE_LOOP ( 'NONE', ( #215, #280 ) ) ;
#244 = VERTEX_POINT ( 'NONE', #225 ) ;
#245 = DIRECTION ( 'NONE',  ( 0.000000000000000000, 0.000000000000000000, 1.000000000000000000 ) ) ;
#246 = DIRECTION ( 'NONE',  ( 1.000000000000000000, 0.000000000000000000, 0.000000000000000000 ) ) ;
#247 = ADVANCED_FACE ( 'NONE', ( #252 ), #222, .T. ) ;
#248 = AXIS2_PLACEMENT_3D ( 'NONE', #166, #257, #50 ) ;
#249 = CC_DESIGN_PERSON_AND_ORGANIZATION_ASSIGNMENT ( #146, #75, ( #12 ) ) ;
#250 = AXIS2_PLACEMENT_3D ( 'NONE', #17, #119, #176 ) ;
#251 = ORIENTED_EDGE ( 'NONE', *, *, #100, .T. ) ;
#252 = FACE_OUTER_BOUND ( 'NONE', #243, .T. ) ;
#253 = CARTESIAN_POINT ( 'NONE',  ( 0.000000000000000000, 0.000000000000000000, 101.2000000000000171 ) ) ;
#254 = PERSON_AND_ORGANIZATION ( #169, #236 ) ;
#255 = DIRECTION ( 'NONE',  ( -1.000000000000000000, 0.000000000000000000, 0.000000000000000000 ) ) ;
#256 = CARTESIAN_POINT ( 'NONE',  ( 0.000000000000000000, 0.000000000000000000, 0.000000000000000000 ) ) ;
#257 = DIRECTION ( 'NONE',  ( -0.000000000000000000, -0.000000000000000000, -1.000000000000000000 ) ) ;
#258 = APPLICATION_PROTOCOL_DEFINITION ( 'international standard', 'config_control_design', 1994, #1 ) ;
#259 = DIRECTION ( 'NONE',  ( 0.000000000000000000, -1.000000000000000000, 0.000000000000000000 ) ) ;
#260 = APPROVAL_ROLE ( '' ) ;
#261 = EDGE_CURVE ( 'NONE', #305, #108, #21, .T. ) ;
#262 = AXIS2_PLACEMENT_3D ( 'NONE', #268, #72, #140 ) ;
#263 = ORIENTED_EDGE ( 'NONE', *, *, #100, .F. ) ;
#264 = LOCAL_TIME ( 12, 29, 45.00000000000000000, #49 ) ;
#265 = ORIENTED_EDGE ( 'NONE', *, *, #287, .F. ) ;
#266 = ORIENTED_EDGE ( 'NONE', *, *, #205, .T. ) ;
#267 = VECTOR ( 'NONE', #202, 1000.000000000000000 ) ;
#268 = CARTESIAN_POINT ( 'NONE',  ( 0.000000000000000000, 0.000000000000000000, 1.199999999999999956 ) ) ;
#269 = DIRECTION ( 'NONE',  ( 0.000000000000000000, 0.000000000000000000, 1.000000000000000000 ) ) ;
#270 = DIRECTION ( 'NONE',  ( 1.000000000000000000, 0.000000000000000000, 0.000000000000000000 ) ) ;
#271 = VERTEX_POINT ( 'NONE', #178 ) ;
#272 = DATE_AND_TIME ( #300, #211 ) ;
#273 = DIRECTION ( 'NONE',  ( 1.000000000000000000, 0.000000000000000000, 0.000000000000000000 ) ) ;
#274 = PERSON_AND_ORGANIZATION ( #169, #236 ) ;
#275 = FACE_OUTER_BOUND ( 'NONE', #177, .T. ) ;
#276 = DATE_AND_TIME ( #144, #264 ) ;
#277 = DIRECTION ( 'NONE',  ( 0.000000000000000000, 0.000000000000000000, 1.000000000000000000 ) ) ;
#278 = MECHANICAL_CONTEXT ( 'NONE', #1, 'mechanical' ) ;
#279 = APPROVAL ( #47, 'NEURÈENÝ' ) ;
#280 = ORIENTED_EDGE ( 'NONE', *, *, #52, .T. ) ;
#281 = ORIENTED_EDGE ( 'NONE', *, *, #46, .T. ) ;
#282 = CIRCLE ( 'NONE', #10, 0.1999999999999999833 ) ;
#283 = ORIENTED_EDGE ( 'NONE', *, *, #164, .T. ) ;
#284 = CARTESIAN_POINT ( 'NONE',  ( 0.000000000000000000, 0.000000000000000000, 0.000000000000000000 ) ) ;
#285 = CALENDAR_DATE ( 2022, 20, 6 ) ;
#286 = CARTESIAN_POINT ( 'NONE',  ( 0.6999999999999999556, 0.000000000000000000, 1.199999999999999289 ) ) ;
#287 = EDGE_CURVE ( 'NONE', #271, #115, #31, .T. ) ;
#288 = ADVANCED_BREP_SHAPE_REPRESENTATION ( '47a4', ( #28, #299 ), #134 ) ;
#289 = CARTESIAN_POINT ( 'NONE',  ( 1.250000000000000000, 1.530808498934191571E-16, 0.000000000000000000 ) ) ;
#290 = CARTESIAN_POINT ( 'NONE',  ( 0.5000000000000000000, 6.123233995736766036E-17, 101.2000000000000171 ) ) ;
#291 = CYLINDRICAL_SURFACE ( 'NONE', #151, 1.250000000000000000 ) ;
#292 = CC_DESIGN_PERSON_AND_ORGANIZATION_ASSIGNMENT ( #78, #118, ( #163 ) ) ;
#293 = AXIS2_PLACEMENT_3D ( 'NONE', #157, #38, #224 ) ;
#294 = PERSON_AND_ORGANIZATION_ROLE ( 'creator' ) ;
#295 = VECTOR ( 'NONE', #154, 1000.000000000000000 ) ;
#296 = VERTEX_POINT ( 'NONE', #290 ) ;
#297 = DIRECTION ( 'NONE',  ( 0.000000000000000000, 0.000000000000000000, 1.000000000000000000 ) ) ;
#298 = CARTESIAN_POINT ( 'NONE',  ( -0.5000000000000000000, 0.000000000000000000, 101.2000000000000171 ) ) ;
#299 = AXIS2_PLACEMENT_3D ( 'NONE', #256, #297, #57 ) ;
#300 = CALENDAR_DATE ( 2022, 20, 6 ) ;
#301 = DIRECTION ( 'NONE',  ( 0.000000000000000000, 0.000000000000000000, 1.000000000000000000 ) ) ;
#302 = AXIS2_PLACEMENT_3D ( 'NONE', #284, #201, #273 ) ;
#303 = ADVANCED_FACE ( 'NONE', ( #226 ), #291, .T. ) ;
#304 = CARTESIAN_POINT ( 'NONE',  ( 0.000000000000000000, 0.000000000000000000, 0.000000000000000000 ) ) ;
#305 = VERTEX_POINT ( 'NONE', #160 ) ;
#306 = CC_DESIGN_APPROVAL ( #55, ( #97 ) ) ;
#307 = CARTESIAN_POINT ( 'NONE',  ( 0.000000000000000000, 0.000000000000000000, 1.199999999999999956 ) ) ;
ENDSEC;
END-ISO-10303-21;
