ISO-10303-21;
HEADER;
FILE_DESCRIPTION (( 'STEP AP203' ),
    '1' );
FILE_NAME ('f714.STEP',
    '2022-06-20T10:03:03',
    ( '' ),
    ( '' ),
    'SwSTEP 2.0',
    'SolidWorks 2019',
    '' );
FILE_SCHEMA (( 'CONFIG_CONTROL_DESIGN' ));
ENDSEC;

DATA;
#1 = FACE_OUTER_BOUND ( 'NONE', #63, .T. ) ;
#2 = CARTESIAN_POINT ( 'NONE',  ( 0.000000000000000000, 0.000000000000000000, 3.199999999999980638 ) ) ;
#3 = ADVANCED_FACE ( 'NONE', ( #1 ), #28, .F. ) ;
#4 = EDGE_LOOP ( 'NONE', ( #162, #27 ) ) ;
#5 = CIRCLE ( 'NONE', #119, 0.2000000000000000944 ) ;
#6 = FACE_OUTER_BOUND ( 'NONE', #134, .T. ) ;
#7 = FACE_OUTER_BOUND ( 'NONE', #264, .T. ) ;
#8 = ADVANCED_FACE ( 'NONE', ( #259 ), #147, .F. ) ;
#9 = DIRECTION ( 'NONE',  ( 1.000000000000000000, 0.000000000000000000, 0.000000000000000000 ) ) ;
#10 = DIRECTION ( 'NONE',  ( 0.000000000000000000, 0.000000000000000000, 1.000000000000000000 ) ) ;
#11 = PRODUCT_RELATED_PRODUCT_CATEGORY ( 'detail', '', ( #193 ) ) ;
#12 = PRODUCT_DEFINITION_FORMATION_WITH_SPECIFIED_SOURCE ( 'LIBOVOLNÝ', '', #193, .NOT_KNOWN. ) ;
#13 = CARTESIAN_POINT ( 'NONE',  ( 5.000000000000000000, 6.123233995736766282E-16, 3.000000000000000000 ) ) ;
#14 = ORIENTED_EDGE ( 'NONE', *, *, #117, .T. ) ;
#15 = CARTESIAN_POINT ( 'NONE',  ( 2.500000000000000000, 3.061616997868383141E-16, 503.0000000000000000 ) ) ;
#16 = AXIS2_PLACEMENT_3D ( 'NONE', #135, #220, #94 ) ;
#17 = APPROVAL_ROLE ( '' ) ;
#18 = CC_DESIGN_APPROVAL ( #229, ( #245 ) ) ;
#19 = DESIGN_CONTEXT ( 'detailed design', #86, 'design' ) ;
#20 =( LENGTH_UNIT ( ) NAMED_UNIT ( * ) SI_UNIT ( .MILLI., .METRE. ) );
#21 = DIRECTION ( 'NONE',  ( 1.000000000000000000, 0.000000000000000000, -0.000000000000000000 ) ) ;
#22 = EDGE_CURVE ( 'NONE', #178, #88, #51, .T. ) ;
#23 = PERSON_AND_ORGANIZATION ( #157, #38 ) ;
#24 = DIRECTION ( 'NONE',  ( -1.000000000000000000, 0.000000000000000000, 0.000000000000000000 ) ) ;
#25 = ORIENTED_EDGE ( 'NONE', *, *, #127, .T. ) ;
#26 = PERSON_AND_ORGANIZATION ( #157, #38 ) ;
#27 = ORIENTED_EDGE ( 'NONE', *, *, #22, .T. ) ;
#28 = PLANE ( 'NONE',  #286 ) ;
#29 = AXIS2_PLACEMENT_3D ( 'NONE', #37, #10, #267 ) ;
#30 = APPROVAL_DATE_TIME ( #190, #229 ) ;
#31 = CYLINDRICAL_SURFACE ( 'NONE', #109, 2.500000000000000000 ) ;
#32 = CC_DESIGN_PERSON_AND_ORGANIZATION_ASSIGNMENT ( #307, #131, ( #273 ) ) ;
#33 = CARTESIAN_POINT ( 'NONE',  ( 5.000000000000000000, 6.123233995736766282E-16, 3.000000000000000000 ) ) ;
#34 = AXIS2_PLACEMENT_3D ( 'NONE', #126, #235, #136 ) ;
#35 = AXIS2_PLACEMENT_3D ( 'NONE', #272, #56, #249 ) ;
#36 = DIRECTION ( 'NONE',  ( 1.000000000000000000, 0.000000000000000000, 0.000000000000000000 ) ) ;
#37 = CARTESIAN_POINT ( 'NONE',  ( 0.000000000000000000, 0.000000000000000000, 3.199999999999980638 ) ) ;
#38 = ORGANIZATION ( 'NEURÈENÝ', 'NEURÈENÝ', '' ) ;
#39 = DIRECTION ( 'NONE',  ( -0.000000000000000000, -0.000000000000000000, -1.000000000000000000 ) ) ;
#40 = APPROVAL_DATE_TIME ( #213, #80 ) ;
#41 = CIRCLE ( 'NONE', #295, 2.500000000000000000 ) ;
#42 = ORIENTED_EDGE ( 'NONE', *, *, #301, .F. ) ;
#43 = PERSON_AND_ORGANIZATION ( #157, #38 ) ;
#44 = DIRECTION ( 'NONE',  ( -1.000000000000000000, 0.000000000000000000, 0.000000000000000000 ) ) ;
#45 = EDGE_LOOP ( 'NONE', ( #42, #129, #250, #137 ) ) ;
#46 = ADVANCED_FACE ( 'NONE', ( #92 ), #218, .T. ) ;
#47 = APPROVAL_ROLE ( '' ) ;
#48 = DIRECTION ( 'NONE',  ( 1.000000000000000000, 0.000000000000000000, 0.000000000000000000 ) ) ;
#49 = DIRECTION ( 'NONE',  ( 1.000000000000000000, 0.000000000000000000, 0.000000000000000000 ) ) ;
#50 = APPROVAL_STATUS ( 'not_yet_approved' ) ;
#51 = CIRCLE ( 'NONE', #189, 2.700000000000000178 ) ;
#52 = CARTESIAN_POINT ( 'NONE',  ( 0.000000000000000000, 0.000000000000000000, 3.000000000000000000 ) ) ;
#53 = CIRCLE ( 'NONE', #70, 2.500000000000000000 ) ;
#54 = DIRECTION ( 'NONE',  ( 0.000000000000000000, 0.000000000000000000, 1.000000000000000000 ) ) ;
#55 = APPROVAL_PERSON_ORGANIZATION ( #23, #80, #305 ) ;
#56 = DIRECTION ( 'NONE',  ( 0.000000000000000000, 0.000000000000000000, 1.000000000000000000 ) ) ;
#57 = EDGE_LOOP ( 'NONE', ( #228, #185, #188, #201 ) ) ;
#58 = CARTESIAN_POINT ( 'NONE',  ( -2.500000000000000000, 0.000000000000000000, 3.199999999999980638 ) ) ;
#59 = DIRECTION ( 'NONE',  ( 0.000000000000000000, 0.000000000000000000, 1.000000000000000000 ) ) ;
#60 = APPROVAL_DATE_TIME ( #279, #171 ) ;
#61 = UNCERTAINTY_MEASURE_WITH_UNIT (LENGTH_MEASURE( 1.000000000000000082E-05 ), #20, 'distance_accuracy_value', 'NONE');
#62 = DIRECTION ( 'NONE',  ( 1.000000000000000000, 0.000000000000000000, 0.000000000000000000 ) ) ;
#63 = EDGE_LOOP ( 'NONE', ( #114, #153 ) ) ;
#64 = CIRCLE ( 'NONE', #173, 5.000000000000000000 ) ;
#65 = CC_DESIGN_PERSON_AND_ORGANIZATION_ASSIGNMENT ( #98, #73, ( #12 ) ) ;
#66 = ORIENTED_EDGE ( 'NONE', *, *, #127, .F. ) ;
#67 = DATE_AND_TIME ( #284, #145 ) ;
#68 = EDGE_LOOP ( 'NONE', ( #150, #96, #84, #118 ) ) ;
#69 = CYLINDRICAL_SURFACE ( 'NONE', #78, 2.500000000000000000 ) ;
#70 = AXIS2_PLACEMENT_3D ( 'NONE', #221, #103, #144 ) ;
#71 = SHAPE_DEFINITION_REPRESENTATION ( #99, #251 ) ;
#72 = CARTESIAN_POINT ( 'NONE',  ( 0.000000000000000000, 0.000000000000000000, 3.199999999999980638 ) ) ;
#73 = PERSON_AND_ORGANIZATION_ROLE ( 'design_supplier' ) ;
#74 = DIRECTION ( 'NONE',  ( -0.000000000000000000, -0.000000000000000000, -1.000000000000000000 ) ) ;
#75 = LINE ( 'NONE', #169, #277 ) ;
#76 = PERSON_AND_ORGANIZATION_ROLE ( 'classification_officer' ) ;
#77 = APPLICATION_CONTEXT ( 'configuration controlled 3d designs of mechanical parts and assemblies' ) ;
#78 = AXIS2_PLACEMENT_3D ( 'NONE', #238, #165, #24 ) ;
#79 = CARTESIAN_POINT ( 'NONE',  ( -5.000000000000000000, 0.000000000000000000, 3.000000000000000000 ) ) ;
#80 = APPROVAL ( #112, 'NEURÈENÝ' ) ;
#81 = CARTESIAN_POINT ( 'NONE',  ( 0.000000000000000000, 0.000000000000000000, 3.000000000000000000 ) ) ;
#82 = ORIENTED_EDGE ( 'NONE', *, *, #301, .T. ) ;
#83 = LINE ( 'NONE', #33, #243 ) ;
#84 = ORIENTED_EDGE ( 'NONE', *, *, #226, .T. ) ;
#85 = AXIS2_PLACEMENT_3D ( 'NONE', #182, #59, #62 ) ;
#86 = APPLICATION_CONTEXT ( 'configuration controlled 3d designs of mechanical parts and assemblies' ) ;
#87 = AXIS2_PLACEMENT_3D ( 'NONE', #81, #224, #100 ) ;
#88 = VERTEX_POINT ( 'NONE', #160 ) ;
#89 = LOCAL_TIME ( 12, 3, 3.000000000000000000, #93 ) ;
#90 = EDGE_CURVE ( 'NONE', #88, #178, #206, .T. ) ;
#91 = DIRECTION ( 'NONE',  ( 1.000000000000000000, 0.000000000000000000, 0.000000000000000000 ) ) ;
#92 = FACE_OUTER_BOUND ( 'NONE', #45, .T. ) ;
#93 = COORDINATED_UNIVERSAL_TIME_OFFSET ( 1, 0, .AHEAD. ) ;
#94 = DIRECTION ( 'NONE',  ( 1.000000000000000000, 0.000000000000000000, 0.000000000000000000 ) ) ;
#95 = CIRCLE ( 'NONE', #252, 5.000000000000000000 ) ;
#96 = ORIENTED_EDGE ( 'NONE', *, *, #215, .F. ) ;
#97 = ADVANCED_FACE ( 'NONE', ( #289 ), #69, .T. ) ;
#98 = PERSON_AND_ORGANIZATION ( #157, #38 ) ;
#99 = PRODUCT_DEFINITION_SHAPE ( 'NONE', 'NONE',  #273 ) ;
#100 = DIRECTION ( 'NONE',  ( -1.000000000000000000, 0.000000000000000000, 0.000000000000000000 ) ) ;
#101 = FACE_OUTER_BOUND ( 'NONE', #212, .T. ) ;
#102 = VECTOR ( 'NONE', #74, 1000.000000000000000 ) ;
#103 = DIRECTION ( 'NONE',  ( 0.000000000000000000, 0.000000000000000000, 1.000000000000000000 ) ) ;
#104 = ORIENTED_EDGE ( 'NONE', *, *, #270, .T. ) ;
#105 = CIRCLE ( 'NONE', #138, 2.500000000000000000 ) ;
#106 = CARTESIAN_POINT ( 'NONE',  ( 0.000000000000000000, 0.000000000000000000, 503.0000000000000000 ) ) ;
#107 = ORIENTED_EDGE ( 'NONE', *, *, #183, .T. ) ;
#108 = LINE ( 'NONE', #200, #102 ) ;
#109 = AXIS2_PLACEMENT_3D ( 'NONE', #172, #196, #230 ) ;
#110 = LINE ( 'NONE', #179, #116 ) ;
#111 = CC_DESIGN_PERSON_AND_ORGANIZATION_ASSIGNMENT ( #158, #269, ( #12 ) ) ;
#112 = APPROVAL_STATUS ( 'not_yet_approved' ) ;
#113 = DIRECTION ( 'NONE',  ( 0.000000000000000000, 0.000000000000000000, 1.000000000000000000 ) ) ;
#114 = ORIENTED_EDGE ( 'NONE', *, *, #266, .F. ) ;
#115 = DIRECTION ( 'NONE',  ( 0.000000000000000000, 0.000000000000000000, 1.000000000000000000 ) ) ;
#116 = VECTOR ( 'NONE', #39, 1000.000000000000000 ) ;
#117 = EDGE_CURVE ( 'NONE', #283, #285, #41, .T. ) ;
#118 = ORIENTED_EDGE ( 'NONE', *, *, #266, .T. ) ;
#119 = AXIS2_PLACEMENT_3D ( 'NONE', #271, #293, #244 ) ;
#120 = CARTESIAN_POINT ( 'NONE',  ( 2.700000000000000178, 0.000000000000000000, 3.199999999999980638 ) ) ;
#121 = DIRECTION ( 'NONE',  ( -0.000000000000000000, -0.000000000000000000, -1.000000000000000000 ) ) ;
#122 = TOROIDAL_SURFACE ( 'NONE', #29, 2.700000000000000178, 0.2000000000000000111 ) ;
#123 = ADVANCED_FACE ( 'NONE', ( #6 ), #142, .T. ) ;
#124 = MANIFOLD_SOLID_BREP ( 'Zaoblit1', #211 ) ;
#125 = APPROVAL_PERSON_ORGANIZATION ( #260, #171, #17 ) ;
#126 = CARTESIAN_POINT ( 'NONE',  ( 0.000000000000000000, 0.000000000000000000, 0.000000000000000000 ) ) ;
#127 = EDGE_CURVE ( 'NONE', #139, #283, #110, .T. ) ;
#128 = DIRECTION ( 'NONE',  ( 0.000000000000000000, 0.000000000000000000, 1.000000000000000000 ) ) ;
#129 = ORIENTED_EDGE ( 'NONE', *, *, #256, .T. ) ;
#130 = DIRECTION ( 'NONE',  ( 0.000000000000000000, 0.000000000000000000, -1.000000000000000000 ) ) ;
#131 = PERSON_AND_ORGANIZATION_ROLE ( 'creator' ) ;
#132 =( NAMED_UNIT ( * ) PLANE_ANGLE_UNIT ( ) SI_UNIT ( $, .RADIAN. ) );
#133 = CC_DESIGN_PERSON_AND_ORGANIZATION_ASSIGNMENT ( #43, #237, ( #193 ) ) ;
#134 = EDGE_LOOP ( 'NONE', ( #104, #306 ) ) ;
#135 = CARTESIAN_POINT ( 'NONE',  ( 0.000000000000000000, 0.000000000000000000, 3.000000000000000000 ) ) ;
#136 = DIRECTION ( 'NONE',  ( 1.000000000000000000, 0.000000000000000000, 0.000000000000000000 ) ) ;
#137 = ORIENTED_EDGE ( 'NONE', *, *, #226, .F. ) ;
#138 = AXIS2_PLACEMENT_3D ( 'NONE', #152, #253, #36 ) ;
#139 = VERTEX_POINT ( 'NONE', #15 ) ;
#140 = CALENDAR_DATE ( 2022, 20, 6 ) ;
#141 = ADVANCED_FACE ( 'NONE', ( #177 ), #294, .T. ) ;
#142 = PLANE ( 'NONE',  #219 ) ;
#143 = SECURITY_CLASSIFICATION_LEVEL ( 'unclassified' ) ;
#144 = DIRECTION ( 'NONE',  ( 1.000000000000000000, 0.000000000000000000, 0.000000000000000000 ) ) ;
#145 = LOCAL_TIME ( 12, 3, 3.000000000000000000, #186 ) ;
#146 = FACE_OUTER_BOUND ( 'NONE', #164, .T. ) ;
#147 = TOROIDAL_SURFACE ( 'NONE', #280, 2.700000000000000178, 0.2000000000000000111 ) ;
#148 = APPROVAL_PERSON_ORGANIZATION ( #26, #229, #47 ) ;
#149 = PLANE ( 'NONE',  #35 ) ;
#150 = ORIENTED_EDGE ( 'NONE', *, *, #256, .F. ) ;
#151 = CARTESIAN_POINT ( 'NONE',  ( 0.000000000000000000, 0.000000000000000000, 0.000000000000000000 ) ) ;
#152 = CARTESIAN_POINT ( 'NONE',  ( 0.000000000000000000, 0.000000000000000000, 3.199999999999980638 ) ) ;
#153 = ORIENTED_EDGE ( 'NONE', *, *, #296, .F. ) ;
#154 = CC_DESIGN_SECURITY_CLASSIFICATION ( #245, ( #12 ) ) ;
#155 = ADVANCED_FACE ( 'NONE', ( #7 ), #122, .F. ) ;
#156 = MECHANICAL_CONTEXT ( 'NONE', #77, 'mechanical' ) ;
#157 = PERSON ( 'NEURÈENÝ', 'NEURÈENÝ', 'NEURÈENÝ', ('NEURÈENÝ'), ('NEURÈENÝ'), ('NEURÈENÝ') ) ;
#158 = PERSON_AND_ORGANIZATION ( #157, #38 ) ;
#159 = COORDINATED_UNIVERSAL_TIME_OFFSET ( 1, 0, .AHEAD. ) ;
#160 = CARTESIAN_POINT ( 'NONE',  ( 2.700000000000000178, 0.000000000000000000, 2.999999999999990674 ) ) ;
#161 = EDGE_CURVE ( 'NONE', #285, #178, #5, .T. ) ;
#162 = ORIENTED_EDGE ( 'NONE', *, *, #90, .T. ) ;
#163 = DATE_TIME_ROLE ( 'creation_date' ) ;
#164 = EDGE_LOOP ( 'NONE', ( #258, #82 ) ) ;
#165 = DIRECTION ( 'NONE',  ( -0.000000000000000000, -0.000000000000000000, -1.000000000000000000 ) ) ;
#166 = AXIS2_PLACEMENT_3D ( 'NONE', #106, #298, #275 ) ;
#167 = LOCAL_TIME ( 12, 3, 3.000000000000000000, #265 ) ;
#168 = DIRECTION ( 'NONE',  ( 1.000000000000000000, 0.000000000000000000, -0.000000000000000000 ) ) ;
#169 = CARTESIAN_POINT ( 'NONE',  ( -2.500000000000000000, 0.000000000000000000, 503.0000000000000000 ) ) ;
#170 = AXIS2_PLACEMENT_3D ( 'NONE', #214, #187, #44 ) ;
#171 = APPROVAL ( #207, 'NEURÈENÝ' ) ;
#172 = CARTESIAN_POINT ( 'NONE',  ( 0.000000000000000000, 0.000000000000000000, 503.0000000000000000 ) ) ;
#173 = AXIS2_PLACEMENT_3D ( 'NONE', #151, #128, #9 ) ;
#174 = CALENDAR_DATE ( 2022, 20, 6 ) ;
#175 = AXIS2_PLACEMENT_3D ( 'NONE', #120, #195, #130 ) ;
#176 = CARTESIAN_POINT ( 'NONE',  ( -2.500000000000000000, 0.000000000000000000, 503.0000000000000000 ) ) ;
#177 = FACE_OUTER_BOUND ( 'NONE', #68, .T. ) ;
#178 = VERTEX_POINT ( 'NONE', #292 ) ;
#179 = CARTESIAN_POINT ( 'NONE',  ( 2.500000000000000000, 3.061616997868383141E-16, 503.0000000000000000 ) ) ;
#180 =( GEOMETRIC_REPRESENTATION_CONTEXT ( 3 ) GLOBAL_UNCERTAINTY_ASSIGNED_CONTEXT ( ( #61 ) ) GLOBAL_UNIT_ASSIGNED_CONTEXT ( ( #20, #132, #278 ) ) REPRESENTATION_CONTEXT ( 'NONE', 'WORKASPACE' ) );
#181 = CALENDAR_DATE ( 2022, 20, 6 ) ;
#182 = CARTESIAN_POINT ( 'NONE',  ( 0.000000000000000000, 0.000000000000000000, 0.000000000000000000 ) ) ;
#183 = EDGE_CURVE ( 'NONE', #283, #88, #184, .T. ) ;
#184 = CIRCLE ( 'NONE', #175, 0.2000000000000000944 ) ;
#185 = ORIENTED_EDGE ( 'NONE', *, *, #161, .T. ) ;
#186 = COORDINATED_UNIVERSAL_TIME_OFFSET ( 1, 0, .AHEAD. ) ;
#187 = DIRECTION ( 'NONE',  ( -0.000000000000000000, -0.000000000000000000, -1.000000000000000000 ) ) ;
#188 = ORIENTED_EDGE ( 'NONE', *, *, #90, .F. ) ;
#189 = AXIS2_PLACEMENT_3D ( 'NONE', #239, #287, #48 ) ;
#190 = DATE_AND_TIME ( #140, #89 ) ;
#191 = CC_DESIGN_DATE_AND_TIME_ASSIGNMENT ( #194, #217, ( #245 ) ) ;
#192 = CARTESIAN_POINT ( 'NONE',  ( 0.000000000000000000, 0.000000000000000000, 503.0000000000000000 ) ) ;
#193 = PRODUCT ( 'f714', 'f714', '', ( #156 ) ) ;
#194 = DATE_AND_TIME ( #174, #167 ) ;
#195 = DIRECTION ( 'NONE',  ( 0.000000000000000000, -1.000000000000000000, 0.000000000000000000 ) ) ;
#196 = DIRECTION ( 'NONE',  ( -0.000000000000000000, -0.000000000000000000, -1.000000000000000000 ) ) ;
#197 = CIRCLE ( 'NONE', #166, 2.500000000000000000 ) ;
#198 = EDGE_CURVE ( 'NONE', #139, #254, #53, .T. ) ;
#199 = CIRCLE ( 'NONE', #288, 5.000000000000000000 ) ;
#200 = CARTESIAN_POINT ( 'NONE',  ( -5.000000000000000000, 0.000000000000000000, 3.000000000000000000 ) ) ;
#201 = ORIENTED_EDGE ( 'NONE', *, *, #183, .F. ) ;
#202 = DIRECTION ( 'NONE',  ( 1.000000000000000000, 0.000000000000000000, 0.000000000000000000 ) ) ;
#203 = ORIENTED_EDGE ( 'NONE', *, *, #290, .T. ) ;
#204 = DIRECTION ( 'NONE',  ( 1.000000000000000000, 0.000000000000000000, 0.000000000000000000 ) ) ;
#205 = ORIENTED_EDGE ( 'NONE', *, *, #198, .F. ) ;
#206 = CIRCLE ( 'NONE', #16, 2.700000000000000178 ) ;
#207 = APPROVAL_STATUS ( 'not_yet_approved' ) ;
#208 = CC_DESIGN_APPROVAL ( #171, ( #12 ) ) ;
#209 = EDGE_CURVE ( 'NONE', #254, #285, #75, .T. ) ;
#210 = DIRECTION ( 'NONE',  ( 0.000000000000000000, 0.000000000000000000, 1.000000000000000000 ) ) ;
#211 = CLOSED_SHELL ( 'NONE', ( #8, #97, #46, #141, #248, #3, #234, #123, #155 ) ) ;
#212 = EDGE_LOOP ( 'NONE', ( #66, #231, #276, #203 ) ) ;
#213 = DATE_AND_TIME ( #257, #227 ) ;
#214 = CARTESIAN_POINT ( 'NONE',  ( 0.000000000000000000, 0.000000000000000000, 3.000000000000000000 ) ) ;
#215 = EDGE_CURVE ( 'NONE', #274, #241, #199, .T. ) ;
#216 = EDGE_LOOP ( 'NONE', ( #205, #25, #14, #299 ) ) ;
#217 = DATE_TIME_ROLE ( 'classification_date' ) ;
#218 = CYLINDRICAL_SURFACE ( 'NONE', #170, 5.000000000000000000 ) ;
#219 = AXIS2_PLACEMENT_3D ( 'NONE', #192, #236, #21 ) ;
#220 = DIRECTION ( 'NONE',  ( -0.000000000000000000, -0.000000000000000000, -1.000000000000000000 ) ) ;
#221 = CARTESIAN_POINT ( 'NONE',  ( 0.000000000000000000, 0.000000000000000000, 503.0000000000000000 ) ) ;
#222 = CARTESIAN_POINT ( 'NONE',  ( -5.000000000000000000, 0.000000000000000000, 0.000000000000000000 ) ) ;
#223 = CC_DESIGN_APPROVAL ( #80, ( #273 ) ) ;
#224 = DIRECTION ( 'NONE',  ( -0.000000000000000000, -0.000000000000000000, -1.000000000000000000 ) ) ;
#225 = ORIENTED_EDGE ( 'NONE', *, *, #161, .F. ) ;
#226 = EDGE_CURVE ( 'NONE', #274, #263, #108, .T. ) ;
#227 = LOCAL_TIME ( 12, 3, 3.000000000000000000, #159 ) ;
#228 = ORIENTED_EDGE ( 'NONE', *, *, #290, .F. ) ;
#229 = APPROVAL ( #50, 'NEURÈENÝ' ) ;
#230 = DIRECTION ( 'NONE',  ( -1.000000000000000000, 0.000000000000000000, 0.000000000000000000 ) ) ;
#231 = ORIENTED_EDGE ( 'NONE', *, *, #270, .F. ) ;
#232 = CARTESIAN_POINT ( 'NONE',  ( 5.000000000000000000, 6.123233995736766282E-16, 0.000000000000000000 ) ) ;
#233 = CARTESIAN_POINT ( 'NONE',  ( 0.000000000000000000, 0.000000000000000000, 3.000000000000000000 ) ) ;
#234 = ADVANCED_FACE ( 'NONE', ( #101 ), #31, .T. ) ;
#235 = DIRECTION ( 'NONE',  ( 0.000000000000000000, 0.000000000000000000, 1.000000000000000000 ) ) ;
#236 = DIRECTION ( 'NONE',  ( 0.000000000000000000, 0.000000000000000000, 1.000000000000000000 ) ) ;
#237 = PERSON_AND_ORGANIZATION_ROLE ( 'design_owner' ) ;
#238 = CARTESIAN_POINT ( 'NONE',  ( 0.000000000000000000, 0.000000000000000000, 503.0000000000000000 ) ) ;
#239 = CARTESIAN_POINT ( 'NONE',  ( 0.000000000000000000, 0.000000000000000000, 3.000000000000000000 ) ) ;
#240 = DIRECTION ( 'NONE',  ( 0.000000000000000000, 0.000000000000000000, 1.000000000000000000 ) ) ;
#241 = VERTEX_POINT ( 'NONE', #13 ) ;
#242 = DIRECTION ( 'NONE',  ( -0.000000000000000000, -0.000000000000000000, -1.000000000000000000 ) ) ;
#243 = VECTOR ( 'NONE', #121, 1000.000000000000000 ) ;
#244 = DIRECTION ( 'NONE',  ( -1.000000000000000000, 1.224646799147353207E-16, 0.000000000000000000 ) ) ;
#245 = SECURITY_CLASSIFICATION ( '', '', #143 ) ;
#246 = CARTESIAN_POINT ( 'NONE',  ( 2.500000000000000000, 3.061616997868383141E-16, 3.199999999999980638 ) ) ;
#247 = ORIENTED_EDGE ( 'NONE', *, *, #117, .F. ) ;
#248 = ADVANCED_FACE ( 'NONE', ( #268, #146 ), #149, .T. ) ;
#249 = DIRECTION ( 'NONE',  ( 1.000000000000000000, 0.000000000000000000, -0.000000000000000000 ) ) ;
#250 = ORIENTED_EDGE ( 'NONE', *, *, #296, .T. ) ;
#251 = ADVANCED_BREP_SHAPE_REPRESENTATION ( 'f714', ( #124, #85 ), #180 ) ;
#252 = AXIS2_PLACEMENT_3D ( 'NONE', #233, #210, #204 ) ;
#253 = DIRECTION ( 'NONE',  ( 0.000000000000000000, 0.000000000000000000, 1.000000000000000000 ) ) ;
#254 = VERTEX_POINT ( 'NONE', #176 ) ;
#255 = APPLICATION_PROTOCOL_DEFINITION ( 'international standard', 'config_control_design', 1994, #86 ) ;
#256 = EDGE_CURVE ( 'NONE', #241, #300, #83, .T. ) ;
#257 = CALENDAR_DATE ( 2022, 20, 6 ) ;
#258 = ORIENTED_EDGE ( 'NONE', *, *, #215, .T. ) ;
#259 = FACE_OUTER_BOUND ( 'NONE', #57, .T. ) ;
#260 = PERSON_AND_ORGANIZATION ( #157, #38 ) ;
#261 = CARTESIAN_POINT ( 'NONE',  ( 0.000000000000000000, 0.000000000000000000, 0.000000000000000000 ) ) ;
#262 = CIRCLE ( 'NONE', #34, 5.000000000000000000 ) ;
#263 = VERTEX_POINT ( 'NONE', #222 ) ;
#264 = EDGE_LOOP ( 'NONE', ( #225, #247, #107, #297 ) ) ;
#265 = COORDINATED_UNIVERSAL_TIME_OFFSET ( 1, 0, .AHEAD. ) ;
#266 = EDGE_CURVE ( 'NONE', #263, #300, #64, .T. ) ;
#267 = DIRECTION ( 'NONE',  ( 1.000000000000000000, 0.000000000000000000, 0.000000000000000000 ) ) ;
#268 = FACE_BOUND ( 'NONE', #4, .T. ) ;
#269 = PERSON_AND_ORGANIZATION_ROLE ( 'creator' ) ;
#270 = EDGE_CURVE ( 'NONE', #254, #139, #197, .T. ) ;
#271 = CARTESIAN_POINT ( 'NONE',  ( -2.700000000000000178, 3.306546357697853733E-16, 3.199999999999980638 ) ) ;
#272 = CARTESIAN_POINT ( 'NONE',  ( 0.000000000000000000, 0.000000000000000000, 3.000000000000000000 ) ) ;
#273 = PRODUCT_DEFINITION ( 'NEZNÁMÝ', '', #12, #19 ) ;
#274 = VERTEX_POINT ( 'NONE', #79 ) ;
#275 = DIRECTION ( 'NONE',  ( 1.000000000000000000, 0.000000000000000000, 0.000000000000000000 ) ) ;
#276 = ORIENTED_EDGE ( 'NONE', *, *, #209, .T. ) ;
#277 = VECTOR ( 'NONE', #242, 1000.000000000000000 ) ;
#278 =( NAMED_UNIT ( * ) SI_UNIT ( $, .STERADIAN. ) SOLID_ANGLE_UNIT ( ) );
#279 = DATE_AND_TIME ( #181, #302 ) ;
#280 = AXIS2_PLACEMENT_3D ( 'NONE', #2, #115, #91 ) ;
#281 = APPLICATION_PROTOCOL_DEFINITION ( 'international standard', 'config_control_design', 1994, #77 ) ;
#282 = CC_DESIGN_DATE_AND_TIME_ASSIGNMENT ( #67, #163, ( #273 ) ) ;
#283 = VERTEX_POINT ( 'NONE', #246 ) ;
#284 = CALENDAR_DATE ( 2022, 20, 6 ) ;
#285 = VERTEX_POINT ( 'NONE', #58 ) ;
#286 = AXIS2_PLACEMENT_3D ( 'NONE', #261, #240, #168 ) ;
#287 = DIRECTION ( 'NONE',  ( -0.000000000000000000, -0.000000000000000000, -1.000000000000000000 ) ) ;
#288 = AXIS2_PLACEMENT_3D ( 'NONE', #52, #54, #202 ) ;
#289 = FACE_OUTER_BOUND ( 'NONE', #216, .T. ) ;
#290 = EDGE_CURVE ( 'NONE', #285, #283, #105, .T. ) ;
#291 = PERSON_AND_ORGANIZATION ( #157, #38 ) ;
#292 = CARTESIAN_POINT ( 'NONE',  ( -2.700000000000000178, 3.306546357697853733E-16, 2.999999999999990674 ) ) ;
#293 = DIRECTION ( 'NONE',  ( 1.224646799147353207E-16, 1.000000000000000000, -0.000000000000000000 ) ) ;
#294 = CYLINDRICAL_SURFACE ( 'NONE', #87, 5.000000000000000000 ) ;
#295 = AXIS2_PLACEMENT_3D ( 'NONE', #72, #113, #49 ) ;
#296 = EDGE_CURVE ( 'NONE', #300, #263, #262, .T. ) ;
#297 = ORIENTED_EDGE ( 'NONE', *, *, #22, .F. ) ;
#298 = DIRECTION ( 'NONE',  ( 0.000000000000000000, 0.000000000000000000, 1.000000000000000000 ) ) ;
#299 = ORIENTED_EDGE ( 'NONE', *, *, #209, .F. ) ;
#300 = VERTEX_POINT ( 'NONE', #232 ) ;
#301 = EDGE_CURVE ( 'NONE', #241, #274, #95, .T. ) ;
#302 = LOCAL_TIME ( 12, 3, 3.000000000000000000, #303 ) ;
#303 = COORDINATED_UNIVERSAL_TIME_OFFSET ( 1, 0, .AHEAD. ) ;
#304 = CC_DESIGN_PERSON_AND_ORGANIZATION_ASSIGNMENT ( #291, #76, ( #245 ) ) ;
#305 = APPROVAL_ROLE ( '' ) ;
#306 = ORIENTED_EDGE ( 'NONE', *, *, #198, .T. ) ;
#307 = PERSON_AND_ORGANIZATION ( #157, #38 ) ;
ENDSEC;
END-ISO-10303-21;
