ISO-10303-21;
HEADER;
FILE_DESCRIPTION (( 'STEP AP203' ),
    '1' );
FILE_NAME ('5ee9.STEP',
    '2022-06-20T09:40:50',
    ( '' ),
    ( '' ),
    'SwSTEP 2.0',
    'SolidWorks 2019',
    '' );
FILE_SCHEMA (( 'CONFIG_CONTROL_DESIGN' ));
ENDSEC;

DATA;
#1 = AXIS2_PLACEMENT_3D ( 'NONE', #56, #172, #269 ) ;
#2 = TOROIDAL_SURFACE ( 'NONE', #174, 5.200000000000001066, 0.2000000000000000111 ) ;
#3 = CARTESIAN_POINT ( 'NONE',  ( 0.000000000000000000, 0.000000000000000000, 5.000000000000000000 ) ) ;
#4 = CARTESIAN_POINT ( 'NONE',  ( 0.000000000000000000, 0.000000000000000000, 5.000000000000000000 ) ) ;
#5 = DIRECTION ( 'NONE',  ( -1.000000000000000000, 0.000000000000000000, 0.000000000000000000 ) ) ;
#6 = UNCERTAINTY_MEASURE_WITH_UNIT (LENGTH_MEASURE( 1.000000000000000082E-05 ), #49, 'distance_accuracy_value', 'NONE');
#7 = PLANE ( 'NONE',  #39 ) ;
#8 = ORGANIZATION ( 'NEURÈENÝ', 'NEURÈENÝ', '' ) ;
#9 = ORIENTED_EDGE ( 'NONE', *, *, #244, .T. ) ;
#10 = COORDINATED_UNIVERSAL_TIME_OFFSET ( 1, 0, .AHEAD. ) ;
#11 = SHAPE_DEFINITION_REPRESENTATION ( #23, #183 ) ;
#12 = EDGE_CURVE ( 'NONE', #161, #239, #92, .T. ) ;
#13 = ORIENTED_EDGE ( 'NONE', *, *, #65, .T. ) ;
#14 = CIRCLE ( 'NONE', #171, 0.1999999999999996503 ) ;
#15 = ORIENTED_EDGE ( 'NONE', *, *, #70, .F. ) ;
#16 = VERTEX_POINT ( 'NONE', #288 ) ;
#17 = APPROVAL_ROLE ( '' ) ;
#18 = DIRECTION ( 'NONE',  ( 1.000000000000000000, 0.000000000000000000, -0.000000000000000000 ) ) ;
#19 = APPROVAL_ROLE ( '' ) ;
#20 = FACE_OUTER_BOUND ( 'NONE', #131, .T. ) ;
#21 = AXIS2_PLACEMENT_3D ( 'NONE', #194, #80, #82 ) ;
#22 = FACE_OUTER_BOUND ( 'NONE', #73, .T. ) ;
#23 = PRODUCT_DEFINITION_SHAPE ( 'NONE', 'NONE',  #280 ) ;
#24 = CIRCLE ( 'NONE', #193, 8.000000000000000000 ) ;
#25 = ORIENTED_EDGE ( 'NONE', *, *, #70, .T. ) ;
#26 = AXIS2_PLACEMENT_3D ( 'NONE', #76, #163, #54 ) ;
#27 = SECURITY_CLASSIFICATION ( '', '', #205 ) ;
#28 = DIRECTION ( 'NONE',  ( -0.000000000000000000, -0.000000000000000000, -1.000000000000000000 ) ) ;
#29 = EDGE_CURVE ( 'NONE', #105, #64, #55, .T. ) ;
#30 = LINE ( 'NONE', #214, #94 ) ;
#31 = DIRECTION ( 'NONE',  ( -0.000000000000000000, -0.000000000000000000, -1.000000000000000000 ) ) ;
#32 = DIRECTION ( 'NONE',  ( 1.000000000000000000, 0.000000000000000000, 0.000000000000000000 ) ) ;
#33 = VERTEX_POINT ( 'NONE', #78 ) ;
#34 = CARTESIAN_POINT ( 'NONE',  ( 0.000000000000000000, 0.000000000000000000, 5.000000000000000000 ) ) ;
#35 = VERTEX_POINT ( 'NONE', #122 ) ;
#36 = PERSON_AND_ORGANIZATION ( #222, #8 ) ;
#37 = ORIENTED_EDGE ( 'NONE', *, *, #118, .T. ) ;
#38 = PERSON_AND_ORGANIZATION ( #222, #8 ) ;
#39 = AXIS2_PLACEMENT_3D ( 'NONE', #121, #117, #168 ) ;
#40 = DIRECTION ( 'NONE',  ( 1.000000000000000000, 0.000000000000000000, -0.000000000000000000 ) ) ;
#41 = COORDINATED_UNIVERSAL_TIME_OFFSET ( 1, 0, .AHEAD. ) ;
#42 = AXIS2_PLACEMENT_3D ( 'NONE', #93, #138, #40 ) ;
#43 = APPROVAL ( #227, 'NEURÈENÝ' ) ;
#44 = CC_DESIGN_APPROVAL ( #255, ( #180 ) ) ;
#45 = APPROVAL_ROLE ( '' ) ;
#46 = ADVANCED_FACE ( 'NONE', ( #146 ), #265, .T. ) ;
#47 = ORIENTED_EDGE ( 'NONE', *, *, #165, .F. ) ;
#48 = CC_DESIGN_APPROVAL ( #230, ( #27 ) ) ;
#49 =( LENGTH_UNIT ( ) NAMED_UNIT ( * ) SI_UNIT ( .MILLI., .METRE. ) );
#50 = AXIS2_PLACEMENT_3D ( 'NONE', #228, #113, #303 ) ;
#51 = ORIENTED_EDGE ( 'NONE', *, *, #292, .F. ) ;
#52 = CARTESIAN_POINT ( 'NONE',  ( 8.000000000000000000, 9.797174393178825657E-16, 5.000000000000000000 ) ) ;
#53 = AXIS2_PLACEMENT_3D ( 'NONE', #211, #189, #286 ) ;
#54 = DIRECTION ( 'NONE',  ( 1.000000000000000000, 0.000000000000000000, 0.000000000000000000 ) ) ;
#55 = LINE ( 'NONE', #127, #160 ) ;
#56 = CARTESIAN_POINT ( 'NONE',  ( 0.000000000000000000, 0.000000000000000000, 5.000000000000000000 ) ) ;
#57 = CC_DESIGN_PERSON_AND_ORGANIZATION_ASSIGNMENT ( #304, #115, ( #180 ) ) ;
#58 = DIRECTION ( 'NONE',  ( 0.000000000000000000, 0.000000000000000000, 1.000000000000000000 ) ) ;
#59 = DATE_AND_TIME ( #306, #202 ) ;
#60 = FACE_BOUND ( 'NONE', #175, .T. ) ;
#61 = DATE_AND_TIME ( #88, #166 ) ;
#62 = ORIENTED_EDGE ( 'NONE', *, *, #118, .F. ) ;
#63 = COORDINATED_UNIVERSAL_TIME_OFFSET ( 1, 0, .AHEAD. ) ;
#64 = VERTEX_POINT ( 'NONE', #295 ) ;
#65 = EDGE_CURVE ( 'NONE', #64, #16, #114, .T. ) ;
#66 = MANIFOLD_SOLID_BREP ( 'Zaoblit1', #151 ) ;
#67 = APPROVAL_DATE_TIME ( #204, #43 ) ;
#68 = FACE_OUTER_BOUND ( 'NONE', #267, .T. ) ;
#69 = PERSON_AND_ORGANIZATION_ROLE ( 'classification_officer' ) ;
#70 = EDGE_CURVE ( 'NONE', #239, #161, #233, .T. ) ;
#71 = PRODUCT ( '5ee9', '5ee9', '', ( #277 ) ) ;
#72 = CIRCLE ( 'NONE', #235, 8.000000000000000000 ) ;
#73 = EDGE_LOOP ( 'NONE', ( #62, #246, #102, #201 ) ) ;
#74 = DIRECTION ( 'NONE',  ( -0.000000000000000000, -0.000000000000000000, -1.000000000000000000 ) ) ;
#75 = ADVANCED_FACE ( 'NONE', ( #60, #147 ), #221, .T. ) ;
#76 = CARTESIAN_POINT ( 'NONE',  ( 0.000000000000000000, 0.000000000000000000, 405.0000000000000000 ) ) ;
#77 = CARTESIAN_POINT ( 'NONE',  ( 0.000000000000000000, 0.000000000000000000, 0.000000000000000000 ) ) ;
#78 = CARTESIAN_POINT ( 'NONE',  ( -8.000000000000000000, 0.000000000000000000, 0.000000000000000000 ) ) ;
#79 = CARTESIAN_POINT ( 'NONE',  ( 0.000000000000000000, 0.000000000000000000, 5.000000000000000000 ) ) ;
#80 = DIRECTION ( 'NONE',  ( 0.000000000000000000, 0.000000000000000000, 1.000000000000000000 ) ) ;
#81 = DIRECTION ( 'NONE',  ( 1.000000000000000000, 0.000000000000000000, 0.000000000000000000 ) ) ;
#82 = DIRECTION ( 'NONE',  ( 1.000000000000000000, 0.000000000000000000, 0.000000000000000000 ) ) ;
#83 = ORIENTED_EDGE ( 'NONE', *, *, #210, .F. ) ;
#84 = APPROVAL_PERSON_ORGANIZATION ( #38, #43, #17 ) ;
#85 = VERTEX_POINT ( 'NONE', #279 ) ;
#86 = ADVANCED_FACE ( 'NONE', ( #20 ), #281, .T. ) ;
#87 = CARTESIAN_POINT ( 'NONE',  ( 0.000000000000000000, 0.000000000000000000, 0.000000000000000000 ) ) ;
#88 = CALENDAR_DATE ( 2022, 20, 6 ) ;
#89 = CC_DESIGN_APPROVAL ( #43, ( #280 ) ) ;
#90 = CC_DESIGN_DATE_AND_TIME_ASSIGNMENT ( #250, #173, ( #27 ) ) ;
#91 = COORDINATED_UNIVERSAL_TIME_OFFSET ( 1, 0, .AHEAD. ) ;
#92 = CIRCLE ( 'NONE', #135, 5.200000000000001066 ) ;
#93 = CARTESIAN_POINT ( 'NONE',  ( 0.000000000000000000, 0.000000000000000000, 0.000000000000000000 ) ) ;
#94 = VECTOR ( 'NONE', #74, 1000.000000000000000 ) ;
#95 = LOCAL_TIME ( 11, 40, 50.00000000000000000, #177 ) ;
#96 = ORIENTED_EDGE ( 'NONE', *, *, #210, .T. ) ;
#97 = CC_DESIGN_PERSON_AND_ORGANIZATION_ASSIGNMENT ( #153, #270, ( #71 ) ) ;
#98 = CARTESIAN_POINT ( 'NONE',  ( -5.200000000000001066, 6.368163355566237368E-16, 4.999999999999991118 ) ) ;
#99 = LINE ( 'NONE', #215, #289 ) ;
#100 = FACE_OUTER_BOUND ( 'NONE', #152, .T. ) ;
#101 = CC_DESIGN_PERSON_AND_ORGANIZATION_ASSIGNMENT ( #247, #69, ( #27 ) ) ;
#102 = ORIENTED_EDGE ( 'NONE', *, *, #184, .T. ) ;
#103 = CIRCLE ( 'NONE', #248, 8.000000000000000000 ) ;
#104 = DIRECTION ( 'NONE',  ( 0.000000000000000000, 0.000000000000000000, 1.000000000000000000 ) ) ;
#105 = VERTEX_POINT ( 'NONE', #305 ) ;
#106 = PERSON_AND_ORGANIZATION ( #222, #8 ) ;
#107 = AXIS2_PLACEMENT_3D ( 'NONE', #169, #144, #5 ) ;
#108 = ORIENTED_EDGE ( 'NONE', *, *, #236, .F. ) ;
#109 = PERSON_AND_ORGANIZATION ( #222, #8 ) ;
#110 = ORIENTED_EDGE ( 'NONE', *, *, #292, .T. ) ;
#111 =( NAMED_UNIT ( * ) SI_UNIT ( $, .STERADIAN. ) SOLID_ANGLE_UNIT ( ) );
#112 = CALENDAR_DATE ( 2022, 20, 6 ) ;
#113 = DIRECTION ( 'NONE',  ( -0.000000000000000000, -0.000000000000000000, -1.000000000000000000 ) ) ;
#114 = CIRCLE ( 'NONE', #21, 5.000000000000000888 ) ;
#115 = PERSON_AND_ORGANIZATION_ROLE ( 'creator' ) ;
#116 = CIRCLE ( 'NONE', #26, 5.000000000000000888 ) ;
#117 = DIRECTION ( 'NONE',  ( 0.000000000000000000, 0.000000000000000000, 1.000000000000000000 ) ) ;
#118 = EDGE_CURVE ( 'NONE', #16, #161, #14, .T. ) ;
#119 =( NAMED_UNIT ( * ) PLANE_ANGLE_UNIT ( ) SI_UNIT ( $, .RADIAN. ) );
#120 = DIRECTION ( 'NONE',  ( 0.000000000000000000, 0.000000000000000000, 1.000000000000000000 ) ) ;
#121 = CARTESIAN_POINT ( 'NONE',  ( 0.000000000000000000, 0.000000000000000000, 405.0000000000000000 ) ) ;
#122 = CARTESIAN_POINT ( 'NONE',  ( 8.000000000000000000, 9.797174393178825657E-16, 0.000000000000000000 ) ) ;
#123 = DIRECTION ( 'NONE',  ( -0.000000000000000000, -0.000000000000000000, -1.000000000000000000 ) ) ;
#124 = EDGE_LOOP ( 'NONE', ( #51, #213, #224, #83 ) ) ;
#125 = APPLICATION_PROTOCOL_DEFINITION ( 'international standard', 'config_control_design', 1994, #302 ) ;
#126 = APPLICATION_CONTEXT ( 'configuration controlled 3d designs of mechanical parts and assemblies' ) ;
#127 = CARTESIAN_POINT ( 'NONE',  ( 5.000000000000000888, 6.123233995736767268E-16, 405.0000000000000000 ) ) ;
#128 = APPLICATION_PROTOCOL_DEFINITION ( 'international standard', 'config_control_design', 1994, #126 ) ;
#129 = CC_DESIGN_PERSON_AND_ORGANIZATION_ASSIGNMENT ( #36, #181, ( #180 ) ) ;
#130 = CARTESIAN_POINT ( 'NONE',  ( 0.000000000000000000, 0.000000000000000000, 5.000000000000000000 ) ) ;
#131 = EDGE_LOOP ( 'NONE', ( #176, #261, #13, #300 ) ) ;
#132 = CYLINDRICAL_SURFACE ( 'NONE', #50, 8.000000000000000000 ) ;
#133 = DATE_TIME_ROLE ( 'creation_date' ) ;
#134 = PRODUCT_RELATED_PRODUCT_CATEGORY ( 'detail', '', ( #71 ) ) ;
#135 = AXIS2_PLACEMENT_3D ( 'NONE', #130, #275, #242 ) ;
#136 = AXIS2_PLACEMENT_3D ( 'NONE', #3, #120, #287 ) ;
#137 = LOCAL_TIME ( 11, 40, 50.00000000000000000, #10 ) ;
#138 = DIRECTION ( 'NONE',  ( 0.000000000000000000, 0.000000000000000000, 1.000000000000000000 ) ) ;
#139 = ADVANCED_FACE ( 'NONE', ( #307 ), #156, .F. ) ;
#140 = EDGE_LOOP ( 'NONE', ( #284, #191 ) ) ;
#141 = DIRECTION ( 'NONE',  ( 1.000000000000000000, 0.000000000000000000, 0.000000000000000000 ) ) ;
#142 = CARTESIAN_POINT ( 'NONE',  ( 0.000000000000000000, 0.000000000000000000, 5.199999999999982414 ) ) ;
#143 = DIRECTION ( 'NONE',  ( 1.000000000000000000, 0.000000000000000000, 0.000000000000000000 ) ) ;
#144 = DIRECTION ( 'NONE',  ( -0.000000000000000000, -0.000000000000000000, -1.000000000000000000 ) ) ;
#145 = FACE_OUTER_BOUND ( 'NONE', #140, .T. ) ;
#146 = FACE_OUTER_BOUND ( 'NONE', #234, .T. ) ;
#147 = FACE_OUTER_BOUND ( 'NONE', #167, .T. ) ;
#148 = APPROVAL_STATUS ( 'not_yet_approved' ) ;
#149 = ADVANCED_FACE ( 'NONE', ( #68 ), #132, .T. ) ;
#150 = EDGE_LOOP ( 'NONE', ( #226, #216 ) ) ;
#151 = CLOSED_SHELL ( 'NONE', ( #218, #86, #264, #149, #75, #139, #46, #196, #178 ) ) ;
#152 = EDGE_LOOP ( 'NONE', ( #272, #37, #15, #297 ) ) ;
#153 = PERSON_AND_ORGANIZATION ( #222, #8 ) ;
#154 = EDGE_CURVE ( 'NONE', #105, #85, #282, .T. ) ;
#155 = PERSON_AND_ORGANIZATION ( #222, #8 ) ;
#156 = PLANE ( 'NONE',  #42 ) ;
#157 = DIRECTION ( 'NONE',  ( 0.000000000000000000, 0.000000000000000000, 1.000000000000000000 ) ) ;
#158 = AXIS2_PLACEMENT_3D ( 'NONE', #142, #170, #188 ) ;
#159 =( GEOMETRIC_REPRESENTATION_CONTEXT ( 3 ) GLOBAL_UNCERTAINTY_ASSIGNED_CONTEXT ( ( #6 ) ) GLOBAL_UNIT_ASSIGNED_CONTEXT ( ( #49, #119, #111 ) ) REPRESENTATION_CONTEXT ( 'NONE', 'WORKASPACE' ) );
#160 = VECTOR ( 'NONE', #31, 1000.000000000000000 ) ;
#161 = VERTEX_POINT ( 'NONE', #98 ) ;
#162 = CC_DESIGN_DATE_AND_TIME_ASSIGNMENT ( #252, #133, ( #280 ) ) ;
#163 = DIRECTION ( 'NONE',  ( 0.000000000000000000, 0.000000000000000000, 1.000000000000000000 ) ) ;
#164 = LINE ( 'NONE', #294, #206 ) ;
#165 = EDGE_CURVE ( 'NONE', #293, #197, #185, .T. ) ;
#166 = LOCAL_TIME ( 11, 40, 50.00000000000000000, #63 ) ;
#167 = EDGE_LOOP ( 'NONE', ( #257, #110 ) ) ;
#168 = DIRECTION ( 'NONE',  ( 1.000000000000000000, 0.000000000000000000, -0.000000000000000000 ) ) ;
#169 = CARTESIAN_POINT ( 'NONE',  ( 0.000000000000000000, 0.000000000000000000, 405.0000000000000000 ) ) ;
#170 = DIRECTION ( 'NONE',  ( 0.000000000000000000, 0.000000000000000000, 1.000000000000000000 ) ) ;
#171 = AXIS2_PLACEMENT_3D ( 'NONE', #256, #182, #208 ) ;
#172 = DIRECTION ( 'NONE',  ( -0.000000000000000000, -0.000000000000000000, -1.000000000000000000 ) ) ;
#173 = DATE_TIME_ROLE ( 'classification_date' ) ;
#174 = AXIS2_PLACEMENT_3D ( 'NONE', #237, #212, #81 ) ;
#175 = EDGE_LOOP ( 'NONE', ( #25, #253 ) ) ;
#176 = ORIENTED_EDGE ( 'NONE', *, *, #154, .F. ) ;
#177 = COORDINATED_UNIVERSAL_TIME_OFFSET ( 1, 0, .AHEAD. ) ;
#178 = ADVANCED_FACE ( 'NONE', ( #22 ), #2, .F. ) ;
#179 = DIRECTION ( 'NONE',  ( -0.000000000000000000, -0.000000000000000000, -1.000000000000000000 ) ) ;
#180 = PRODUCT_DEFINITION_FORMATION_WITH_SPECIFIED_SOURCE ( 'LIBOVOLNÝ', '', #71, .NOT_KNOWN. ) ;
#181 = PERSON_AND_ORGANIZATION_ROLE ( 'design_supplier' ) ;
#182 = DIRECTION ( 'NONE',  ( 1.224646799147353207E-16, 1.000000000000000000, -0.000000000000000000 ) ) ;
#183 = ADVANCED_BREP_SHAPE_REPRESENTATION ( '5ee9', ( #66, #291 ), #159 ) ;
#184 = EDGE_CURVE ( 'NONE', #64, #239, #299, .T. ) ;
#185 = CIRCLE ( 'NONE', #136, 8.000000000000000000 ) ;
#186 = AXIS2_PLACEMENT_3D ( 'NONE', #203, #179, #232 ) ;
#187 = ORIENTED_EDGE ( 'NONE', *, *, #29, .F. ) ;
#188 = DIRECTION ( 'NONE',  ( 1.000000000000000000, 0.000000000000000000, 0.000000000000000000 ) ) ;
#189 = DIRECTION ( 'NONE',  ( 0.000000000000000000, -1.000000000000000000, 0.000000000000000000 ) ) ;
#190 = FACE_OUTER_BOUND ( 'NONE', #124, .T. ) ;
#191 = ORIENTED_EDGE ( 'NONE', *, *, #154, .T. ) ;
#192 = DIRECTION ( 'NONE',  ( 0.000000000000000000, 0.000000000000000000, 1.000000000000000000 ) ) ;
#193 = AXIS2_PLACEMENT_3D ( 'NONE', #77, #104, #143 ) ;
#194 = CARTESIAN_POINT ( 'NONE',  ( 0.000000000000000000, 0.000000000000000000, 5.199999999999982414 ) ) ;
#195 = DIRECTION ( 'NONE',  ( 0.000000000000000000, 0.000000000000000000, 1.000000000000000000 ) ) ;
#196 = ADVANCED_FACE ( 'NONE', ( #145 ), #7, .T. ) ;
#197 = VERTEX_POINT ( 'NONE', #52 ) ;
#198 = APPROVAL_DATE_TIME ( #61, #255 ) ;
#199 = ORIENTED_EDGE ( 'NONE', *, *, #207, .F. ) ;
#200 = AXIS2_PLACEMENT_3D ( 'NONE', #4, #123, #259 ) ;
#201 = ORIENTED_EDGE ( 'NONE', *, *, #12, .F. ) ;
#202 = LOCAL_TIME ( 11, 40, 50.00000000000000000, #91 ) ;
#203 = CARTESIAN_POINT ( 'NONE',  ( 0.000000000000000000, 0.000000000000000000, 405.0000000000000000 ) ) ;
#204 = DATE_AND_TIME ( #112, #95 ) ;
#205 = SECURITY_CLASSIFICATION_LEVEL ( 'unclassified' ) ;
#206 = VECTOR ( 'NONE', #28, 1000.000000000000000 ) ;
#207 = EDGE_CURVE ( 'NONE', #197, #35, #164, .T. ) ;
#208 = DIRECTION ( 'NONE',  ( -1.000000000000000000, 1.224646799147353454E-16, 0.000000000000000000 ) ) ;
#209 = APPROVAL_PERSON_ORGANIZATION ( #109, #230, #45 ) ;
#210 = EDGE_CURVE ( 'NONE', #293, #33, #30, .T. ) ;
#211 = CARTESIAN_POINT ( 'NONE',  ( 5.200000000000001066, 0.000000000000000000, 5.199999999999982414 ) ) ;
#212 = DIRECTION ( 'NONE',  ( 0.000000000000000000, 0.000000000000000000, 1.000000000000000000 ) ) ;
#213 = ORIENTED_EDGE ( 'NONE', *, *, #207, .T. ) ;
#214 = CARTESIAN_POINT ( 'NONE',  ( -8.000000000000000000, 0.000000000000000000, 5.000000000000000000 ) ) ;
#215 = CARTESIAN_POINT ( 'NONE',  ( -5.000000000000000888, 0.000000000000000000, 405.0000000000000000 ) ) ;
#216 = ORIENTED_EDGE ( 'NONE', *, *, #274, .F. ) ;
#217 = DIRECTION ( 'NONE',  ( 1.000000000000000000, 0.000000000000000000, 0.000000000000000000 ) ) ;
#218 = ADVANCED_FACE ( 'NONE', ( #100 ), #258, .F. ) ;
#219 = CC_DESIGN_SECURITY_CLASSIFICATION ( #27, ( #180 ) ) ;
#220 = ORIENTED_EDGE ( 'NONE', *, *, #283, .T. ) ;
#221 = PLANE ( 'NONE',  #276 ) ;
#222 = PERSON ( 'NEURÈENÝ', 'NEURÈENÝ', 'NEURÈENÝ', ('NEURÈENÝ'), ('NEURÈENÝ'), ('NEURÈENÝ') ) ;
#223 = PERSON_AND_ORGANIZATION_ROLE ( 'creator' ) ;
#224 = ORIENTED_EDGE ( 'NONE', *, *, #274, .T. ) ;
#225 = DIRECTION ( 'NONE',  ( 0.000000000000000000, 0.000000000000000000, 1.000000000000000000 ) ) ;
#226 = ORIENTED_EDGE ( 'NONE', *, *, #283, .F. ) ;
#227 = APPROVAL_STATUS ( 'not_yet_approved' ) ;
#228 = CARTESIAN_POINT ( 'NONE',  ( 0.000000000000000000, 0.000000000000000000, 5.000000000000000000 ) ) ;
#229 = APPROVAL_STATUS ( 'not_yet_approved' ) ;
#230 = APPROVAL ( #148, 'NEURÈENÝ' ) ;
#231 = LOCAL_TIME ( 11, 40, 50.00000000000000000, #41 ) ;
#232 = DIRECTION ( 'NONE',  ( -1.000000000000000000, 0.000000000000000000, 0.000000000000000000 ) ) ;
#233 = CIRCLE ( 'NONE', #1, 5.200000000000001066 ) ;
#234 = EDGE_LOOP ( 'NONE', ( #187, #108, #9, #251 ) ) ;
#235 = AXIS2_PLACEMENT_3D ( 'NONE', #290, #195, #262 ) ;
#236 = EDGE_CURVE ( 'NONE', #85, #105, #116, .T. ) ;
#237 = CARTESIAN_POINT ( 'NONE',  ( 0.000000000000000000, 0.000000000000000000, 5.199999999999982414 ) ) ;
#238 = CC_DESIGN_PERSON_AND_ORGANIZATION_ASSIGNMENT ( #155, #223, ( #280 ) ) ;
#239 = VERTEX_POINT ( 'NONE', #245 ) ;
#240 = CARTESIAN_POINT ( 'NONE',  ( 0.000000000000000000, 0.000000000000000000, 405.0000000000000000 ) ) ;
#241 = CARTESIAN_POINT ( 'NONE',  ( -8.000000000000000000, 0.000000000000000000, 5.000000000000000000 ) ) ;
#242 = DIRECTION ( 'NONE',  ( 1.000000000000000000, 0.000000000000000000, 0.000000000000000000 ) ) ;
#243 = DESIGN_CONTEXT ( 'detailed design', #126, 'design' ) ;
#244 = EDGE_CURVE ( 'NONE', #85, #16, #99, .T. ) ;
#245 = CARTESIAN_POINT ( 'NONE',  ( 5.200000000000001066, 0.000000000000000000, 4.999999999999991118 ) ) ;
#246 = ORIENTED_EDGE ( 'NONE', *, *, #65, .F. ) ;
#247 = PERSON_AND_ORGANIZATION ( #222, #8 ) ;
#248 = AXIS2_PLACEMENT_3D ( 'NONE', #79, #285, #217 ) ;
#249 = AXIS2_PLACEMENT_3D ( 'NONE', #268, #58, #141 ) ;
#250 = DATE_AND_TIME ( #296, #137 ) ;
#251 = ORIENTED_EDGE ( 'NONE', *, *, #298, .T. ) ;
#252 = DATE_AND_TIME ( #273, #231 ) ;
#253 = ORIENTED_EDGE ( 'NONE', *, *, #12, .T. ) ;
#254 = APPROVAL_DATE_TIME ( #59, #230 ) ;
#255 = APPROVAL ( #229, 'NEURÈENÝ' ) ;
#256 = CARTESIAN_POINT ( 'NONE',  ( -5.200000000000001066, 6.368163355566237368E-16, 5.199999999999982414 ) ) ;
#257 = ORIENTED_EDGE ( 'NONE', *, *, #165, .T. ) ;
#258 = TOROIDAL_SURFACE ( 'NONE', #158, 5.200000000000001066, 0.2000000000000000111 ) ;
#259 = DIRECTION ( 'NONE',  ( -1.000000000000000000, 0.000000000000000000, 0.000000000000000000 ) ) ;
#260 = AXIS2_PLACEMENT_3D ( 'NONE', #240, #192, #32 ) ;
#261 = ORIENTED_EDGE ( 'NONE', *, *, #29, .T. ) ;
#262 = DIRECTION ( 'NONE',  ( 1.000000000000000000, 0.000000000000000000, 0.000000000000000000 ) ) ;
#263 = CYLINDRICAL_SURFACE ( 'NONE', #200, 8.000000000000000000 ) ;
#264 = ADVANCED_FACE ( 'NONE', ( #190 ), #263, .T. ) ;
#265 = CYLINDRICAL_SURFACE ( 'NONE', #107, 5.000000000000000888 ) ;
#266 = DIRECTION ( 'NONE',  ( -0.000000000000000000, -0.000000000000000000, -1.000000000000000000 ) ) ;
#267 = EDGE_LOOP ( 'NONE', ( #199, #47, #96, #220 ) ) ;
#268 = CARTESIAN_POINT ( 'NONE',  ( 0.000000000000000000, 0.000000000000000000, 5.199999999999982414 ) ) ;
#269 = DIRECTION ( 'NONE',  ( 1.000000000000000000, 0.000000000000000000, 0.000000000000000000 ) ) ;
#270 = PERSON_AND_ORGANIZATION_ROLE ( 'design_owner' ) ;
#271 = APPROVAL_PERSON_ORGANIZATION ( #106, #255, #19 ) ;
#272 = ORIENTED_EDGE ( 'NONE', *, *, #298, .F. ) ;
#273 = CALENDAR_DATE ( 2022, 20, 6 ) ;
#274 = EDGE_CURVE ( 'NONE', #35, #33, #24, .T. ) ;
#275 = DIRECTION ( 'NONE',  ( -0.000000000000000000, -0.000000000000000000, -1.000000000000000000 ) ) ;
#276 = AXIS2_PLACEMENT_3D ( 'NONE', #34, #157, #18 ) ;
#277 = MECHANICAL_CONTEXT ( 'NONE', #302, 'mechanical' ) ;
#278 = CIRCLE ( 'NONE', #249, 5.000000000000000888 ) ;
#279 = CARTESIAN_POINT ( 'NONE',  ( -5.000000000000000888, 0.000000000000000000, 405.0000000000000000 ) ) ;
#280 = PRODUCT_DEFINITION ( 'NEZNÁMÝ', '', #180, #243 ) ;
#281 = CYLINDRICAL_SURFACE ( 'NONE', #186, 5.000000000000000888 ) ;
#282 = CIRCLE ( 'NONE', #260, 5.000000000000000888 ) ;
#283 = EDGE_CURVE ( 'NONE', #33, #35, #72, .T. ) ;
#284 = ORIENTED_EDGE ( 'NONE', *, *, #236, .T. ) ;
#285 = DIRECTION ( 'NONE',  ( 0.000000000000000000, 0.000000000000000000, 1.000000000000000000 ) ) ;
#286 = DIRECTION ( 'NONE',  ( 0.000000000000000000, 0.000000000000000000, -1.000000000000000000 ) ) ;
#287 = DIRECTION ( 'NONE',  ( 1.000000000000000000, 0.000000000000000000, 0.000000000000000000 ) ) ;
#288 = CARTESIAN_POINT ( 'NONE',  ( -5.000000000000000888, 0.000000000000000000, 5.199999999999982414 ) ) ;
#289 = VECTOR ( 'NONE', #266, 1000.000000000000000 ) ;
#290 = CARTESIAN_POINT ( 'NONE',  ( 0.000000000000000000, 0.000000000000000000, 0.000000000000000000 ) ) ;
#291 = AXIS2_PLACEMENT_3D ( 'NONE', #87, #225, #301 ) ;
#292 = EDGE_CURVE ( 'NONE', #197, #293, #103, .T. ) ;
#293 = VERTEX_POINT ( 'NONE', #241 ) ;
#294 = CARTESIAN_POINT ( 'NONE',  ( 8.000000000000000000, 9.797174393178825657E-16, 5.000000000000000000 ) ) ;
#295 = CARTESIAN_POINT ( 'NONE',  ( 5.000000000000000888, 6.123233995736767268E-16, 5.199999999999982414 ) ) ;
#296 = CALENDAR_DATE ( 2022, 20, 6 ) ;
#297 = ORIENTED_EDGE ( 'NONE', *, *, #184, .F. ) ;
#298 = EDGE_CURVE ( 'NONE', #16, #64, #278, .T. ) ;
#299 = CIRCLE ( 'NONE', #53, 0.1999999999999996503 ) ;
#300 = ORIENTED_EDGE ( 'NONE', *, *, #244, .F. ) ;
#301 = DIRECTION ( 'NONE',  ( 1.000000000000000000, 0.000000000000000000, 0.000000000000000000 ) ) ;
#302 = APPLICATION_CONTEXT ( 'configuration controlled 3d designs of mechanical parts and assemblies' ) ;
#303 = DIRECTION ( 'NONE',  ( -1.000000000000000000, 0.000000000000000000, 0.000000000000000000 ) ) ;
#304 = PERSON_AND_ORGANIZATION ( #222, #8 ) ;
#305 = CARTESIAN_POINT ( 'NONE',  ( 5.000000000000000888, 6.123233995736767268E-16, 405.0000000000000000 ) ) ;
#306 = CALENDAR_DATE ( 2022, 20, 6 ) ;
#307 = FACE_OUTER_BOUND ( 'NONE', #150, .T. ) ;
ENDSEC;
END-ISO-10303-21;
