ISO-10303-21;
HEADER;
FILE_DESCRIPTION (( 'STEP AP203' ),
    '1' );
FILE_NAME ('72c2.STEP',
    '2022-06-20T10:00:19',
    ( '' ),
    ( '' ),
    'SwSTEP 2.0',
    'SolidWorks 2019',
    '' );
FILE_SCHEMA (( 'CONFIG_CONTROL_DESIGN' ));
ENDSEC;

DATA;
#1 = VERTEX_POINT ( 'NONE', #50 ) ;
#2 = DIRECTION ( 'NONE',  ( -0.000000000000000000, -0.000000000000000000, -1.000000000000000000 ) ) ;
#3 = ORIENTED_EDGE ( 'NONE', *, *, #10, .F. ) ;
#4 = CIRCLE ( 'NONE', #218, 2.750000000000000000 ) ;
#5 = ORIENTED_EDGE ( 'NONE', *, *, #93, .T. ) ;
#6 = EDGE_CURVE ( 'NONE', #1, #95, #246, .T. ) ;
#7 = DIRECTION ( 'NONE',  ( -1.000000000000000000, 0.000000000000000000, 0.000000000000000000 ) ) ;
#8 = FACE_OUTER_BOUND ( 'NONE', #207, .T. ) ;
#9 = AXIS2_PLACEMENT_3D ( 'NONE', #78, #252, #114 ) ;
#10 = EDGE_CURVE ( 'NONE', #41, #1, #171, .T. ) ;
#11 = PRODUCT_DEFINITION_SHAPE ( 'NONE', 'NONE',  #148 ) ;
#12 = CARTESIAN_POINT ( 'NONE',  ( 0.000000000000000000, 0.000000000000000000, 0.000000000000000000 ) ) ;
#13 = VERTEX_POINT ( 'NONE', #258 ) ;
#14 = CIRCLE ( 'NONE', #280, 0.2000000000000000944 ) ;
#15 = DIRECTION ( 'NONE',  ( 1.000000000000000000, 0.000000000000000000, 0.000000000000000000 ) ) ;
#16 = ORIENTED_EDGE ( 'NONE', *, *, #6, .F. ) ;
#17 = CARTESIAN_POINT ( 'NONE',  ( 0.000000000000000000, 0.000000000000000000, 163.0000000000000000 ) ) ;
#18 = EDGE_LOOP ( 'NONE', ( #215, #123, #102, #25 ) ) ;
#19 = DIRECTION ( 'NONE',  ( 0.000000000000000000, 0.000000000000000000, 1.000000000000000000 ) ) ;
#20 = AXIS2_PLACEMENT_3D ( 'NONE', #115, #55, #149 ) ;
#21 = PERSON_AND_ORGANIZATION ( #97, #178 ) ;
#22 = ADVANCED_FACE ( 'NONE', ( #47 ), #198, .F. ) ;
#23 = EDGE_LOOP ( 'NONE', ( #231, #73 ) ) ;
#24 = DIRECTION ( 'NONE',  ( 0.000000000000000000, 0.000000000000000000, 1.000000000000000000 ) ) ;
#25 = ORIENTED_EDGE ( 'NONE', *, *, #46, .F. ) ;
#26 = APPROVAL_PERSON_ORGANIZATION ( #57, #65, #183 ) ;
#27 = EDGE_CURVE ( 'NONE', #58, #29, #81, .T. ) ;
#28 = CARTESIAN_POINT ( 'NONE',  ( -2.949999999999999734, 3.612708057484692097E-16, 3.000000000000004441 ) ) ;
#29 = VERTEX_POINT ( 'NONE', #174 ) ;
#30 = VERTEX_POINT ( 'NONE', #147 ) ;
#31 = AXIS2_PLACEMENT_3D ( 'NONE', #12, #19, #214 ) ;
#32 = LOCAL_TIME ( 12, 0, 19.00000000000000000, #139 ) ;
#33 = DIRECTION ( 'NONE',  ( 0.000000000000000000, 0.000000000000000000, 1.000000000000000000 ) ) ;
#34 = PERSON_AND_ORGANIZATION_ROLE ( 'classification_officer' ) ;
#35 = DIRECTION ( 'NONE',  ( -0.000000000000000000, -0.000000000000000000, -1.000000000000000000 ) ) ;
#36 = CIRCLE ( 'NONE', #187, 0.2000000000000000944 ) ;
#37 = CC_DESIGN_PERSON_AND_ORGANIZATION_ASSIGNMENT ( #100, #34, ( #51 ) ) ;
#38 = CARTESIAN_POINT ( 'NONE',  ( 0.000000000000000000, 0.000000000000000000, 163.0000000000000000 ) ) ;
#39 = ORIENTED_EDGE ( 'NONE', *, *, #301, .F. ) ;
#40 = DIRECTION ( 'NONE',  ( -1.000000000000000000, 0.000000000000000000, 0.000000000000000000 ) ) ;
#41 = VERTEX_POINT ( 'NONE', #237 ) ;
#42 = APPROVAL_PERSON_ORGANIZATION ( #282, #274, #71 ) ;
#43 = DIRECTION ( 'NONE',  ( 1.000000000000000000, 0.000000000000000000, 0.000000000000000000 ) ) ;
#44 = EDGE_LOOP ( 'NONE', ( #53, #220 ) ) ;
#45 = APPROVAL_DATE_TIME ( #170, #274 ) ;
#46 = EDGE_CURVE ( 'NONE', #276, #95, #119, .T. ) ;
#47 = FACE_OUTER_BOUND ( 'NONE', #241, .T. ) ;
#48 =( NAMED_UNIT ( * ) PLANE_ANGLE_UNIT ( ) SI_UNIT ( $, .RADIAN. ) );
#49 = DIRECTION ( 'NONE',  ( 0.000000000000000000, 0.000000000000000000, 1.000000000000000000 ) ) ;
#50 = CARTESIAN_POINT ( 'NONE',  ( 5.000000000000000000, 6.123233995736766282E-16, 0.000000000000000000 ) ) ;
#51 = SECURITY_CLASSIFICATION ( '', '', #294 ) ;
#52 = CARTESIAN_POINT ( 'NONE',  ( 0.000000000000000000, 0.000000000000000000, 3.200000000000008171 ) ) ;
#53 = ORIENTED_EDGE ( 'NONE', *, *, #265, .T. ) ;
#54 = ADVANCED_FACE ( 'NONE', ( #70, #168 ), #260, .T. ) ;
#55 = DIRECTION ( 'NONE',  ( 0.000000000000000000, 0.000000000000000000, 1.000000000000000000 ) ) ;
#56 = DIRECTION ( 'NONE',  ( -0.000000000000000000, -0.000000000000000000, -1.000000000000000000 ) ) ;
#57 = PERSON_AND_ORGANIZATION ( #97, #178 ) ;
#58 = VERTEX_POINT ( 'NONE', #28 ) ;
#59 = CC_DESIGN_DATE_AND_TIME_ASSIGNMENT ( #118, #303, ( #148 ) ) ;
#60 = DIRECTION ( 'NONE',  ( 1.000000000000000000, 0.000000000000000000, 0.000000000000000000 ) ) ;
#61 = ORIENTED_EDGE ( 'NONE', *, *, #27, .F. ) ;
#62 = LINE ( 'NONE', #137, #290 ) ;
#63 = AXIS2_PLACEMENT_3D ( 'NONE', #197, #217, #307 ) ;
#64 = APPROVAL_STATUS ( 'not_yet_approved' ) ;
#65 = APPROVAL ( #278, 'NEURÈENÝ' ) ;
#66 = APPROVAL_STATUS ( 'not_yet_approved' ) ;
#67 = VECTOR ( 'NONE', #68, 1000.000000000000000 ) ;
#68 = DIRECTION ( 'NONE',  ( -0.000000000000000000, -0.000000000000000000, -1.000000000000000000 ) ) ;
#69 = CALENDAR_DATE ( 2022, 20, 6 ) ;
#70 = FACE_BOUND ( 'NONE', #23, .T. ) ;
#71 = APPROVAL_ROLE ( '' ) ;
#72 = ORIENTED_EDGE ( 'NONE', *, *, #283, .F. ) ;
#73 = ORIENTED_EDGE ( 'NONE', *, *, #27, .T. ) ;
#74 = TOROIDAL_SURFACE ( 'NONE', #116, 2.949999999999999734, 0.2000000000000000111 ) ;
#75 = DATE_TIME_ROLE ( 'classification_date' ) ;
#76 = EDGE_LOOP ( 'NONE', ( #39, #227, #138, #182 ) ) ;
#77 = ADVANCED_FACE ( 'NONE', ( #121 ), #264, .T. ) ;
#78 = CARTESIAN_POINT ( 'NONE',  ( 0.000000000000000000, 0.000000000000000000, 3.000000000000000000 ) ) ;
#79 = DIRECTION ( 'NONE',  ( 0.000000000000000000, 0.000000000000000000, 1.000000000000000000 ) ) ;
#80 = APPLICATION_CONTEXT ( 'configuration controlled 3d designs of mechanical parts and assemblies' ) ;
#81 = CIRCLE ( 'NONE', #296, 2.949999999999999734 ) ;
#82 = PERSON_AND_ORGANIZATION_ROLE ( 'creator' ) ;
#83 = PRODUCT_DEFINITION_FORMATION_WITH_SPECIFIED_SOURCE ( 'LIBOVOLNÝ', '', #208, .NOT_KNOWN. ) ;
#84 = EDGE_CURVE ( 'NONE', #288, #243, #4, .T. ) ;
#85 = CC_DESIGN_DATE_AND_TIME_ASSIGNMENT ( #271, #75, ( #51 ) ) ;
#86 = AXIS2_PLACEMENT_3D ( 'NONE', #17, #35, #7 ) ;
#87 = PLANE ( 'NONE',  #133 ) ;
#88 = ORIENTED_EDGE ( 'NONE', *, *, #136, .F. ) ;
#89 = FACE_OUTER_BOUND ( 'NONE', #90, .T. ) ;
#90 = EDGE_LOOP ( 'NONE', ( #194, #88, #5, #124 ) ) ;
#91 = ADVANCED_FACE ( 'NONE', ( #156 ), #262, .F. ) ;
#92 = PERSON_AND_ORGANIZATION ( #97, #178 ) ;
#93 = EDGE_CURVE ( 'NONE', #30, #288, #267, .T. ) ;
#94 = DIRECTION ( 'NONE',  ( 0.000000000000000000, 0.000000000000000000, 1.000000000000000000 ) ) ;
#95 = VERTEX_POINT ( 'NONE', #184 ) ;
#96 = DIRECTION ( 'NONE',  ( 1.000000000000000000, 0.000000000000000000, 0.000000000000000000 ) ) ;
#97 = PERSON ( 'NEURÈENÝ', 'NEURÈENÝ', 'NEURÈENÝ', ('NEURÈENÝ'), ('NEURÈENÝ'), ('NEURÈENÝ') ) ;
#98 = ORIENTED_EDGE ( 'NONE', *, *, #202, .T. ) ;
#99 = DIRECTION ( 'NONE',  ( -1.000000000000000000, 0.000000000000000000, 0.000000000000000000 ) ) ;
#100 = PERSON_AND_ORGANIZATION ( #97, #178 ) ;
#101 = ORIENTED_EDGE ( 'NONE', *, *, #131, .F. ) ;
#102 = ORIENTED_EDGE ( 'NONE', *, *, #6, .T. ) ;
#103 = DIRECTION ( 'NONE',  ( 1.000000000000000000, 0.000000000000000000, 0.000000000000000000 ) ) ;
#104 = COORDINATED_UNIVERSAL_TIME_OFFSET ( 1, 0, .AHEAD. ) ;
#105 = UNCERTAINTY_MEASURE_WITH_UNIT (LENGTH_MEASURE( 1.000000000000000082E-05 ), #259, 'distance_accuracy_value', 'NONE');
#106 = PRODUCT_RELATED_PRODUCT_CATEGORY ( 'detail', '', ( #208 ) ) ;
#107 = CARTESIAN_POINT ( 'NONE',  ( 0.000000000000000000, 0.000000000000000000, 3.200000000000008171 ) ) ;
#108 = CLOSED_SHELL ( 'NONE', ( #91, #122, #175, #77, #54, #22, #109, #281, #210 ) ) ;
#109 = ADVANCED_FACE ( 'NONE', ( #89 ), #203, .T. ) ;
#110 = AXIS2_PLACEMENT_3D ( 'NONE', #293, #199, #15 ) ;
#111 = DIRECTION ( 'NONE',  ( -1.000000000000000000, 1.224646799147353207E-16, 0.000000000000000000 ) ) ;
#112 = CC_DESIGN_SECURITY_CLASSIFICATION ( #51, ( #83 ) ) ;
#113 = ORIENTED_EDGE ( 'NONE', *, *, #84, .F. ) ;
#114 = DIRECTION ( 'NONE',  ( -1.000000000000000000, 0.000000000000000000, 0.000000000000000000 ) ) ;
#115 = CARTESIAN_POINT ( 'NONE',  ( 0.000000000000000000, 0.000000000000000000, 3.000000000000000000 ) ) ;
#116 = AXIS2_PLACEMENT_3D ( 'NONE', #107, #79, #176 ) ;
#117 = CC_DESIGN_PERSON_AND_ORGANIZATION_ASSIGNMENT ( #254, #163, ( #208 ) ) ;
#118 = DATE_AND_TIME ( #284, #32 ) ;
#119 = LINE ( 'NONE', #193, #141 ) ;
#120 = DIRECTION ( 'NONE',  ( 0.000000000000000000, 0.000000000000000000, 1.000000000000000000 ) ) ;
#121 = FACE_OUTER_BOUND ( 'NONE', #189, .T. ) ;
#122 = ADVANCED_FACE ( 'NONE', ( #151 ), #249, .T. ) ;
#123 = ORIENTED_EDGE ( 'NONE', *, *, #10, .T. ) ;
#124 = ORIENTED_EDGE ( 'NONE', *, *, #84, .T. ) ;
#125 = MANIFOLD_SOLID_BREP ( 'Zaoblit1', #108 ) ;
#126 = AXIS2_PLACEMENT_3D ( 'NONE', #140, #24, #96 ) ;
#127 = CARTESIAN_POINT ( 'NONE',  ( 0.000000000000000000, 0.000000000000000000, 163.0000000000000000 ) ) ;
#128 = CARTESIAN_POINT ( 'NONE',  ( 0.000000000000000000, 0.000000000000000000, 163.0000000000000000 ) ) ;
#129 = DESIGN_CONTEXT ( 'detailed design', #80, 'design' ) ;
#130 = AXIS2_PLACEMENT_3D ( 'NONE', #134, #33, #60 ) ;
#131 = EDGE_CURVE ( 'NONE', #288, #58, #14, .T. ) ;
#132 = DIRECTION ( 'NONE',  ( 0.000000000000000000, 0.000000000000000000, 1.000000000000000000 ) ) ;
#133 = AXIS2_PLACEMENT_3D ( 'NONE', #38, #132, #226 ) ;
#134 = CARTESIAN_POINT ( 'NONE',  ( 0.000000000000000000, 0.000000000000000000, 3.200000000000008171 ) ) ;
#135 = ORIENTED_EDGE ( 'NONE', *, *, #157, .F. ) ;
#136 = EDGE_CURVE ( 'NONE', #30, #13, #250, .T. ) ;
#137 = CARTESIAN_POINT ( 'NONE',  ( 2.750000000000000000, 3.367778697655221012E-16, 163.0000000000000000 ) ) ;
#138 = ORIENTED_EDGE ( 'NONE', *, *, #157, .T. ) ;
#139 = COORDINATED_UNIVERSAL_TIME_OFFSET ( 1, 0, .AHEAD. ) ;
#140 = CARTESIAN_POINT ( 'NONE',  ( 0.000000000000000000, 0.000000000000000000, 163.0000000000000000 ) ) ;
#141 = VECTOR ( 'NONE', #286, 1000.000000000000000 ) ;
#142 = DIRECTION ( 'NONE',  ( 1.000000000000000000, 0.000000000000000000, -0.000000000000000000 ) ) ;
#143 = DIRECTION ( 'NONE',  ( 1.000000000000000000, 0.000000000000000000, -0.000000000000000000 ) ) ;
#144 = CIRCLE ( 'NONE', #302, 2.949999999999999734 ) ;
#145 = DIRECTION ( 'NONE',  ( 1.000000000000000000, 0.000000000000000000, 0.000000000000000000 ) ) ;
#146 = DIRECTION ( 'NONE',  ( 0.000000000000000000, 0.000000000000000000, 1.000000000000000000 ) ) ;
#147 = CARTESIAN_POINT ( 'NONE',  ( -2.750000000000000000, 0.000000000000000000, 163.0000000000000000 ) ) ;
#148 = PRODUCT_DEFINITION ( 'NEZNÁMÝ', '', #83, #129 ) ;
#149 = DIRECTION ( 'NONE',  ( 1.000000000000000000, 0.000000000000000000, 0.000000000000000000 ) ) ;
#150 = CIRCLE ( 'NONE', #126, 2.750000000000000000 ) ;
#151 = FACE_OUTER_BOUND ( 'NONE', #76, .T. ) ;
#152 = CIRCLE ( 'NONE', #20, 5.000000000000000000 ) ;
#153 = CC_DESIGN_PERSON_AND_ORGANIZATION_ASSIGNMENT ( #167, #82, ( #83 ) ) ;
#154 = SHAPE_DEFINITION_REPRESENTATION ( #11, #169 ) ;
#155 = DIRECTION ( 'NONE',  ( -0.000000000000000000, -0.000000000000000000, -1.000000000000000000 ) ) ;
#156 = FACE_OUTER_BOUND ( 'NONE', #248, .T. ) ;
#157 = EDGE_CURVE ( 'NONE', #243, #288, #209, .T. ) ;
#158 = CALENDAR_DATE ( 2022, 20, 6 ) ;
#159 = VECTOR ( 'NONE', #56, 1000.000000000000000 ) ;
#160 = DIRECTION ( 'NONE',  ( 1.000000000000000000, 0.000000000000000000, 0.000000000000000000 ) ) ;
#161 = LOCAL_TIME ( 12, 0, 19.00000000000000000, #272 ) ;
#162 = APPLICATION_CONTEXT ( 'configuration controlled 3d designs of mechanical parts and assemblies' ) ;
#163 = PERSON_AND_ORGANIZATION_ROLE ( 'design_owner' ) ;
#164 = MECHANICAL_CONTEXT ( 'NONE', #162, 'mechanical' ) ;
#165 = COORDINATED_UNIVERSAL_TIME_OFFSET ( 1, 0, .AHEAD. ) ;
#166 = ORIENTED_EDGE ( 'NONE', *, *, #131, .T. ) ;
#167 = PERSON_AND_ORGANIZATION ( #97, #178 ) ;
#168 = FACE_OUTER_BOUND ( 'NONE', #44, .T. ) ;
#169 = ADVANCED_BREP_SHAPE_REPRESENTATION ( '72c2', ( #125, #268 ), #228 ) ;
#170 = DATE_AND_TIME ( #69, #180 ) ;
#171 = LINE ( 'NONE', #291, #67 ) ;
#172 = EDGE_CURVE ( 'NONE', #29, #58, #144, .T. ) ;
#173 = ORIENTED_EDGE ( 'NONE', *, *, #172, .F. ) ;
#174 = CARTESIAN_POINT ( 'NONE',  ( 2.949999999999999734, 0.000000000000000000, 3.000000000000004441 ) ) ;
#175 = ADVANCED_FACE ( 'NONE', ( #300 ), #230, .T. ) ;
#176 = DIRECTION ( 'NONE',  ( 1.000000000000000000, 0.000000000000000000, 0.000000000000000000 ) ) ;
#177 = CARTESIAN_POINT ( 'NONE',  ( -2.750000000000000000, 0.000000000000000000, 163.0000000000000000 ) ) ;
#178 = ORGANIZATION ( 'NEURÈENÝ', 'NEURÈENÝ', '' ) ;
#179 = AXIS2_PLACEMENT_3D ( 'NONE', #128, #295, #43 ) ;
#180 = LOCAL_TIME ( 12, 0, 19.00000000000000000, #236 ) ;
#181 = CARTESIAN_POINT ( 'NONE',  ( 2.949999999999999734, 0.000000000000000000, 3.200000000000008171 ) ) ;
#182 = ORIENTED_EDGE ( 'NONE', *, *, #93, .F. ) ;
#183 = APPROVAL_ROLE ( '' ) ;
#184 = CARTESIAN_POINT ( 'NONE',  ( -5.000000000000000000, 0.000000000000000000, 0.000000000000000000 ) ) ;
#185 = ORIENTED_EDGE ( 'NONE', *, *, #46, .T. ) ;
#186 = CARTESIAN_POINT ( 'NONE',  ( -2.949999999999999734, 3.612708057484692097E-16, 3.200000000000008171 ) ) ;
#187 = AXIS2_PLACEMENT_3D ( 'NONE', #181, #247, #205 ) ;
#188 = LOCAL_TIME ( 12, 0, 19.00000000000000000, #165 ) ;
#189 = EDGE_LOOP ( 'NONE', ( #3, #195, #185, #266 ) ) ;
#190 = APPLICATION_PROTOCOL_DEFINITION ( 'international standard', 'config_control_design', 1994, #80 ) ;
#191 = DATE_AND_TIME ( #256, #188 ) ;
#192 = CIRCLE ( 'NONE', #31, 5.000000000000000000 ) ;
#193 = CARTESIAN_POINT ( 'NONE',  ( -5.000000000000000000, 0.000000000000000000, 3.000000000000000000 ) ) ;
#194 = ORIENTED_EDGE ( 'NONE', *, *, #223, .F. ) ;
#195 = ORIENTED_EDGE ( 'NONE', *, *, #265, .F. ) ;
#196 = CALENDAR_DATE ( 2022, 20, 6 ) ;
#197 = CARTESIAN_POINT ( 'NONE',  ( 0.000000000000000000, 0.000000000000000000, 0.000000000000000000 ) ) ;
#198 = PLANE ( 'NONE',  #244 ) ;
#199 = DIRECTION ( 'NONE',  ( 0.000000000000000000, 0.000000000000000000, 1.000000000000000000 ) ) ;
#200 = DIRECTION ( 'NONE',  ( -0.000000000000000000, -0.000000000000000000, -1.000000000000000000 ) ) ;
#201 = CC_DESIGN_APPROVAL ( #305, ( #83 ) ) ;
#202 = EDGE_CURVE ( 'NONE', #243, #29, #36, .T. ) ;
#203 = CYLINDRICAL_SURFACE ( 'NONE', #86, 2.750000000000000000 ) ;
#204 = ORIENTED_EDGE ( 'NONE', *, *, #301, .T. ) ;
#205 = DIRECTION ( 'NONE',  ( 0.000000000000000000, 0.000000000000000000, -1.000000000000000000 ) ) ;
#206 = ORIENTED_EDGE ( 'NONE', *, *, #136, .T. ) ;
#207 = EDGE_LOOP ( 'NONE', ( #101, #135, #98, #61 ) ) ;
#208 = PRODUCT ( '72c2', '72c2', '', ( #164 ) ) ;
#209 = CIRCLE ( 'NONE', #130, 2.750000000000000000 ) ;
#210 = ADVANCED_FACE ( 'NONE', ( #8 ), #74, .F. ) ;
#211 = DIRECTION ( 'NONE',  ( 1.000000000000000000, 0.000000000000000000, 0.000000000000000000 ) ) ;
#212 = ORIENTED_EDGE ( 'NONE', *, *, #202, .F. ) ;
#213 = CC_DESIGN_PERSON_AND_ORGANIZATION_ASSIGNMENT ( #21, #304, ( #148 ) ) ;
#214 = DIRECTION ( 'NONE',  ( 1.000000000000000000, 0.000000000000000000, 0.000000000000000000 ) ) ;
#215 = ORIENTED_EDGE ( 'NONE', *, *, #257, .F. ) ;
#216 = CARTESIAN_POINT ( 'NONE',  ( 0.000000000000000000, 0.000000000000000000, 3.000000000000000000 ) ) ;
#217 = DIRECTION ( 'NONE',  ( 0.000000000000000000, 0.000000000000000000, 1.000000000000000000 ) ) ;
#218 = AXIS2_PLACEMENT_3D ( 'NONE', #52, #146, #279 ) ;
#219 = LOCAL_TIME ( 12, 0, 19.00000000000000000, #104 ) ;
#220 = ORIENTED_EDGE ( 'NONE', *, *, #257, .T. ) ;
#221 = DIRECTION ( 'NONE',  ( -0.000000000000000000, -0.000000000000000000, -1.000000000000000000 ) ) ;
#222 = CARTESIAN_POINT ( 'NONE',  ( 0.000000000000000000, 0.000000000000000000, 3.000000000000000000 ) ) ;
#223 = EDGE_CURVE ( 'NONE', #13, #243, #62, .T. ) ;
#224 = AXIS2_PLACEMENT_3D ( 'NONE', #127, #155, #40 ) ;
#225 = CC_DESIGN_PERSON_AND_ORGANIZATION_ASSIGNMENT ( #242, #292, ( #83 ) ) ;
#226 = DIRECTION ( 'NONE',  ( 1.000000000000000000, 0.000000000000000000, -0.000000000000000000 ) ) ;
#227 = ORIENTED_EDGE ( 'NONE', *, *, #223, .T. ) ;
#228 =( GEOMETRIC_REPRESENTATION_CONTEXT ( 3 ) GLOBAL_UNCERTAINTY_ASSIGNED_CONTEXT ( ( #105 ) ) GLOBAL_UNIT_ASSIGNED_CONTEXT ( ( #259, #48, #306 ) ) REPRESENTATION_CONTEXT ( 'NONE', 'WORKASPACE' ) );
#229 = APPROVAL_DATE_TIME ( #299, #65 ) ;
#230 = CYLINDRICAL_SURFACE ( 'NONE', #9, 5.000000000000000000 ) ;
#231 = ORIENTED_EDGE ( 'NONE', *, *, #172, .T. ) ;
#232 = CARTESIAN_POINT ( 'NONE',  ( 2.750000000000000000, 3.367778697655221012E-16, 3.200000000000008171 ) ) ;
#233 = EDGE_LOOP ( 'NONE', ( #206, #204 ) ) ;
#234 = APPROVAL_ROLE ( '' ) ;
#235 = CIRCLE ( 'NONE', #255, 5.000000000000000000 ) ;
#236 = COORDINATED_UNIVERSAL_TIME_OFFSET ( 1, 0, .AHEAD. ) ;
#237 = CARTESIAN_POINT ( 'NONE',  ( 5.000000000000000000, 6.123233995736766282E-16, 3.000000000000000000 ) ) ;
#238 = CARTESIAN_POINT ( 'NONE',  ( -2.750000000000000000, 0.000000000000000000, 3.200000000000008171 ) ) ;
#239 = CARTESIAN_POINT ( 'NONE',  ( 0.000000000000000000, 0.000000000000000000, 3.000000000000000000 ) ) ;
#240 = CARTESIAN_POINT ( 'NONE',  ( 0.000000000000000000, 0.000000000000000000, 3.000000000000000000 ) ) ;
#241 = EDGE_LOOP ( 'NONE', ( #72, #16 ) ) ;
#242 = PERSON_AND_ORGANIZATION ( #97, #178 ) ;
#243 = VERTEX_POINT ( 'NONE', #232 ) ;
#244 = AXIS2_PLACEMENT_3D ( 'NONE', #289, #120, #142 ) ;
#245 = DIRECTION ( 'NONE',  ( 0.000000000000000000, 0.000000000000000000, 1.000000000000000000 ) ) ;
#246 = CIRCLE ( 'NONE', #63, 5.000000000000000000 ) ;
#247 = DIRECTION ( 'NONE',  ( 0.000000000000000000, -1.000000000000000000, 0.000000000000000000 ) ) ;
#248 = EDGE_LOOP ( 'NONE', ( #113, #166, #173, #212 ) ) ;
#249 = CYLINDRICAL_SURFACE ( 'NONE', #224, 2.750000000000000000 ) ;
#250 = CIRCLE ( 'NONE', #179, 2.750000000000000000 ) ;
#251 = APPROVAL_PERSON_ORGANIZATION ( #92, #305, #234 ) ;
#252 = DIRECTION ( 'NONE',  ( -0.000000000000000000, -0.000000000000000000, -1.000000000000000000 ) ) ;
#253 = CARTESIAN_POINT ( 'NONE',  ( 0.000000000000000000, 0.000000000000000000, 0.000000000000000000 ) ) ;
#254 = PERSON_AND_ORGANIZATION ( #97, #178 ) ;
#255 = AXIS2_PLACEMENT_3D ( 'NONE', #275, #245, #103 ) ;
#256 = CALENDAR_DATE ( 2022, 20, 6 ) ;
#257 = EDGE_CURVE ( 'NONE', #41, #276, #152, .T. ) ;
#258 = CARTESIAN_POINT ( 'NONE',  ( 2.750000000000000000, 3.367778697655221012E-16, 163.0000000000000000 ) ) ;
#259 =( LENGTH_UNIT ( ) NAMED_UNIT ( * ) SI_UNIT ( .MILLI., .METRE. ) );
#260 = PLANE ( 'NONE',  #298 ) ;
#261 = DIRECTION ( 'NONE',  ( -0.000000000000000000, -0.000000000000000000, -1.000000000000000000 ) ) ;
#262 = TOROIDAL_SURFACE ( 'NONE', #110, 2.949999999999999734, 0.2000000000000000111 ) ;
#263 = CC_DESIGN_APPROVAL ( #65, ( #51 ) ) ;
#264 = CYLINDRICAL_SURFACE ( 'NONE', #273, 5.000000000000000000 ) ;
#265 = EDGE_CURVE ( 'NONE', #276, #41, #235, .T. ) ;
#266 = ORIENTED_EDGE ( 'NONE', *, *, #283, .T. ) ;
#267 = LINE ( 'NONE', #177, #159 ) ;
#268 = AXIS2_PLACEMENT_3D ( 'NONE', #253, #94, #211 ) ;
#269 = CC_DESIGN_APPROVAL ( #274, ( #148 ) ) ;
#270 = CARTESIAN_POINT ( 'NONE',  ( -5.000000000000000000, 0.000000000000000000, 3.000000000000000000 ) ) ;
#271 = DATE_AND_TIME ( #196, #219 ) ;
#272 = COORDINATED_UNIVERSAL_TIME_OFFSET ( 1, 0, .AHEAD. ) ;
#273 = AXIS2_PLACEMENT_3D ( 'NONE', #216, #2, #99 ) ;
#274 = APPROVAL ( #64, 'NEURÈENÝ' ) ;
#275 = CARTESIAN_POINT ( 'NONE',  ( 0.000000000000000000, 0.000000000000000000, 3.000000000000000000 ) ) ;
#276 = VERTEX_POINT ( 'NONE', #270 ) ;
#277 = DIRECTION ( 'NONE',  ( 1.224646799147353207E-16, 1.000000000000000000, -0.000000000000000000 ) ) ;
#278 = APPROVAL_STATUS ( 'not_yet_approved' ) ;
#279 = DIRECTION ( 'NONE',  ( 1.000000000000000000, 0.000000000000000000, 0.000000000000000000 ) ) ;
#280 = AXIS2_PLACEMENT_3D ( 'NONE', #186, #277, #111 ) ;
#281 = ADVANCED_FACE ( 'NONE', ( #297 ), #87, .T. ) ;
#282 = PERSON_AND_ORGANIZATION ( #97, #178 ) ;
#283 = EDGE_CURVE ( 'NONE', #95, #1, #192, .T. ) ;
#284 = CALENDAR_DATE ( 2022, 20, 6 ) ;
#285 = APPROVAL_DATE_TIME ( #191, #305 ) ;
#286 = DIRECTION ( 'NONE',  ( -0.000000000000000000, -0.000000000000000000, -1.000000000000000000 ) ) ;
#287 = APPLICATION_PROTOCOL_DEFINITION ( 'international standard', 'config_control_design', 1994, #162 ) ;
#288 = VERTEX_POINT ( 'NONE', #238 ) ;
#289 = CARTESIAN_POINT ( 'NONE',  ( 0.000000000000000000, 0.000000000000000000, 0.000000000000000000 ) ) ;
#290 = VECTOR ( 'NONE', #200, 1000.000000000000000 ) ;
#291 = CARTESIAN_POINT ( 'NONE',  ( 5.000000000000000000, 6.123233995736766282E-16, 3.000000000000000000 ) ) ;
#292 = PERSON_AND_ORGANIZATION_ROLE ( 'design_supplier' ) ;
#293 = CARTESIAN_POINT ( 'NONE',  ( 0.000000000000000000, 0.000000000000000000, 3.200000000000008171 ) ) ;
#294 = SECURITY_CLASSIFICATION_LEVEL ( 'unclassified' ) ;
#295 = DIRECTION ( 'NONE',  ( 0.000000000000000000, 0.000000000000000000, 1.000000000000000000 ) ) ;
#296 = AXIS2_PLACEMENT_3D ( 'NONE', #239, #261, #145 ) ;
#297 = FACE_OUTER_BOUND ( 'NONE', #233, .T. ) ;
#298 = AXIS2_PLACEMENT_3D ( 'NONE', #240, #49, #143 ) ;
#299 = DATE_AND_TIME ( #158, #161 ) ;
#300 = FACE_OUTER_BOUND ( 'NONE', #18, .T. ) ;
#301 = EDGE_CURVE ( 'NONE', #13, #30, #150, .T. ) ;
#302 = AXIS2_PLACEMENT_3D ( 'NONE', #222, #221, #160 ) ;
#303 = DATE_TIME_ROLE ( 'creation_date' ) ;
#304 = PERSON_AND_ORGANIZATION_ROLE ( 'creator' ) ;
#305 = APPROVAL ( #66, 'NEURÈENÝ' ) ;
#306 =( NAMED_UNIT ( * ) SI_UNIT ( $, .STERADIAN. ) SOLID_ANGLE_UNIT ( ) );
#307 = DIRECTION ( 'NONE',  ( 1.000000000000000000, 0.000000000000000000, 0.000000000000000000 ) ) ;
ENDSEC;
END-ISO-10303-21;
