ISO-10303-21;
HEADER;
FILE_DESCRIPTION (( 'STEP AP203' ),
    '1' );
FILE_NAME ('1501.STEP',
    '2022-06-20T09:48:32',
    ( '' ),
    ( '' ),
    'SwSTEP 2.0',
    'SolidWorks 2019',
    '' );
FILE_SCHEMA (( 'CONFIG_CONTROL_DESIGN' ));
ENDSEC;

DATA;
#1 = CARTESIAN_POINT ( 'NONE',  ( 7.000000000000000000, 8.572527594031473190E-16, 0.000000000000000000 ) ) ;
#2 = ADVANCED_FACE ( 'NONE', ( #18 ), #213, .T. ) ;
#3 = DIRECTION ( 'NONE',  ( 0.000000000000000000, 0.000000000000000000, 1.000000000000000000 ) ) ;
#4 = CC_DESIGN_PERSON_AND_ORGANIZATION_ASSIGNMENT ( #35, #226, ( #234 ) ) ;
#5 = CIRCLE ( 'NONE', #195, 7.000000000000000000 ) ;
#6 = CARTESIAN_POINT ( 'NONE',  ( 4.000000000000000000, 4.898587196589412829E-16, 320.0000000000000000 ) ) ;
#7 = DIRECTION ( 'NONE',  ( 0.000000000000000000, 0.000000000000000000, -1.000000000000000000 ) ) ;
#8 = EDGE_CURVE ( 'NONE', #208, #184, #301, .T. ) ;
#9 = SHAPE_DEFINITION_REPRESENTATION ( #73, #34 ) ;
#10 = ORIENTED_EDGE ( 'NONE', *, *, #61, .T. ) ;
#11 = APPROVAL_STATUS ( 'not_yet_approved' ) ;
#12 = ORIENTED_EDGE ( 'NONE', *, *, #305, .T. ) ;
#13 = DIRECTION ( 'NONE',  ( 0.000000000000000000, 0.000000000000000000, 1.000000000000000000 ) ) ;
#14 = ORIENTED_EDGE ( 'NONE', *, *, #124, .T. ) ;
#15 = CC_DESIGN_PERSON_AND_ORGANIZATION_ASSIGNMENT ( #266, #186, ( #234 ) ) ;
#16 = EDGE_LOOP ( 'NONE', ( #275, #229, #211, #41 ) ) ;
#17 = AXIS2_PLACEMENT_3D ( 'NONE', #102, #177, #265 ) ;
#18 = FACE_OUTER_BOUND ( 'NONE', #233, .T. ) ;
#19 = DIRECTION ( 'NONE',  ( 0.000000000000000000, 0.000000000000000000, 1.000000000000000000 ) ) ;
#20 = DIRECTION ( 'NONE',  ( 0.000000000000000000, 0.000000000000000000, 1.000000000000000000 ) ) ;
#21 = AXIS2_PLACEMENT_3D ( 'NONE', #222, #196, #127 ) ;
#22 = DIRECTION ( 'NONE',  ( 0.000000000000000000, 0.000000000000000000, 1.000000000000000000 ) ) ;
#23 = DIRECTION ( 'NONE',  ( 1.000000000000000000, 0.000000000000000000, -0.000000000000000000 ) ) ;
#24 = CC_DESIGN_DATE_AND_TIME_ASSIGNMENT ( #289, #55, ( #291 ) ) ;
#25 = LINE ( 'NONE', #176, #247 ) ;
#26 = AXIS2_PLACEMENT_3D ( 'NONE', #68, #103, #27 ) ;
#27 = DIRECTION ( 'NONE',  ( 1.000000000000000000, 0.000000000000000000, 0.000000000000000000 ) ) ;
#28 = DIRECTION ( 'NONE',  ( 1.000000000000000000, 0.000000000000000000, 0.000000000000000000 ) ) ;
#29 = APPROVAL ( #60, 'NEURÈENÝ' ) ;
#30 = CARTESIAN_POINT ( 'NONE',  ( -7.000000000000000000, 0.000000000000000000, 0.000000000000000000 ) ) ;
#31 = CARTESIAN_POINT ( 'NONE',  ( 7.000000000000000000, 8.572527594031473190E-16, 5.000000000000000000 ) ) ;
#32 = DATE_TIME_ROLE ( 'creation_date' ) ;
#33 = VERTEX_POINT ( 'NONE', #190 ) ;
#34 = ADVANCED_BREP_SHAPE_REPRESENTATION ( '1501', ( #299, #296 ), #39 ) ;
#35 = PERSON_AND_ORGANIZATION ( #283, #223 ) ;
#36 = ORIENTED_EDGE ( 'NONE', *, *, #305, .F. ) ;
#37 = PERSON_AND_ORGANIZATION_ROLE ( 'classification_officer' ) ;
#38 = EDGE_CURVE ( 'NONE', #189, #164, #263, .T. ) ;
#39 =( GEOMETRIC_REPRESENTATION_CONTEXT ( 3 ) GLOBAL_UNCERTAINTY_ASSIGNED_CONTEXT ( ( #268 ) ) GLOBAL_UNIT_ASSIGNED_CONTEXT ( ( #153, #284, #220 ) ) REPRESENTATION_CONTEXT ( 'NONE', 'WORKASPACE' ) );
#40 = DATE_AND_TIME ( #62, #250 ) ;
#41 = ORIENTED_EDGE ( 'NONE', *, *, #150, .T. ) ;
#42 = VERTEX_POINT ( 'NONE', #43 ) ;
#43 = CARTESIAN_POINT ( 'NONE',  ( -4.000000000000000000, 0.000000000000000000, 5.199999999999982414 ) ) ;
#44 = AXIS2_PLACEMENT_3D ( 'NONE', #53, #152, #128 ) ;
#45 = CARTESIAN_POINT ( 'NONE',  ( 0.000000000000000000, 0.000000000000000000, 5.000000000000000000 ) ) ;
#46 = CC_DESIGN_PERSON_AND_ORGANIZATION_ASSIGNMENT ( #88, #228, ( #168 ) ) ;
#47 = DIRECTION ( 'NONE',  ( 1.000000000000000000, 0.000000000000000000, 0.000000000000000000 ) ) ;
#48 = FACE_OUTER_BOUND ( 'NONE', #114, .T. ) ;
#49 = DIRECTION ( 'NONE',  ( 1.000000000000000000, 0.000000000000000000, -0.000000000000000000 ) ) ;
#50 = ADVANCED_FACE ( 'NONE', ( #144 ), #54, .F. ) ;
#51 = DIRECTION ( 'NONE',  ( -0.000000000000000000, -0.000000000000000000, -1.000000000000000000 ) ) ;
#52 = CARTESIAN_POINT ( 'NONE',  ( 0.000000000000000000, 0.000000000000000000, 5.199999999999982414 ) ) ;
#53 = CARTESIAN_POINT ( 'NONE',  ( 0.000000000000000000, 0.000000000000000000, 5.199999999999982414 ) ) ;
#54 = TOROIDAL_SURFACE ( 'NONE', #63, 4.200000000000000178, 0.2000000000000000111 ) ;
#55 = DATE_TIME_ROLE ( 'classification_date' ) ;
#56 = DESIGN_CONTEXT ( 'detailed design', #84, 'design' ) ;
#57 = COORDINATED_UNIVERSAL_TIME_OFFSET ( 1, 0, .AHEAD. ) ;
#58 = ORIENTED_EDGE ( 'NONE', *, *, #179, .T. ) ;
#59 = ADVANCED_FACE ( 'NONE', ( #303 ), #72, .T. ) ;
#60 = APPROVAL_STATUS ( 'not_yet_approved' ) ;
#61 = EDGE_CURVE ( 'NONE', #33, #252, #180, .T. ) ;
#62 = CALENDAR_DATE ( 2022, 20, 6 ) ;
#63 = AXIS2_PLACEMENT_3D ( 'NONE', #119, #280, #215 ) ;
#64 = AXIS2_PLACEMENT_3D ( 'NONE', #171, #19, #281 ) ;
#65 = SECURITY_CLASSIFICATION_LEVEL ( 'unclassified' ) ;
#66 = CARTESIAN_POINT ( 'NONE',  ( -4.200000000000000178, 5.143516556418882928E-16, 5.199999999999982414 ) ) ;
#67 = EDGE_CURVE ( 'NONE', #164, #208, #304, .T. ) ;
#68 = CARTESIAN_POINT ( 'NONE',  ( 0.000000000000000000, 0.000000000000000000, 320.0000000000000000 ) ) ;
#69 = CIRCLE ( 'NONE', #17, 4.000000000000000000 ) ;
#70 = CARTESIAN_POINT ( 'NONE',  ( 4.200000000000000178, 0.000000000000000000, 4.999999999999991118 ) ) ;
#71 = ADVANCED_FACE ( 'NONE', ( #117 ), #95, .T. ) ;
#72 = CYLINDRICAL_SURFACE ( 'NONE', #307, 4.000000000000000000 ) ;
#73 = PRODUCT_DEFINITION_SHAPE ( 'NONE', 'NONE',  #202 ) ;
#74 = CC_DESIGN_PERSON_AND_ORGANIZATION_ASSIGNMENT ( #181, #225, ( #202 ) ) ;
#75 = CARTESIAN_POINT ( 'NONE',  ( 0.000000000000000000, 0.000000000000000000, 0.000000000000000000 ) ) ;
#76 = CIRCLE ( 'NONE', #26, 4.000000000000000000 ) ;
#77 = CC_DESIGN_APPROVAL ( #86, ( #291 ) ) ;
#78 = CARTESIAN_POINT ( 'NONE',  ( 0.000000000000000000, 0.000000000000000000, 5.000000000000000000 ) ) ;
#79 = CARTESIAN_POINT ( 'NONE',  ( 0.000000000000000000, 0.000000000000000000, 5.000000000000000000 ) ) ;
#80 = AXIS2_PLACEMENT_3D ( 'NONE', #212, #217, #49 ) ;
#81 = APPROVAL_PERSON_ORGANIZATION ( #109, #86, #163 ) ;
#82 = CARTESIAN_POINT ( 'NONE',  ( 0.000000000000000000, 0.000000000000000000, 0.000000000000000000 ) ) ;
#83 = DIRECTION ( 'NONE',  ( 0.000000000000000000, -1.000000000000000000, 0.000000000000000000 ) ) ;
#84 = APPLICATION_CONTEXT ( 'configuration controlled 3d designs of mechanical parts and assemblies' ) ;
#85 = PERSON_AND_ORGANIZATION ( #283, #223 ) ;
#86 = APPROVAL ( #92, 'NEURÈENÝ' ) ;
#87 = AXIS2_PLACEMENT_3D ( 'NONE', #75, #298, #47 ) ;
#88 = PERSON_AND_ORGANIZATION ( #283, #223 ) ;
#89 = ORIENTED_EDGE ( 'NONE', *, *, #185, .F. ) ;
#90 = ORIENTED_EDGE ( 'NONE', *, *, #147, .F. ) ;
#91 = APPLICATION_CONTEXT ( 'configuration controlled 3d designs of mechanical parts and assemblies' ) ;
#92 = APPROVAL_STATUS ( 'not_yet_approved' ) ;
#93 = VECTOR ( 'NONE', #51, 1000.000000000000000 ) ;
#94 = VERTEX_POINT ( 'NONE', #143 ) ;
#95 = PLANE ( 'NONE',  #140 ) ;
#96 = CLOSED_SHELL ( 'NONE', ( #238, #59, #156, #2, #97, #104, #112, #71, #50 ) ) ;
#97 = ADVANCED_FACE ( 'NONE', ( #146, #48 ), #240, .T. ) ;
#98 = VERTEX_POINT ( 'NONE', #70 ) ;
#99 = CYLINDRICAL_SURFACE ( 'NONE', #209, 4.000000000000000000 ) ;
#100 = DIRECTION ( 'NONE',  ( -0.000000000000000000, -0.000000000000000000, -1.000000000000000000 ) ) ;
#101 = TOROIDAL_SURFACE ( 'NONE', #44, 4.200000000000000178, 0.2000000000000000111 ) ;
#102 = CARTESIAN_POINT ( 'NONE',  ( 0.000000000000000000, 0.000000000000000000, 5.199999999999982414 ) ) ;
#103 = DIRECTION ( 'NONE',  ( 0.000000000000000000, 0.000000000000000000, 1.000000000000000000 ) ) ;
#104 = ADVANCED_FACE ( 'NONE', ( #260 ), #122, .F. ) ;
#105 = LINE ( 'NONE', #197, #239 ) ;
#106 = LOCAL_TIME ( 11, 48, 32.00000000000000000, #57 ) ;
#107 = CARTESIAN_POINT ( 'NONE',  ( 4.200000000000000178, 0.000000000000000000, 5.199999999999982414 ) ) ;
#108 = COORDINATED_UNIVERSAL_TIME_OFFSET ( 1, 0, .AHEAD. ) ;
#109 = PERSON_AND_ORGANIZATION ( #283, #223 ) ;
#110 = CC_DESIGN_APPROVAL ( #116, ( #202 ) ) ;
#111 = ORIENTED_EDGE ( 'NONE', *, *, #120, .T. ) ;
#112 = ADVANCED_FACE ( 'NONE', ( #193 ), #99, .T. ) ;
#113 = CIRCLE ( 'NONE', #149, 4.000000000000000000 ) ;
#114 = EDGE_LOOP ( 'NONE', ( #279, #58 ) ) ;
#115 = AXIS2_PLACEMENT_3D ( 'NONE', #107, #83, #7 ) ;
#116 = APPROVAL ( #11, 'NEURÈENÝ' ) ;
#117 = FACE_OUTER_BOUND ( 'NONE', #203, .T. ) ;
#118 = EDGE_LOOP ( 'NONE', ( #135, #158, #192, #90 ) ) ;
#119 = CARTESIAN_POINT ( 'NONE',  ( 0.000000000000000000, 0.000000000000000000, 5.199999999999982414 ) ) ;
#120 = EDGE_CURVE ( 'NONE', #42, #94, #145, .T. ) ;
#121 = CC_DESIGN_SECURITY_CLASSIFICATION ( #291, ( #234 ) ) ;
#122 = PLANE ( 'NONE',  #80 ) ;
#123 = CARTESIAN_POINT ( 'NONE',  ( 0.000000000000000000, 0.000000000000000000, 320.0000000000000000 ) ) ;
#124 = EDGE_CURVE ( 'NONE', #252, #33, #76, .T. ) ;
#125 = DIRECTION ( 'NONE',  ( 0.000000000000000000, 0.000000000000000000, 1.000000000000000000 ) ) ;
#126 = APPROVAL_PERSON_ORGANIZATION ( #85, #116, #155 ) ;
#127 = DIRECTION ( 'NONE',  ( 1.000000000000000000, 0.000000000000000000, 0.000000000000000000 ) ) ;
#128 = DIRECTION ( 'NONE',  ( 1.000000000000000000, 0.000000000000000000, 0.000000000000000000 ) ) ;
#129 = LOCAL_TIME ( 11, 48, 32.00000000000000000, #253 ) ;
#130 = DIRECTION ( 'NONE',  ( 0.000000000000000000, 0.000000000000000000, 1.000000000000000000 ) ) ;
#131 = APPLICATION_PROTOCOL_DEFINITION ( 'international standard', 'config_control_design', 1994, #84 ) ;
#132 = APPROVAL_DATE_TIME ( #248, #116 ) ;
#133 = ORIENTED_EDGE ( 'NONE', *, *, #166, .F. ) ;
#134 = AXIS2_PLACEMENT_3D ( 'NONE', #257, #22, #23 ) ;
#135 = ORIENTED_EDGE ( 'NONE', *, *, #179, .F. ) ;
#136 = DIRECTION ( 'NONE',  ( 1.000000000000000000, 0.000000000000000000, 0.000000000000000000 ) ) ;
#137 = EDGE_LOOP ( 'NONE', ( #292, #232 ) ) ;
#138 = APPROVAL_ROLE ( '' ) ;
#139 = ORIENTED_EDGE ( 'NONE', *, *, #38, .F. ) ;
#140 = AXIS2_PLACEMENT_3D ( 'NONE', #258, #194, #191 ) ;
#141 = DIRECTION ( 'NONE',  ( 1.224646799147353207E-16, 1.000000000000000000, -0.000000000000000000 ) ) ;
#142 = EDGE_CURVE ( 'NONE', #252, #206, #151, .T. ) ;
#143 = CARTESIAN_POINT ( 'NONE',  ( -4.200000000000000178, 5.143516556418882928E-16, 4.999999999999991118 ) ) ;
#144 = FACE_OUTER_BOUND ( 'NONE', #269, .T. ) ;
#145 = CIRCLE ( 'NONE', #259, 0.1999999999999996503 ) ;
#146 = FACE_BOUND ( 'NONE', #137, .T. ) ;
#147 = EDGE_CURVE ( 'NONE', #189, #184, #25, .T. ) ;
#148 = CARTESIAN_POINT ( 'NONE',  ( 0.000000000000000000, 0.000000000000000000, 5.000000000000000000 ) ) ;
#149 = AXIS2_PLACEMENT_3D ( 'NONE', #52, #3, #173 ) ;
#150 = EDGE_CURVE ( 'NONE', #42, #206, #113, .T. ) ;
#151 = LINE ( 'NONE', #242, #93 ) ;
#152 = DIRECTION ( 'NONE',  ( 0.000000000000000000, 0.000000000000000000, 1.000000000000000000 ) ) ;
#153 =( LENGTH_UNIT ( ) NAMED_UNIT ( * ) SI_UNIT ( .MILLI., .METRE. ) );
#154 = VECTOR ( 'NONE', #277, 1000.000000000000000 ) ;
#155 = APPROVAL_ROLE ( '' ) ;
#156 = ADVANCED_FACE ( 'NONE', ( #245 ), #244, .T. ) ;
#157 = CALENDAR_DATE ( 2022, 20, 6 ) ;
#158 = ORIENTED_EDGE ( 'NONE', *, *, #67, .T. ) ;
#159 = PRODUCT_RELATED_PRODUCT_CATEGORY ( 'detail', '', ( #168 ) ) ;
#160 = PERSON_AND_ORGANIZATION ( #283, #223 ) ;
#161 = ORIENTED_EDGE ( 'NONE', *, *, #8, .F. ) ;
#162 = AXIS2_PLACEMENT_3D ( 'NONE', #79, #261, #246 ) ;
#163 = APPROVAL_ROLE ( '' ) ;
#164 = VERTEX_POINT ( 'NONE', #31 ) ;
#165 = CALENDAR_DATE ( 2022, 20, 6 ) ;
#166 = EDGE_CURVE ( 'NONE', #184, #208, #5, .T. ) ;
#167 = DIRECTION ( 'NONE',  ( -0.000000000000000000, -0.000000000000000000, -1.000000000000000000 ) ) ;
#168 = PRODUCT ( '1501', '1501', '', ( #295 ) ) ;
#169 = DIRECTION ( 'NONE',  ( 1.000000000000000000, 0.000000000000000000, 0.000000000000000000 ) ) ;
#170 = CARTESIAN_POINT ( 'NONE',  ( 0.000000000000000000, 0.000000000000000000, 320.0000000000000000 ) ) ;
#171 = CARTESIAN_POINT ( 'NONE',  ( 0.000000000000000000, 0.000000000000000000, 320.0000000000000000 ) ) ;
#172 = AXIS2_PLACEMENT_3D ( 'NONE', #78, #221, #285 ) ;
#173 = DIRECTION ( 'NONE',  ( 1.000000000000000000, 0.000000000000000000, 0.000000000000000000 ) ) ;
#174 = CARTESIAN_POINT ( 'NONE',  ( -7.000000000000000000, 0.000000000000000000, 5.000000000000000000 ) ) ;
#175 = AXIS2_PLACEMENT_3D ( 'NONE', #45, #20, #169 ) ;
#176 = CARTESIAN_POINT ( 'NONE',  ( -7.000000000000000000, 0.000000000000000000, 5.000000000000000000 ) ) ;
#177 = DIRECTION ( 'NONE',  ( 0.000000000000000000, 0.000000000000000000, 1.000000000000000000 ) ) ;
#178 = APPROVAL_DATE_TIME ( #231, #29 ) ;
#179 = EDGE_CURVE ( 'NONE', #164, #189, #282, .T. ) ;
#180 = CIRCLE ( 'NONE', #64, 4.000000000000000000 ) ;
#181 = PERSON_AND_ORGANIZATION ( #283, #223 ) ;
#182 = EDGE_LOOP ( 'NONE', ( #133, #161 ) ) ;
#183 = PERSON_AND_ORGANIZATION ( #283, #223 ) ;
#184 = VERTEX_POINT ( 'NONE', #30 ) ;
#185 = EDGE_CURVE ( 'NONE', #94, #98, #204, .T. ) ;
#186 = PERSON_AND_ORGANIZATION_ROLE ( 'design_supplier' ) ;
#187 = ORIENTED_EDGE ( 'NONE', *, *, #150, .F. ) ;
#188 = ORIENTED_EDGE ( 'NONE', *, *, #147, .T. ) ;
#189 = VERTEX_POINT ( 'NONE', #174 ) ;
#190 = CARTESIAN_POINT ( 'NONE',  ( -4.000000000000000000, 0.000000000000000000, 320.0000000000000000 ) ) ;
#191 = DIRECTION ( 'NONE',  ( 1.000000000000000000, 0.000000000000000000, -0.000000000000000000 ) ) ;
#192 = ORIENTED_EDGE ( 'NONE', *, *, #8, .T. ) ;
#193 = FACE_OUTER_BOUND ( 'NONE', #16, .T. ) ;
#194 = DIRECTION ( 'NONE',  ( 0.000000000000000000, 0.000000000000000000, 1.000000000000000000 ) ) ;
#195 = AXIS2_PLACEMENT_3D ( 'NONE', #82, #130, #262 ) ;
#196 = DIRECTION ( 'NONE',  ( -0.000000000000000000, -0.000000000000000000, -1.000000000000000000 ) ) ;
#197 = CARTESIAN_POINT ( 'NONE',  ( -4.000000000000000000, 0.000000000000000000, 320.0000000000000000 ) ) ;
#198 = CIRCLE ( 'NONE', #172, 4.200000000000000178 ) ;
#199 = DIRECTION ( 'NONE',  ( -0.000000000000000000, -0.000000000000000000, -1.000000000000000000 ) ) ;
#200 = CALENDAR_DATE ( 2022, 20, 6 ) ;
#201 = COORDINATED_UNIVERSAL_TIME_OFFSET ( 1, 0, .AHEAD. ) ;
#202 = PRODUCT_DEFINITION ( 'NEZNÁMÝ', '', #234, #56 ) ;
#203 = EDGE_LOOP ( 'NONE', ( #10, #14 ) ) ;
#204 = CIRCLE ( 'NONE', #21, 4.200000000000000178 ) ;
#205 = EDGE_LOOP ( 'NONE', ( #187, #111, #271, #273 ) ) ;
#206 = VERTEX_POINT ( 'NONE', #219 ) ;
#207 = APPLICATION_PROTOCOL_DEFINITION ( 'international standard', 'config_control_design', 1994, #91 ) ;
#208 = VERTEX_POINT ( 'NONE', #1 ) ;
#209 = AXIS2_PLACEMENT_3D ( 'NONE', #123, #167, #218 ) ;
#210 = LOCAL_TIME ( 11, 48, 32.00000000000000000, #201 ) ;
#211 = ORIENTED_EDGE ( 'NONE', *, *, #230, .T. ) ;
#212 = CARTESIAN_POINT ( 'NONE',  ( 0.000000000000000000, 0.000000000000000000, 0.000000000000000000 ) ) ;
#213 = CYLINDRICAL_SURFACE ( 'NONE', #267, 7.000000000000000000 ) ;
#214 = EDGE_CURVE ( 'NONE', #98, #94, #198, .T. ) ;
#215 = DIRECTION ( 'NONE',  ( 1.000000000000000000, 0.000000000000000000, 0.000000000000000000 ) ) ;
#216 = LOCAL_TIME ( 11, 48, 32.00000000000000000, #108 ) ;
#217 = DIRECTION ( 'NONE',  ( 0.000000000000000000, 0.000000000000000000, 1.000000000000000000 ) ) ;
#218 = DIRECTION ( 'NONE',  ( -1.000000000000000000, 0.000000000000000000, 0.000000000000000000 ) ) ;
#219 = CARTESIAN_POINT ( 'NONE',  ( 4.000000000000000000, 4.898587196589412829E-16, 5.199999999999982414 ) ) ;
#220 =( NAMED_UNIT ( * ) SI_UNIT ( $, .STERADIAN. ) SOLID_ANGLE_UNIT ( ) );
#221 = DIRECTION ( 'NONE',  ( -0.000000000000000000, -0.000000000000000000, -1.000000000000000000 ) ) ;
#222 = CARTESIAN_POINT ( 'NONE',  ( 0.000000000000000000, 0.000000000000000000, 5.000000000000000000 ) ) ;
#223 = ORGANIZATION ( 'NEURÈENÝ', 'NEURÈENÝ', '' ) ;
#224 = CC_DESIGN_PERSON_AND_ORGANIZATION_ASSIGNMENT ( #160, #37, ( #291 ) ) ;
#225 = PERSON_AND_ORGANIZATION_ROLE ( 'creator' ) ;
#226 = PERSON_AND_ORGANIZATION_ROLE ( 'creator' ) ;
#227 = ORIENTED_EDGE ( 'NONE', *, *, #67, .F. ) ;
#228 = PERSON_AND_ORGANIZATION_ROLE ( 'design_owner' ) ;
#229 = ORIENTED_EDGE ( 'NONE', *, *, #61, .F. ) ;
#230 = EDGE_CURVE ( 'NONE', #33, #42, #105, .T. ) ;
#231 = DATE_AND_TIME ( #200, #106 ) ;
#232 = ORIENTED_EDGE ( 'NONE', *, *, #185, .T. ) ;
#233 = EDGE_LOOP ( 'NONE', ( #227, #139, #188, #276 ) ) ;
#234 = PRODUCT_DEFINITION_FORMATION_WITH_SPECIFIED_SOURCE ( 'LIBOVOLNÝ', '', #168, .NOT_KNOWN. ) ;
#235 = DIRECTION ( 'NONE',  ( -1.000000000000000000, 1.224646799147353454E-16, 0.000000000000000000 ) ) ;
#236 = DIRECTION ( 'NONE',  ( -1.000000000000000000, 0.000000000000000000, 0.000000000000000000 ) ) ;
#237 = CARTESIAN_POINT ( 'NONE',  ( 0.000000000000000000, 0.000000000000000000, 5.000000000000000000 ) ) ;
#238 = ADVANCED_FACE ( 'NONE', ( #286 ), #101, .F. ) ;
#239 = VECTOR ( 'NONE', #288, 1000.000000000000000 ) ;
#240 = PLANE ( 'NONE',  #134 ) ;
#241 = CC_DESIGN_DATE_AND_TIME_ASSIGNMENT ( #270, #32, ( #202 ) ) ;
#242 = CARTESIAN_POINT ( 'NONE',  ( 4.000000000000000000, 4.898587196589412829E-16, 320.0000000000000000 ) ) ;
#243 = APPROVAL_PERSON_ORGANIZATION ( #183, #29, #138 ) ;
#244 = CYLINDRICAL_SURFACE ( 'NONE', #162, 7.000000000000000000 ) ;
#245 = FACE_OUTER_BOUND ( 'NONE', #118, .T. ) ;
#246 = DIRECTION ( 'NONE',  ( -1.000000000000000000, 0.000000000000000000, 0.000000000000000000 ) ) ;
#247 = VECTOR ( 'NONE', #199, 1000.000000000000000 ) ;
#248 = DATE_AND_TIME ( #272, #216 ) ;
#249 = ORIENTED_EDGE ( 'NONE', *, *, #142, .T. ) ;
#250 = LOCAL_TIME ( 11, 48, 32.00000000000000000, #251 ) ;
#251 = COORDINATED_UNIVERSAL_TIME_OFFSET ( 1, 0, .AHEAD. ) ;
#252 = VERTEX_POINT ( 'NONE', #6 ) ;
#253 = COORDINATED_UNIVERSAL_TIME_OFFSET ( 1, 0, .AHEAD. ) ;
#254 = ORIENTED_EDGE ( 'NONE', *, *, #264, .T. ) ;
#255 = EDGE_LOOP ( 'NONE', ( #297, #249, #12, #290 ) ) ;
#256 = DIRECTION ( 'NONE',  ( -1.000000000000000000, 0.000000000000000000, 0.000000000000000000 ) ) ;
#257 = CARTESIAN_POINT ( 'NONE',  ( 0.000000000000000000, 0.000000000000000000, 5.000000000000000000 ) ) ;
#258 = CARTESIAN_POINT ( 'NONE',  ( 0.000000000000000000, 0.000000000000000000, 320.0000000000000000 ) ) ;
#259 = AXIS2_PLACEMENT_3D ( 'NONE', #66, #141, #235 ) ;
#260 = FACE_OUTER_BOUND ( 'NONE', #182, .T. ) ;
#261 = DIRECTION ( 'NONE',  ( -0.000000000000000000, -0.000000000000000000, -1.000000000000000000 ) ) ;
#262 = DIRECTION ( 'NONE',  ( 1.000000000000000000, 0.000000000000000000, 0.000000000000000000 ) ) ;
#263 = CIRCLE ( 'NONE', #175, 7.000000000000000000 ) ;
#264 = EDGE_CURVE ( 'NONE', #206, #98, #302, .T. ) ;
#265 = DIRECTION ( 'NONE',  ( 1.000000000000000000, 0.000000000000000000, 0.000000000000000000 ) ) ;
#266 = PERSON_AND_ORGANIZATION ( #283, #223 ) ;
#267 = AXIS2_PLACEMENT_3D ( 'NONE', #237, #306, #236 ) ;
#268 = UNCERTAINTY_MEASURE_WITH_UNIT (LENGTH_MEASURE( 1.000000000000000082E-05 ), #153, 'distance_accuracy_value', 'NONE');
#269 = EDGE_LOOP ( 'NONE', ( #294, #36, #254, #89 ) ) ;
#270 = DATE_AND_TIME ( #157, #210 ) ;
#271 = ORIENTED_EDGE ( 'NONE', *, *, #214, .F. ) ;
#272 = CALENDAR_DATE ( 2022, 20, 6 ) ;
#273 = ORIENTED_EDGE ( 'NONE', *, *, #264, .F. ) ;
#274 = CARTESIAN_POINT ( 'NONE',  ( 0.000000000000000000, 0.000000000000000000, 0.000000000000000000 ) ) ;
#275 = ORIENTED_EDGE ( 'NONE', *, *, #142, .F. ) ;
#276 = ORIENTED_EDGE ( 'NONE', *, *, #166, .T. ) ;
#277 = DIRECTION ( 'NONE',  ( -0.000000000000000000, -0.000000000000000000, -1.000000000000000000 ) ) ;
#278 = CC_DESIGN_APPROVAL ( #29, ( #234 ) ) ;
#279 = ORIENTED_EDGE ( 'NONE', *, *, #38, .T. ) ;
#280 = DIRECTION ( 'NONE',  ( 0.000000000000000000, 0.000000000000000000, 1.000000000000000000 ) ) ;
#281 = DIRECTION ( 'NONE',  ( 1.000000000000000000, 0.000000000000000000, 0.000000000000000000 ) ) ;
#282 = CIRCLE ( 'NONE', #287, 7.000000000000000000 ) ;
#283 = PERSON ( 'NEURÈENÝ', 'NEURÈENÝ', 'NEURÈENÝ', ('NEURÈENÝ'), ('NEURÈENÝ'), ('NEURÈENÝ') ) ;
#284 =( NAMED_UNIT ( * ) PLANE_ANGLE_UNIT ( ) SI_UNIT ( $, .RADIAN. ) );
#285 = DIRECTION ( 'NONE',  ( 1.000000000000000000, 0.000000000000000000, 0.000000000000000000 ) ) ;
#286 = FACE_OUTER_BOUND ( 'NONE', #205, .T. ) ;
#287 = AXIS2_PLACEMENT_3D ( 'NONE', #148, #125, #28 ) ;
#288 = DIRECTION ( 'NONE',  ( -0.000000000000000000, -0.000000000000000000, -1.000000000000000000 ) ) ;
#289 = DATE_AND_TIME ( #165, #129 ) ;
#290 = ORIENTED_EDGE ( 'NONE', *, *, #230, .F. ) ;
#291 = SECURITY_CLASSIFICATION ( '', '', #65 ) ;
#292 = ORIENTED_EDGE ( 'NONE', *, *, #214, .T. ) ;
#293 = APPROVAL_DATE_TIME ( #40, #86 ) ;
#294 = ORIENTED_EDGE ( 'NONE', *, *, #120, .F. ) ;
#295 = MECHANICAL_CONTEXT ( 'NONE', #91, 'mechanical' ) ;
#296 = AXIS2_PLACEMENT_3D ( 'NONE', #274, #13, #136 ) ;
#297 = ORIENTED_EDGE ( 'NONE', *, *, #124, .F. ) ;
#298 = DIRECTION ( 'NONE',  ( 0.000000000000000000, 0.000000000000000000, 1.000000000000000000 ) ) ;
#299 = MANIFOLD_SOLID_BREP ( 'Zaoblit1', #96 ) ;
#300 = CARTESIAN_POINT ( 'NONE',  ( 7.000000000000000000, 8.572527594031473190E-16, 5.000000000000000000 ) ) ;
#301 = CIRCLE ( 'NONE', #87, 7.000000000000000000 ) ;
#302 = CIRCLE ( 'NONE', #115, 0.1999999999999996503 ) ;
#303 = FACE_OUTER_BOUND ( 'NONE', #255, .T. ) ;
#304 = LINE ( 'NONE', #300, #154 ) ;
#305 = EDGE_CURVE ( 'NONE', #206, #42, #69, .T. ) ;
#306 = DIRECTION ( 'NONE',  ( -0.000000000000000000, -0.000000000000000000, -1.000000000000000000 ) ) ;
#307 = AXIS2_PLACEMENT_3D ( 'NONE', #170, #100, #256 ) ;
ENDSEC;
END-ISO-10303-21;
