ISO-10303-21;
HEADER;
FILE_DESCRIPTION (( 'STEP AP203' ),
    '1' );
FILE_NAME ('9545.STEP',
    '2022-06-20T09:42:40',
    ( '' ),
    ( '' ),
    'SwSTEP 2.0',
    'SolidWorks 2019',
    '' );
FILE_SCHEMA (( 'CONFIG_CONTROL_DESIGN' ));
ENDSEC;

DATA;
#1 = VERTEX_POINT ( 'NONE', #40 ) ;
#2 = FACE_OUTER_BOUND ( 'NONE', #214, .T. ) ;
#3 = DIRECTION ( 'NONE',  ( 1.000000000000000000, 0.000000000000000000, -0.000000000000000000 ) ) ;
#4 = ORIENTED_EDGE ( 'NONE', *, *, #21, .T. ) ;
#5 = TOROIDAL_SURFACE ( 'NONE', #69, 4.700000000000000178, 0.2000000000000000111 ) ;
#6 = LINE ( 'NONE', #94, #294 ) ;
#7 = CIRCLE ( 'NONE', #67, 4.500000000000000888 ) ;
#8 = CARTESIAN_POINT ( 'NONE',  ( 4.700000000000000178, 0.000000000000000000, 5.199999999999982414 ) ) ;
#9 = ORIENTED_EDGE ( 'NONE', *, *, #70, .T. ) ;
#10 = EDGE_CURVE ( 'NONE', #18, #113, #19, .T. ) ;
#11 = CARTESIAN_POINT ( 'NONE',  ( 0.000000000000000000, 0.000000000000000000, 805.0000000000000000 ) ) ;
#12 = PLANE ( 'NONE',  #74 ) ;
#13 = COORDINATED_UNIVERSAL_TIME_OFFSET ( 1, 0, .AHEAD. ) ;
#14 = CARTESIAN_POINT ( 'NONE',  ( 0.000000000000000000, 0.000000000000000000, 805.0000000000000000 ) ) ;
#15 = APPLICATION_PROTOCOL_DEFINITION ( 'international standard', 'config_control_design', 1994, #134 ) ;
#16 = EDGE_LOOP ( 'NONE', ( #200, #146, #4, #95 ) ) ;
#17 = AXIS2_PLACEMENT_3D ( 'NONE', #257, #54, #203 ) ;
#18 = VERTEX_POINT ( 'NONE', #82 ) ;
#19 = CIRCLE ( 'NONE', #221, 4.500000000000000888 ) ;
#20 = CARTESIAN_POINT ( 'NONE',  ( 0.000000000000000000, 0.000000000000000000, 805.0000000000000000 ) ) ;
#21 = EDGE_CURVE ( 'NONE', #191, #263, #154, .T. ) ;
#22 = CIRCLE ( 'NONE', #225, 7.000000000000000000 ) ;
#23 = DIRECTION ( 'NONE',  ( 0.000000000000000000, 0.000000000000000000, 1.000000000000000000 ) ) ;
#24 = CARTESIAN_POINT ( 'NONE',  ( 7.000000000000000000, 8.572527594031473190E-16, 5.000000000000000000 ) ) ;
#25 = VERTEX_POINT ( 'NONE', #212 ) ;
#26 = DIRECTION ( 'NONE',  ( -0.000000000000000000, -0.000000000000000000, -1.000000000000000000 ) ) ;
#27 = ORIENTED_EDGE ( 'NONE', *, *, #126, .T. ) ;
#28 = CARTESIAN_POINT ( 'NONE',  ( 0.000000000000000000, 0.000000000000000000, 5.000000000000000000 ) ) ;
#29 = ORIENTED_EDGE ( 'NONE', *, *, #286, .T. ) ;
#30 = CARTESIAN_POINT ( 'NONE',  ( 7.000000000000000000, 8.572527594031473190E-16, 0.000000000000000000 ) ) ;
#31 = PRODUCT_RELATED_PRODUCT_CATEGORY ( 'detail', '', ( #182 ) ) ;
#32 = EDGE_LOOP ( 'NONE', ( #261, #120 ) ) ;
#33 = DIRECTION ( 'NONE',  ( 0.000000000000000000, 0.000000000000000000, 1.000000000000000000 ) ) ;
#34 = ORIENTED_EDGE ( 'NONE', *, *, #207, .T. ) ;
#35 = APPROVAL_PERSON_ORGANIZATION ( #104, #117, #299 ) ;
#36 = ORIENTED_EDGE ( 'NONE', *, *, #126, .F. ) ;
#37 = ADVANCED_FACE ( 'NONE', ( #53 ), #12, .F. ) ;
#38 = PERSON_AND_ORGANIZATION ( #250, #103 ) ;
#39 = EDGE_LOOP ( 'NONE', ( #204, #288, #186, #50 ) ) ;
#40 = CARTESIAN_POINT ( 'NONE',  ( 4.700000000000000178, 0.000000000000000000, 4.999999999999991118 ) ) ;
#41 = PERSON_AND_ORGANIZATION ( #250, #103 ) ;
#42 = LOCAL_TIME ( 11, 42, 40.00000000000000000, #86 ) ;
#43 = DIRECTION ( 'NONE',  ( 1.000000000000000000, 0.000000000000000000, 0.000000000000000000 ) ) ;
#44 = ADVANCED_FACE ( 'NONE', ( #61 ), #228, .F. ) ;
#45 = CALENDAR_DATE ( 2022, 20, 6 ) ;
#46 = EDGE_CURVE ( 'NONE', #25, #247, #149, .T. ) ;
#47 = LOCAL_TIME ( 11, 42, 40.00000000000000000, #13 ) ;
#48 = DIRECTION ( 'NONE',  ( -1.000000000000000000, 0.000000000000000000, 0.000000000000000000 ) ) ;
#49 = DIRECTION ( 'NONE',  ( 1.000000000000000000, 0.000000000000000000, -0.000000000000000000 ) ) ;
#50 = ORIENTED_EDGE ( 'NONE', *, *, #176, .F. ) ;
#51 = CC_DESIGN_APPROVAL ( #153, ( #158 ) ) ;
#52 = EDGE_CURVE ( 'NONE', #263, #191, #62, .T. ) ;
#53 = FACE_OUTER_BOUND ( 'NONE', #32, .T. ) ;
#54 = DIRECTION ( 'NONE',  ( -0.000000000000000000, -0.000000000000000000, -1.000000000000000000 ) ) ;
#55 = ORIENTED_EDGE ( 'NONE', *, *, #57, .T. ) ;
#56 = CARTESIAN_POINT ( 'NONE',  ( -7.000000000000000000, 0.000000000000000000, 5.000000000000000000 ) ) ;
#57 = EDGE_CURVE ( 'NONE', #124, #142, #298, .T. ) ;
#58 = EDGE_LOOP ( 'NONE', ( #285, #36, #29, #235 ) ) ;
#59 = APPROVAL_PERSON_ORGANIZATION ( #85, #110, #125 ) ;
#60 = CALENDAR_DATE ( 2022, 20, 6 ) ;
#61 = FACE_OUTER_BOUND ( 'NONE', #150, .T. ) ;
#62 = CIRCLE ( 'NONE', #132, 7.000000000000000000 ) ;
#63 = ORIENTED_EDGE ( 'NONE', *, *, #249, .F. ) ;
#64 = PERSON_AND_ORGANIZATION_ROLE ( 'creator' ) ;
#65 = FACE_OUTER_BOUND ( 'NONE', #238, .T. ) ;
#66 = PERSON_AND_ORGANIZATION_ROLE ( 'creator' ) ;
#67 = AXIS2_PLACEMENT_3D ( 'NONE', #273, #155, #128 ) ;
#68 = LOCAL_TIME ( 11, 42, 40.00000000000000000, #265 ) ;
#69 = AXIS2_PLACEMENT_3D ( 'NONE', #227, #23, #275 ) ;
#70 = EDGE_CURVE ( 'NONE', #100, #25, #92, .T. ) ;
#71 = VECTOR ( 'NONE', #26, 1000.000000000000000 ) ;
#72 = ADVANCED_BREP_SHAPE_REPRESENTATION ( '9545', ( #236, #157 ), #279 ) ;
#73 = CARTESIAN_POINT ( 'NONE',  ( 0.000000000000000000, 0.000000000000000000, 805.0000000000000000 ) ) ;
#74 = AXIS2_PLACEMENT_3D ( 'NONE', #127, #184, #267 ) ;
#75 = DIRECTION ( 'NONE',  ( 0.000000000000000000, -1.000000000000000000, 0.000000000000000000 ) ) ;
#76 = CYLINDRICAL_SURFACE ( 'NONE', #17, 7.000000000000000000 ) ;
#77 = ORIENTED_EDGE ( 'NONE', *, *, #190, .T. ) ;
#78 =( NAMED_UNIT ( * ) PLANE_ANGLE_UNIT ( ) SI_UNIT ( $, .RADIAN. ) );
#79 = DIRECTION ( 'NONE',  ( 0.000000000000000000, 0.000000000000000000, 1.000000000000000000 ) ) ;
#80 = LINE ( 'NONE', #56, #230 ) ;
#81 = DIRECTION ( 'NONE',  ( 1.000000000000000000, 0.000000000000000000, 0.000000000000000000 ) ) ;
#82 = CARTESIAN_POINT ( 'NONE',  ( 4.500000000000000888, 5.510910596163089556E-16, 805.0000000000000000 ) ) ;
#83 = DIRECTION ( 'NONE',  ( 0.000000000000000000, 0.000000000000000000, 1.000000000000000000 ) ) ;
#84 = CC_DESIGN_PERSON_AND_ORGANIZATION_ASSIGNMENT ( #152, #189, ( #211 ) ) ;
#85 = PERSON_AND_ORGANIZATION ( #250, #103 ) ;
#86 = COORDINATED_UNIVERSAL_TIME_OFFSET ( 1, 0, .AHEAD. ) ;
#87 = ADVANCED_FACE ( 'NONE', ( #303 ), #5, .F. ) ;
#88 = DIRECTION ( 'NONE',  ( 0.000000000000000000, 0.000000000000000000, 1.000000000000000000 ) ) ;
#89 = LINE ( 'NONE', #234, #171 ) ;
#90 = LOCAL_TIME ( 11, 42, 40.00000000000000000, #175 ) ;
#91 = DIRECTION ( 'NONE',  ( -1.000000000000000000, 0.000000000000000000, 0.000000000000000000 ) ) ;
#92 = CIRCLE ( 'NONE', #269, 4.500000000000000888 ) ;
#93 = DIRECTION ( 'NONE',  ( 0.000000000000000000, 0.000000000000000000, -1.000000000000000000 ) ) ;
#94 = CARTESIAN_POINT ( 'NONE',  ( -4.500000000000000888, 0.000000000000000000, 805.0000000000000000 ) ) ;
#95 = ORIENTED_EDGE ( 'NONE', *, *, #207, .F. ) ;
#96 = CC_DESIGN_APPROVAL ( #117, ( #211 ) ) ;
#97 = EDGE_CURVE ( 'NONE', #25, #100, #7, .T. ) ;
#98 = DIRECTION ( 'NONE',  ( 0.000000000000000000, 0.000000000000000000, 1.000000000000000000 ) ) ;
#99 = MECHANICAL_CONTEXT ( 'NONE', #115, 'mechanical' ) ;
#100 = VERTEX_POINT ( 'NONE', #305 ) ;
#101 = APPROVAL_STATUS ( 'not_yet_approved' ) ;
#102 = DIRECTION ( 'NONE',  ( -1.000000000000000000, 1.224646799147353454E-16, 0.000000000000000000 ) ) ;
#103 = ORGANIZATION ( 'NEURÈENÝ', 'NEURÈENÝ', '' ) ;
#104 = PERSON_AND_ORGANIZATION ( #250, #103 ) ;
#105 = DIRECTION ( 'NONE',  ( 0.000000000000000000, 0.000000000000000000, 1.000000000000000000 ) ) ;
#106 = PERSON_AND_ORGANIZATION ( #250, #103 ) ;
#107 = APPROVAL_PERSON_ORGANIZATION ( #38, #153, #304 ) ;
#108 = DIRECTION ( 'NONE',  ( -1.000000000000000000, 0.000000000000000000, 0.000000000000000000 ) ) ;
#109 = LOCAL_TIME ( 11, 42, 40.00000000000000000, #291 ) ;
#110 = APPROVAL ( #101, 'NEURÈENÝ' ) ;
#111 = ORIENTED_EDGE ( 'NONE', *, *, #274, .F. ) ;
#112 = DIRECTION ( 'NONE',  ( -0.000000000000000000, -0.000000000000000000, -1.000000000000000000 ) ) ;
#113 = VERTEX_POINT ( 'NONE', #194 ) ;
#114 = DIRECTION ( 'NONE',  ( -0.000000000000000000, -0.000000000000000000, -1.000000000000000000 ) ) ;
#115 = APPLICATION_CONTEXT ( 'configuration controlled 3d designs of mechanical parts and assemblies' ) ;
#116 = CARTESIAN_POINT ( 'NONE',  ( 0.000000000000000000, 0.000000000000000000, 5.000000000000000000 ) ) ;
#117 = APPROVAL ( #179, 'NEURÈENÝ' ) ;
#118 = DIRECTION ( 'NONE',  ( 1.000000000000000000, 0.000000000000000000, 0.000000000000000000 ) ) ;
#119 = CYLINDRICAL_SURFACE ( 'NONE', #264, 4.500000000000000888 ) ;
#120 = ORIENTED_EDGE ( 'NONE', *, *, #21, .F. ) ;
#121 = DATE_AND_TIME ( #242, #90 ) ;
#122 = EDGE_LOOP ( 'NONE', ( #169, #292 ) ) ;
#123 = APPROVAL_STATUS ( 'not_yet_approved' ) ;
#124 = VERTEX_POINT ( 'NONE', #222 ) ;
#125 = APPROVAL_ROLE ( '' ) ;
#126 = EDGE_CURVE ( 'NONE', #113, #18, #197, .T. ) ;
#127 = CARTESIAN_POINT ( 'NONE',  ( 0.000000000000000000, 0.000000000000000000, 0.000000000000000000 ) ) ;
#128 = DIRECTION ( 'NONE',  ( 1.000000000000000000, 0.000000000000000000, 0.000000000000000000 ) ) ;
#129 = PERSON_AND_ORGANIZATION ( #250, #103 ) ;
#130 = CC_DESIGN_PERSON_AND_ORGANIZATION_ASSIGNMENT ( #170, #301, ( #158 ) ) ;
#131 = AXIS2_PLACEMENT_3D ( 'NONE', #20, #105, #300 ) ;
#132 = AXIS2_PLACEMENT_3D ( 'NONE', #192, #83, #173 ) ;
#133 = DIRECTION ( 'NONE',  ( 1.000000000000000000, 0.000000000000000000, 0.000000000000000000 ) ) ;
#134 = APPLICATION_CONTEXT ( 'configuration controlled 3d designs of mechanical parts and assemblies' ) ;
#135 = CC_DESIGN_PERSON_AND_ORGANIZATION_ASSIGNMENT ( #106, #64, ( #302 ) ) ;
#136 = CC_DESIGN_APPROVAL ( #110, ( #302 ) ) ;
#137 = ADVANCED_FACE ( 'NONE', ( #177, #65 ), #187, .T. ) ;
#138 = CARTESIAN_POINT ( 'NONE',  ( -7.000000000000000000, 0.000000000000000000, 0.000000000000000000 ) ) ;
#139 = CARTESIAN_POINT ( 'NONE',  ( -4.700000000000000178, 5.755839955992559655E-16, 4.999999999999991118 ) ) ;
#140 = ORIENTED_EDGE ( 'NONE', *, *, #286, .F. ) ;
#141 = ORIENTED_EDGE ( 'NONE', *, *, #97, .F. ) ;
#142 = VERTEX_POINT ( 'NONE', #24 ) ;
#143 = DIRECTION ( 'NONE',  ( -0.000000000000000000, -0.000000000000000000, -1.000000000000000000 ) ) ;
#144 = AXIS2_PLACEMENT_3D ( 'NONE', #73, #33, #49 ) ;
#145 = PRODUCT_DEFINITION_SHAPE ( 'NONE', 'NONE',  #302 ) ;
#146 = ORIENTED_EDGE ( 'NONE', *, *, #274, .T. ) ;
#147 = DATE_AND_TIME ( #60, #68 ) ;
#148 = CARTESIAN_POINT ( 'NONE',  ( -4.700000000000000178, 5.755839955992559655E-16, 5.199999999999982414 ) ) ;
#149 = CIRCLE ( 'NONE', #253, 0.1999999999999996503 ) ;
#150 = EDGE_LOOP ( 'NONE', ( #141, #167, #232, #63 ) ) ;
#151 = DATE_AND_TIME ( #218, #109 ) ;
#152 = PERSON_AND_ORGANIZATION ( #250, #103 ) ;
#153 = APPROVAL ( #123, 'NEURÈENÝ' ) ;
#154 = CIRCLE ( 'NONE', #205, 7.000000000000000000 ) ;
#155 = DIRECTION ( 'NONE',  ( 0.000000000000000000, 0.000000000000000000, 1.000000000000000000 ) ) ;
#156 = CARTESIAN_POINT ( 'NONE',  ( 0.000000000000000000, 0.000000000000000000, 5.199999999999982414 ) ) ;
#157 = AXIS2_PLACEMENT_3D ( 'NONE', #297, #174, #213 ) ;
#158 = SECURITY_CLASSIFICATION ( '', '', #223 ) ;
#159 = DESIGN_CONTEXT ( 'detailed design', #134, 'design' ) ;
#160 = FACE_OUTER_BOUND ( 'NONE', #16, .T. ) ;
#161 = DIRECTION ( 'NONE',  ( -0.000000000000000000, -0.000000000000000000, -1.000000000000000000 ) ) ;
#162 = DIRECTION ( 'NONE',  ( 1.000000000000000000, 0.000000000000000000, 0.000000000000000000 ) ) ;
#163 = AXIS2_PLACEMENT_3D ( 'NONE', #262, #256, #91 ) ;
#164 = ORIENTED_EDGE ( 'NONE', *, *, #57, .F. ) ;
#165 = ADVANCED_FACE ( 'NONE', ( #2 ), #119, .T. ) ;
#166 = CYLINDRICAL_SURFACE ( 'NONE', #163, 4.500000000000000888 ) ;
#167 = ORIENTED_EDGE ( 'NONE', *, *, #46, .T. ) ;
#168 = DIRECTION ( 'NONE',  ( 1.000000000000000000, 0.000000000000000000, 0.000000000000000000 ) ) ;
#169 = ORIENTED_EDGE ( 'NONE', *, *, #185, .T. ) ;
#170 = PERSON_AND_ORGANIZATION ( #250, #103 ) ;
#171 = VECTOR ( 'NONE', #161, 1000.000000000000000 ) ;
#172 = DIRECTION ( 'NONE',  ( 1.000000000000000000, 0.000000000000000000, 0.000000000000000000 ) ) ;
#173 = DIRECTION ( 'NONE',  ( 1.000000000000000000, 0.000000000000000000, 0.000000000000000000 ) ) ;
#174 = DIRECTION ( 'NONE',  ( 0.000000000000000000, 0.000000000000000000, 1.000000000000000000 ) ) ;
#175 = COORDINATED_UNIVERSAL_TIME_OFFSET ( 1, 0, .AHEAD. ) ;
#176 = EDGE_CURVE ( 'NONE', #247, #1, #224, .T. ) ;
#177 = FACE_BOUND ( 'NONE', #122, .T. ) ;
#178 = AXIS2_PLACEMENT_3D ( 'NONE', #239, #183, #162 ) ;
#179 = APPROVAL_STATUS ( 'not_yet_approved' ) ;
#180 = DIRECTION ( 'NONE',  ( 1.000000000000000000, 0.000000000000000000, 0.000000000000000000 ) ) ;
#181 = DIRECTION ( 'NONE',  ( 0.000000000000000000, 0.000000000000000000, 1.000000000000000000 ) ) ;
#182 = PRODUCT ( '9545', '9545', '', ( #99 ) ) ;
#183 = DIRECTION ( 'NONE',  ( -0.000000000000000000, -0.000000000000000000, -1.000000000000000000 ) ) ;
#184 = DIRECTION ( 'NONE',  ( 0.000000000000000000, 0.000000000000000000, 1.000000000000000000 ) ) ;
#185 = EDGE_CURVE ( 'NONE', #1, #247, #272, .T. ) ;
#186 = ORIENTED_EDGE ( 'NONE', *, *, #249, .T. ) ;
#187 = PLANE ( 'NONE',  #278 ) ;
#188 = DIRECTION ( 'NONE',  ( 0.000000000000000000, 0.000000000000000000, 1.000000000000000000 ) ) ;
#189 = PERSON_AND_ORGANIZATION_ROLE ( 'design_supplier' ) ;
#190 = EDGE_CURVE ( 'NONE', #18, #100, #89, .T. ) ;
#191 = VERTEX_POINT ( 'NONE', #30 ) ;
#192 = CARTESIAN_POINT ( 'NONE',  ( 0.000000000000000000, 0.000000000000000000, 0.000000000000000000 ) ) ;
#193 = AXIS2_PLACEMENT_3D ( 'NONE', #199, #88, #43 ) ;
#194 = CARTESIAN_POINT ( 'NONE',  ( -4.500000000000000888, 0.000000000000000000, 805.0000000000000000 ) ) ;
#195 = CALENDAR_DATE ( 2022, 20, 6 ) ;
#196 = SHAPE_DEFINITION_REPRESENTATION ( #145, #72 ) ;
#197 = CIRCLE ( 'NONE', #131, 4.500000000000000888 ) ;
#198 = CLOSED_SHELL ( 'NONE', ( #44, #165, #260, #307, #137, #37, #201, #251, #87 ) ) ;
#199 = CARTESIAN_POINT ( 'NONE',  ( 0.000000000000000000, 0.000000000000000000, 5.000000000000000000 ) ) ;
#200 = ORIENTED_EDGE ( 'NONE', *, *, #240, .F. ) ;
#201 = ADVANCED_FACE ( 'NONE', ( #289 ), #166, .T. ) ;
#202 = DIRECTION ( 'NONE',  ( -0.000000000000000000, -0.000000000000000000, -1.000000000000000000 ) ) ;
#203 = DIRECTION ( 'NONE',  ( -1.000000000000000000, 0.000000000000000000, 0.000000000000000000 ) ) ;
#204 = ORIENTED_EDGE ( 'NONE', *, *, #46, .F. ) ;
#205 = AXIS2_PLACEMENT_3D ( 'NONE', #290, #79, #172 ) ;
#206 = CARTESIAN_POINT ( 'NONE',  ( 7.000000000000000000, 8.572527594031473190E-16, 5.000000000000000000 ) ) ;
#207 = EDGE_CURVE ( 'NONE', #124, #263, #80, .T. ) ;
#208 = CARTESIAN_POINT ( 'NONE',  ( 0.000000000000000000, 0.000000000000000000, 5.000000000000000000 ) ) ;
#209 = DIRECTION ( 'NONE',  ( 0.000000000000000000, 0.000000000000000000, 1.000000000000000000 ) ) ;
#210 = CARTESIAN_POINT ( 'NONE',  ( 0.000000000000000000, 0.000000000000000000, 5.000000000000000000 ) ) ;
#211 = PRODUCT_DEFINITION_FORMATION_WITH_SPECIFIED_SOURCE ( 'LIBOVOLNÝ', '', #182, .NOT_KNOWN. ) ;
#212 = CARTESIAN_POINT ( 'NONE',  ( -4.500000000000000888, 0.000000000000000000, 5.199999999999982414 ) ) ;
#213 = DIRECTION ( 'NONE',  ( 1.000000000000000000, 0.000000000000000000, 0.000000000000000000 ) ) ;
#214 = EDGE_LOOP ( 'NONE', ( #258, #77, #9, #140 ) ) ;
#215 = APPLICATION_PROTOCOL_DEFINITION ( 'international standard', 'config_control_design', 1994, #115 ) ;
#216 = DATE_AND_TIME ( #45, #42 ) ;
#217 = CARTESIAN_POINT ( 'NONE',  ( 0.000000000000000000, 0.000000000000000000, 5.199999999999982414 ) ) ;
#218 = CALENDAR_DATE ( 2022, 20, 6 ) ;
#219 = ORIENTED_EDGE ( 'NONE', *, *, #240, .T. ) ;
#220 =( NAMED_UNIT ( * ) SI_UNIT ( $, .STERADIAN. ) SOLID_ANGLE_UNIT ( ) );
#221 = AXIS2_PLACEMENT_3D ( 'NONE', #14, #209, #118 ) ;
#222 = CARTESIAN_POINT ( 'NONE',  ( -7.000000000000000000, 0.000000000000000000, 5.000000000000000000 ) ) ;
#223 = SECURITY_CLASSIFICATION_LEVEL ( 'unclassified' ) ;
#224 = CIRCLE ( 'NONE', #178, 4.700000000000000178 ) ;
#225 = AXIS2_PLACEMENT_3D ( 'NONE', #210, #98, #180 ) ;
#226 = CC_DESIGN_DATE_AND_TIME_ASSIGNMENT ( #268, #248, ( #302 ) ) ;
#227 = CARTESIAN_POINT ( 'NONE',  ( 0.000000000000000000, 0.000000000000000000, 5.199999999999982414 ) ) ;
#228 = TOROIDAL_SURFACE ( 'NONE', #282, 4.700000000000000178, 0.2000000000000000111 ) ;
#229 = CC_DESIGN_DATE_AND_TIME_ASSIGNMENT ( #147, #244, ( #158 ) ) ;
#230 = VECTOR ( 'NONE', #283, 1000.000000000000000 ) ;
#231 = LINE ( 'NONE', #206, #71 ) ;
#232 = ORIENTED_EDGE ( 'NONE', *, *, #185, .F. ) ;
#233 = CIRCLE ( 'NONE', #287, 0.1999999999999996503 ) ;
#234 = CARTESIAN_POINT ( 'NONE',  ( 4.500000000000000888, 5.510910596163089556E-16, 805.0000000000000000 ) ) ;
#235 = ORIENTED_EDGE ( 'NONE', *, *, #97, .T. ) ;
#236 = MANIFOLD_SOLID_BREP ( 'Zaoblit1', #198 ) ;
#237 =( LENGTH_UNIT ( ) NAMED_UNIT ( * ) SI_UNIT ( .MILLI., .METRE. ) );
#238 = EDGE_LOOP ( 'NONE', ( #55, #219 ) ) ;
#239 = CARTESIAN_POINT ( 'NONE',  ( 0.000000000000000000, 0.000000000000000000, 5.000000000000000000 ) ) ;
#240 = EDGE_CURVE ( 'NONE', #142, #124, #22, .T. ) ;
#241 = ORIENTED_EDGE ( 'NONE', *, *, #10, .T. ) ;
#242 = CALENDAR_DATE ( 2022, 20, 6 ) ;
#243 = AXIS2_PLACEMENT_3D ( 'NONE', #28, #114, #48 ) ;
#244 = DATE_TIME_ROLE ( 'classification_date' ) ;
#245 = DIRECTION ( 'NONE',  ( 1.224646799147353207E-16, 1.000000000000000000, -0.000000000000000000 ) ) ;
#246 = PERSON_AND_ORGANIZATION_ROLE ( 'design_owner' ) ;
#247 = VERTEX_POINT ( 'NONE', #139 ) ;
#248 = DATE_TIME_ROLE ( 'creation_date' ) ;
#249 = EDGE_CURVE ( 'NONE', #100, #1, #233, .T. ) ;
#250 = PERSON ( 'NEURÈENÝ', 'NEURÈENÝ', 'NEURÈENÝ', ('NEURÈENÝ'), ('NEURÈENÝ'), ('NEURÈENÝ') ) ;
#251 = ADVANCED_FACE ( 'NONE', ( #259 ), #280, .T. ) ;
#252 = DIRECTION ( 'NONE',  ( 0.000000000000000000, 0.000000000000000000, 1.000000000000000000 ) ) ;
#253 = AXIS2_PLACEMENT_3D ( 'NONE', #148, #245, #102 ) ;
#254 = CC_DESIGN_PERSON_AND_ORGANIZATION_ASSIGNMENT ( #41, #246, ( #182 ) ) ;
#255 = CYLINDRICAL_SURFACE ( 'NONE', #243, 7.000000000000000000 ) ;
#256 = DIRECTION ( 'NONE',  ( -0.000000000000000000, -0.000000000000000000, -1.000000000000000000 ) ) ;
#257 = CARTESIAN_POINT ( 'NONE',  ( 0.000000000000000000, 0.000000000000000000, 5.000000000000000000 ) ) ;
#258 = ORIENTED_EDGE ( 'NONE', *, *, #10, .F. ) ;
#259 = FACE_OUTER_BOUND ( 'NONE', #270, .T. ) ;
#260 = ADVANCED_FACE ( 'NONE', ( #160 ), #255, .T. ) ;
#261 = ORIENTED_EDGE ( 'NONE', *, *, #52, .F. ) ;
#262 = CARTESIAN_POINT ( 'NONE',  ( 0.000000000000000000, 0.000000000000000000, 805.0000000000000000 ) ) ;
#263 = VERTEX_POINT ( 'NONE', #138 ) ;
#264 = AXIS2_PLACEMENT_3D ( 'NONE', #11, #202, #108 ) ;
#265 = COORDINATED_UNIVERSAL_TIME_OFFSET ( 1, 0, .AHEAD. ) ;
#266 = CC_DESIGN_SECURITY_CLASSIFICATION ( #158, ( #211 ) ) ;
#267 = DIRECTION ( 'NONE',  ( 1.000000000000000000, 0.000000000000000000, -0.000000000000000000 ) ) ;
#268 = DATE_AND_TIME ( #195, #47 ) ;
#269 = AXIS2_PLACEMENT_3D ( 'NONE', #156, #252, #133 ) ;
#270 = EDGE_LOOP ( 'NONE', ( #27, #241 ) ) ;
#271 = APPROVAL_DATE_TIME ( #121, #117 ) ;
#272 = CIRCLE ( 'NONE', #306, 4.700000000000000178 ) ;
#273 = CARTESIAN_POINT ( 'NONE',  ( 0.000000000000000000, 0.000000000000000000, 5.199999999999982414 ) ) ;
#274 = EDGE_CURVE ( 'NONE', #142, #191, #231, .T. ) ;
#275 = DIRECTION ( 'NONE',  ( 1.000000000000000000, 0.000000000000000000, 0.000000000000000000 ) ) ;
#276 = ORIENTED_EDGE ( 'NONE', *, *, #52, .T. ) ;
#277 = UNCERTAINTY_MEASURE_WITH_UNIT (LENGTH_MEASURE( 1.000000000000000082E-05 ), #237, 'distance_accuracy_value', 'NONE');
#278 = AXIS2_PLACEMENT_3D ( 'NONE', #116, #181, #3 ) ;
#279 =( GEOMETRIC_REPRESENTATION_CONTEXT ( 3 ) GLOBAL_UNCERTAINTY_ASSIGNED_CONTEXT ( ( #277 ) ) GLOBAL_UNIT_ASSIGNED_CONTEXT ( ( #237, #78, #220 ) ) REPRESENTATION_CONTEXT ( 'NONE', 'WORKASPACE' ) );
#280 = PLANE ( 'NONE',  #144 ) ;
#281 = CC_DESIGN_PERSON_AND_ORGANIZATION_ASSIGNMENT ( #129, #66, ( #211 ) ) ;
#282 = AXIS2_PLACEMENT_3D ( 'NONE', #217, #188, #81 ) ;
#283 = DIRECTION ( 'NONE',  ( -0.000000000000000000, -0.000000000000000000, -1.000000000000000000 ) ) ;
#284 = FACE_OUTER_BOUND ( 'NONE', #296, .T. ) ;
#285 = ORIENTED_EDGE ( 'NONE', *, *, #190, .F. ) ;
#286 = EDGE_CURVE ( 'NONE', #113, #25, #6, .T. ) ;
#287 = AXIS2_PLACEMENT_3D ( 'NONE', #8, #75, #93 ) ;
#288 = ORIENTED_EDGE ( 'NONE', *, *, #70, .F. ) ;
#289 = FACE_OUTER_BOUND ( 'NONE', #58, .T. ) ;
#290 = CARTESIAN_POINT ( 'NONE',  ( 0.000000000000000000, 0.000000000000000000, 0.000000000000000000 ) ) ;
#291 = COORDINATED_UNIVERSAL_TIME_OFFSET ( 1, 0, .AHEAD. ) ;
#292 = ORIENTED_EDGE ( 'NONE', *, *, #176, .T. ) ;
#293 = APPROVAL_DATE_TIME ( #151, #110 ) ;
#294 = VECTOR ( 'NONE', #112, 1000.000000000000000 ) ;
#295 = APPROVAL_DATE_TIME ( #216, #153 ) ;
#296 = EDGE_LOOP ( 'NONE', ( #111, #164, #34, #276 ) ) ;
#297 = CARTESIAN_POINT ( 'NONE',  ( 0.000000000000000000, 0.000000000000000000, 0.000000000000000000 ) ) ;
#298 = CIRCLE ( 'NONE', #193, 7.000000000000000000 ) ;
#299 = APPROVAL_ROLE ( '' ) ;
#300 = DIRECTION ( 'NONE',  ( 1.000000000000000000, 0.000000000000000000, 0.000000000000000000 ) ) ;
#301 = PERSON_AND_ORGANIZATION_ROLE ( 'classification_officer' ) ;
#302 = PRODUCT_DEFINITION ( 'NEZNÁMÝ', '', #211, #159 ) ;
#303 = FACE_OUTER_BOUND ( 'NONE', #39, .T. ) ;
#304 = APPROVAL_ROLE ( '' ) ;
#305 = CARTESIAN_POINT ( 'NONE',  ( 4.500000000000000888, 5.510910596163089556E-16, 5.199999999999982414 ) ) ;
#306 = AXIS2_PLACEMENT_3D ( 'NONE', #208, #143, #168 ) ;
#307 = ADVANCED_FACE ( 'NONE', ( #284 ), #76, .T. ) ;
ENDSEC;
END-ISO-10303-21;
