ISO-10303-21;
HEADER;
FILE_DESCRIPTION (( 'STEP AP203' ),
    '1' );
FILE_NAME ('4479.STEP',
    '2022-06-20T10:31:10',
    ( '' ),
    ( '' ),
    'SwSTEP 2.0',
    'SolidWorks 2019',
    '' );
FILE_SCHEMA (( 'CONFIG_CONTROL_DESIGN' ));
ENDSEC;

DATA;
#1 = CARTESIAN_POINT ( 'NONE',  ( -0.5000000000000000000, 0.000000000000000000, 101.2000000000000171 ) ) ;
#2 = FACE_OUTER_BOUND ( 'NONE', #203, .T. ) ;
#3 = MECHANICAL_CONTEXT ( 'NONE', #29, 'mechanical' ) ;
#4 = CC_DESIGN_SECURITY_CLASSIFICATION ( #256, ( #24 ) ) ;
#5 = DIRECTION ( 'NONE',  ( 1.000000000000000000, 0.000000000000000000, 0.000000000000000000 ) ) ;
#6 = PERSON_AND_ORGANIZATION ( #131, #50 ) ;
#7 = ORIENTED_EDGE ( 'NONE', *, *, #239, .T. ) ;
#8 = ADVANCED_FACE ( 'NONE', ( #186 ), #17, .T. ) ;
#9 = CLOSED_SHELL ( 'NONE', ( #252, #233, #128, #211, #93, #99, #8, #32, #107 ) ) ;
#10 = AXIS2_PLACEMENT_3D ( 'NONE', #132, #177, #5 ) ;
#11 = CALENDAR_DATE ( 2022, 20, 6 ) ;
#12 = EDGE_LOOP ( 'NONE', ( #116, #255, #45, #165 ) ) ;
#13 = PRODUCT_RELATED_PRODUCT_CATEGORY ( 'detail', '', ( #199 ) ) ;
#14 = PRODUCT_DEFINITION_SHAPE ( 'NONE', 'NONE',  #258 ) ;
#15 = PERSON_AND_ORGANIZATION_ROLE ( 'design_owner' ) ;
#16 = ORIENTED_EDGE ( 'NONE', *, *, #118, .T. ) ;
#17 = CYLINDRICAL_SURFACE ( 'NONE', #95, 0.5000000000000000000 ) ;
#18 = PERSON_AND_ORGANIZATION_ROLE ( 'design_supplier' ) ;
#19 = APPROVAL ( #231, 'NEURÈENÝ' ) ;
#20 = CARTESIAN_POINT ( 'NONE',  ( 0.5000000000000000000, 6.123233995736766036E-17, 101.2000000000000171 ) ) ;
#21 = CARTESIAN_POINT ( 'NONE',  ( -1.250000000000000000, 0.000000000000000000, 1.199999999999999956 ) ) ;
#22 = CIRCLE ( 'NONE', #196, 1.250000000000000000 ) ;
#23 = LINE ( 'NONE', #21, #290 ) ;
#24 = PRODUCT_DEFINITION_FORMATION_WITH_SPECIFIED_SOURCE ( 'LIBOVOLNÝ', '', #199, .NOT_KNOWN. ) ;
#25 = CC_DESIGN_PERSON_AND_ORGANIZATION_ASSIGNMENT ( #6, #277, ( #256 ) ) ;
#26 = CARTESIAN_POINT ( 'NONE',  ( 0.000000000000000000, 0.000000000000000000, 101.2000000000000171 ) ) ;
#27 = DIRECTION ( 'NONE',  ( 1.000000000000000000, 0.000000000000000000, -0.000000000000000000 ) ) ;
#28 = AXIS2_PLACEMENT_3D ( 'NONE', #31, #135, #81 ) ;
#29 = APPLICATION_CONTEXT ( 'configuration controlled 3d designs of mechanical parts and assemblies' ) ;
#30 = CARTESIAN_POINT ( 'NONE',  ( 0.000000000000000000, 0.000000000000000000, 101.2000000000000171 ) ) ;
#31 = CARTESIAN_POINT ( 'NONE',  ( 0.000000000000000000, 0.000000000000000000, 1.199999999999999956 ) ) ;
#32 = ADVANCED_FACE ( 'NONE', ( #158 ), #166, .T. ) ;
#33 = CARTESIAN_POINT ( 'NONE',  ( 1.250000000000000000, 1.530808498934191571E-16, 0.000000000000000000 ) ) ;
#34 = ORIENTED_EDGE ( 'NONE', *, *, #58, .T. ) ;
#35 = LINE ( 'NONE', #220, #155 ) ;
#36 = ORIENTED_EDGE ( 'NONE', *, *, #118, .F. ) ;
#37 = DATE_AND_TIME ( #272, #213 ) ;
#38 = EDGE_CURVE ( 'NONE', #232, #114, #250, .T. ) ;
#39 = ORIENTED_EDGE ( 'NONE', *, *, #285, .T. ) ;
#40 = COORDINATED_UNIVERSAL_TIME_OFFSET ( 1, 0, .AHEAD. ) ;
#41 = VERTEX_POINT ( 'NONE', #54 ) ;
#42 = CIRCLE ( 'NONE', #162, 0.5000000000000000000 ) ;
#43 = CIRCLE ( 'NONE', #28, 1.250000000000000000 ) ;
#44 = CALENDAR_DATE ( 2022, 20, 6 ) ;
#45 = ORIENTED_EDGE ( 'NONE', *, *, #206, .T. ) ;
#46 = DATE_TIME_ROLE ( 'creation_date' ) ;
#47 = ORIENTED_EDGE ( 'NONE', *, *, #38, .F. ) ;
#48 = DIRECTION ( 'NONE',  ( 0.000000000000000000, 0.000000000000000000, 1.000000000000000000 ) ) ;
#49 = VECTOR ( 'NONE', #286, 1000.000000000000000 ) ;
#50 = ORGANIZATION ( 'NEURÈENÝ', 'NEURÈENÝ', '' ) ;
#51 = FACE_OUTER_BOUND ( 'NONE', #301, .T. ) ;
#52 = PLANE ( 'NONE',  #57 ) ;
#53 = DIRECTION ( 'NONE',  ( 0.000000000000000000, 0.000000000000000000, 1.000000000000000000 ) ) ;
#54 = CARTESIAN_POINT ( 'NONE',  ( 0.6999999999999999556, 0.000000000000000000, 1.199999999999999289 ) ) ;
#55 = CARTESIAN_POINT ( 'NONE',  ( 0.000000000000000000, 0.000000000000000000, 1.199999999999999956 ) ) ;
#56 = CC_DESIGN_DATE_AND_TIME_ASSIGNMENT ( #182, #273, ( #256 ) ) ;
#57 = AXIS2_PLACEMENT_3D ( 'NONE', #126, #153, #27 ) ;
#58 = EDGE_CURVE ( 'NONE', #114, #111, #94, .T. ) ;
#59 = DIRECTION ( 'NONE',  ( 1.224646799147353207E-16, 1.000000000000000000, -0.000000000000000000 ) ) ;
#60 = CYLINDRICAL_SURFACE ( 'NONE', #238, 0.5000000000000000000 ) ;
#61 = AXIS2_PLACEMENT_3D ( 'NONE', #247, #59, #106 ) ;
#62 = COORDINATED_UNIVERSAL_TIME_OFFSET ( 1, 0, .AHEAD. ) ;
#63 = APPROVAL_ROLE ( '' ) ;
#64 = VERTEX_POINT ( 'NONE', #264 ) ;
#65 = ORIENTED_EDGE ( 'NONE', *, *, #88, .T. ) ;
#66 = APPROVAL_PERSON_ORGANIZATION ( #161, #235, #70 ) ;
#67 = PERSON_AND_ORGANIZATION ( #131, #50 ) ;
#68 = EDGE_LOOP ( 'NONE', ( #184, #39 ) ) ;
#69 = EDGE_CURVE ( 'NONE', #144, #146, #23, .T. ) ;
#70 = APPROVAL_ROLE ( '' ) ;
#71 = DIRECTION ( 'NONE',  ( 1.000000000000000000, 0.000000000000000000, 0.000000000000000000 ) ) ;
#72 = CIRCLE ( 'NONE', #10, 0.6999999999999999556 ) ;
#73 = CARTESIAN_POINT ( 'NONE',  ( 0.000000000000000000, 0.000000000000000000, 0.000000000000000000 ) ) ;
#74 = PLANE ( 'NONE',  #261 ) ;
#75 = DIRECTION ( 'NONE',  ( -0.000000000000000000, -0.000000000000000000, -1.000000000000000000 ) ) ;
#76 = DIRECTION ( 'NONE',  ( 0.000000000000000000, -1.000000000000000000, 0.000000000000000000 ) ) ;
#77 = CC_DESIGN_DATE_AND_TIME_ASSIGNMENT ( #179, #46, ( #258 ) ) ;
#78 =( NAMED_UNIT ( * ) PLANE_ANGLE_UNIT ( ) SI_UNIT ( $, .RADIAN. ) );
#79 = DIRECTION ( 'NONE',  ( -1.000000000000000000, 0.000000000000000000, 0.000000000000000000 ) ) ;
#80 = CC_DESIGN_APPROVAL ( #19, ( #24 ) ) ;
#81 = DIRECTION ( 'NONE',  ( 1.000000000000000000, 0.000000000000000000, 0.000000000000000000 ) ) ;
#82 = APPLICATION_PROTOCOL_DEFINITION ( 'international standard', 'config_control_design', 1994, #209 ) ;
#83 = TOROIDAL_SURFACE ( 'NONE', #139, 0.6999999999999999556, 0.2000000000000000111 ) ;
#84 = AXIS2_PLACEMENT_3D ( 'NONE', #244, #98, #241 ) ;
#85 = CALENDAR_DATE ( 2022, 20, 6 ) ;
#86 = EDGE_LOOP ( 'NONE', ( #163, #34, #183, #143 ) ) ;
#87 = ORIENTED_EDGE ( 'NONE', *, *, #170, .F. ) ;
#88 = EDGE_CURVE ( 'NONE', #274, #146, #191, .T. ) ;
#89 = ORIENTED_EDGE ( 'NONE', *, *, #288, .F. ) ;
#90 = SECURITY_CLASSIFICATION_LEVEL ( 'unclassified' ) ;
#91 = DIRECTION ( 'NONE',  ( 0.000000000000000000, 0.000000000000000000, 1.000000000000000000 ) ) ;
#92 = VERTEX_POINT ( 'NONE', #120 ) ;
#93 = ADVANCED_FACE ( 'NONE', ( #210, #216 ), #52, .T. ) ;
#94 = LINE ( 'NONE', #20, #49 ) ;
#95 = AXIS2_PLACEMENT_3D ( 'NONE', #207, #119, #281 ) ;
#96 = APPROVAL_PERSON_ORGANIZATION ( #294, #19, #63 ) ;
#97 = CARTESIAN_POINT ( 'NONE',  ( 0.000000000000000000, 0.000000000000000000, 1.399999999999998579 ) ) ;
#98 = DIRECTION ( 'NONE',  ( 0.000000000000000000, 0.000000000000000000, 1.000000000000000000 ) ) ;
#99 = ADVANCED_FACE ( 'NONE', ( #102 ), #74, .F. ) ;
#100 = DIRECTION ( 'NONE',  ( 0.000000000000000000, 0.000000000000000000, 1.000000000000000000 ) ) ;
#101 = DESIGN_CONTEXT ( 'detailed design', #209, 'design' ) ;
#102 = FACE_OUTER_BOUND ( 'NONE', #202, .T. ) ;
#103 = AXIS2_PLACEMENT_3D ( 'NONE', #55, #129, #249 ) ;
#104 = DIRECTION ( 'NONE',  ( 0.000000000000000000, 0.000000000000000000, 1.000000000000000000 ) ) ;
#105 =( LENGTH_UNIT ( ) NAMED_UNIT ( * ) SI_UNIT ( .MILLI., .METRE. ) );
#106 = DIRECTION ( 'NONE',  ( -1.000000000000000000, 1.224646799147352714E-16, 0.000000000000000000 ) ) ;
#107 = ADVANCED_FACE ( 'NONE', ( #212 ), #83, .F. ) ;
#108 = PERSON_AND_ORGANIZATION ( #131, #50 ) ;
#109 = ORIENTED_EDGE ( 'NONE', *, *, #206, .F. ) ;
#110 = COORDINATED_UNIVERSAL_TIME_OFFSET ( 1, 0, .AHEAD. ) ;
#111 = VERTEX_POINT ( 'NONE', #214 ) ;
#112 = EDGE_CURVE ( 'NONE', #111, #140, #42, .T. ) ;
#113 = APPROVAL_DATE_TIME ( #115, #245 ) ;
#114 = VERTEX_POINT ( 'NONE', #265 ) ;
#115 = DATE_AND_TIME ( #44, #229 ) ;
#116 = ORIENTED_EDGE ( 'NONE', *, *, #225, .F. ) ;
#117 = CIRCLE ( 'NONE', #61, 0.1999999999999999833 ) ;
#118 = EDGE_CURVE ( 'NONE', #146, #274, #22, .T. ) ;
#119 = DIRECTION ( 'NONE',  ( -0.000000000000000000, -0.000000000000000000, -1.000000000000000000 ) ) ;
#120 = CARTESIAN_POINT ( 'NONE',  ( 1.250000000000000000, 1.530808498934191571E-16, 1.199999999999999956 ) ) ;
#121 = CC_DESIGN_PERSON_AND_ORGANIZATION_ASSIGNMENT ( #67, #136, ( #24 ) ) ;
#122 = DIRECTION ( 'NONE',  ( -1.000000000000000000, 0.000000000000000000, 0.000000000000000000 ) ) ;
#123 = AXIS2_PLACEMENT_3D ( 'NONE', #292, #133, #224 ) ;
#124 = DIRECTION ( 'NONE',  ( 1.000000000000000000, 0.000000000000000000, -0.000000000000000000 ) ) ;
#125 = DIRECTION ( 'NONE',  ( 0.000000000000000000, 0.000000000000000000, 1.000000000000000000 ) ) ;
#126 = CARTESIAN_POINT ( 'NONE',  ( 0.000000000000000000, 0.000000000000000000, 1.199999999999999956 ) ) ;
#127 = CARTESIAN_POINT ( 'NONE',  ( 0.000000000000000000, 0.000000000000000000, 1.199999999999999956 ) ) ;
#128 = ADVANCED_FACE ( 'NONE', ( #262 ), #267, .T. ) ;
#129 = DIRECTION ( 'NONE',  ( -0.000000000000000000, -0.000000000000000000, -1.000000000000000000 ) ) ;
#130 = CC_DESIGN_PERSON_AND_ORGANIZATION_ASSIGNMENT ( #187, #18, ( #24 ) ) ;
#131 = PERSON ( 'NEURÈENÝ', 'NEURÈENÝ', 'NEURÈENÝ', ('NEURÈENÝ'), ('NEURÈENÝ'), ('NEURÈENÝ') ) ;
#132 = CARTESIAN_POINT ( 'NONE',  ( 0.000000000000000000, 0.000000000000000000, 1.199999999999999956 ) ) ;
#133 = DIRECTION ( 'NONE',  ( 0.000000000000000000, 0.000000000000000000, 1.000000000000000000 ) ) ;
#134 = CC_DESIGN_PERSON_AND_ORGANIZATION_ASSIGNMENT ( #226, #236, ( #258 ) ) ;
#135 = DIRECTION ( 'NONE',  ( 0.000000000000000000, 0.000000000000000000, 1.000000000000000000 ) ) ;
#136 = PERSON_AND_ORGANIZATION_ROLE ( 'creator' ) ;
#137 = EDGE_LOOP ( 'NONE', ( #260, #237, #65, #230 ) ) ;
#138 = DATE_AND_TIME ( #142, #263 ) ;
#139 = AXIS2_PLACEMENT_3D ( 'NONE', #97, #306, #195 ) ;
#140 = VERTEX_POINT ( 'NONE', #266 ) ;
#141 = AXIS2_PLACEMENT_3D ( 'NONE', #127, #198, #219 ) ;
#142 = CALENDAR_DATE ( 2022, 20, 6 ) ;
#143 = ORIENTED_EDGE ( 'NONE', *, *, #248, .F. ) ;
#144 = VERTEX_POINT ( 'NONE', #150 ) ;
#145 = APPROVAL_ROLE ( '' ) ;
#146 = VERTEX_POINT ( 'NONE', #302 ) ;
#147 = AXIS2_PLACEMENT_3D ( 'NONE', #300, #91, #188 ) ;
#148 = AXIS2_PLACEMENT_3D ( 'NONE', #167, #76, #173 ) ;
#149 = CYLINDRICAL_SURFACE ( 'NONE', #201, 1.250000000000000000 ) ;
#150 = CARTESIAN_POINT ( 'NONE',  ( -1.250000000000000000, 0.000000000000000000, 1.199999999999999956 ) ) ;
#151 =( GEOMETRIC_REPRESENTATION_CONTEXT ( 3 ) GLOBAL_UNCERTAINTY_ASSIGNED_CONTEXT ( ( #215 ) ) GLOBAL_UNIT_ASSIGNED_CONTEXT ( ( #105, #78, #157 ) ) REPRESENTATION_CONTEXT ( 'NONE', 'WORKASPACE' ) );
#152 = DIRECTION ( 'NONE',  ( 1.000000000000000000, 0.000000000000000000, 0.000000000000000000 ) ) ;
#153 = DIRECTION ( 'NONE',  ( 0.000000000000000000, 0.000000000000000000, 1.000000000000000000 ) ) ;
#154 = DIRECTION ( 'NONE',  ( -0.000000000000000000, -0.000000000000000000, -1.000000000000000000 ) ) ;
#155 = VECTOR ( 'NONE', #154, 1000.000000000000000 ) ;
#156 = CARTESIAN_POINT ( 'NONE',  ( 1.250000000000000000, 1.530808498934191571E-16, 1.199999999999999956 ) ) ;
#157 =( NAMED_UNIT ( * ) SI_UNIT ( $, .STERADIAN. ) SOLID_ANGLE_UNIT ( ) );
#158 = FACE_OUTER_BOUND ( 'NONE', #298, .T. ) ;
#159 = APPROVAL_DATE_TIME ( #138, #235 ) ;
#160 = ORIENTED_EDGE ( 'NONE', *, *, #293, .F. ) ;
#161 = PERSON_AND_ORGANIZATION ( #131, #50 ) ;
#162 = AXIS2_PLACEMENT_3D ( 'NONE', #305, #287, #152 ) ;
#163 = ORIENTED_EDGE ( 'NONE', *, *, #181, .F. ) ;
#164 = CC_DESIGN_APPROVAL ( #245, ( #258 ) ) ;
#165 = ORIENTED_EDGE ( 'NONE', *, *, #296, .F. ) ;
#166 = PLANE ( 'NONE',  #147 ) ;
#167 = CARTESIAN_POINT ( 'NONE',  ( 0.6999999999999999556, 0.000000000000000000, 1.399999999999998579 ) ) ;
#168 = VECTOR ( 'NONE', #251, 1000.000000000000000 ) ;
#169 = DIRECTION ( 'NONE',  ( -1.000000000000000000, 0.000000000000000000, 0.000000000000000000 ) ) ;
#170 = EDGE_CURVE ( 'NONE', #140, #111, #276, .T. ) ;
#171 = CARTESIAN_POINT ( 'NONE',  ( 0.000000000000000000, 0.000000000000000000, 1.199999999999999956 ) ) ;
#172 = DIRECTION ( 'NONE',  ( 1.000000000000000000, 0.000000000000000000, 0.000000000000000000 ) ) ;
#173 = DIRECTION ( 'NONE',  ( 0.000000000000000000, 0.000000000000000000, -1.000000000000000000 ) ) ;
#174 = FACE_OUTER_BOUND ( 'NONE', #86, .T. ) ;
#175 = DIRECTION ( 'NONE',  ( -0.000000000000000000, -0.000000000000000000, -1.000000000000000000 ) ) ;
#176 = TOROIDAL_SURFACE ( 'NONE', #307, 0.6999999999999999556, 0.2000000000000000111 ) ;
#177 = DIRECTION ( 'NONE',  ( -0.000000000000000000, -0.000000000000000000, -1.000000000000000000 ) ) ;
#178 = ORIENTED_EDGE ( 'NONE', *, *, #225, .T. ) ;
#179 = DATE_AND_TIME ( #11, #217 ) ;
#180 = CIRCLE ( 'NONE', #291, 0.5000000000000000000 ) ;
#181 = EDGE_CURVE ( 'NONE', #114, #232, #180, .T. ) ;
#182 = DATE_AND_TIME ( #85, #197 ) ;
#183 = ORIENTED_EDGE ( 'NONE', *, *, #112, .T. ) ;
#184 = ORIENTED_EDGE ( 'NONE', *, *, #293, .T. ) ;
#185 = APPROVAL_STATUS ( 'not_yet_approved' ) ;
#186 = FACE_OUTER_BOUND ( 'NONE', #204, .T. ) ;
#187 = PERSON_AND_ORGANIZATION ( #131, #50 ) ;
#188 = DIRECTION ( 'NONE',  ( 1.000000000000000000, 0.000000000000000000, -0.000000000000000000 ) ) ;
#189 = ORIENTED_EDGE ( 'NONE', *, *, #58, .F. ) ;
#190 = CARTESIAN_POINT ( 'NONE',  ( 0.000000000000000000, 0.000000000000000000, 0.000000000000000000 ) ) ;
#191 = CIRCLE ( 'NONE', #270, 1.250000000000000000 ) ;
#192 = CC_DESIGN_PERSON_AND_ORGANIZATION_ASSIGNMENT ( #271, #15, ( #199 ) ) ;
#193 = DIRECTION ( 'NONE',  ( -0.000000000000000000, -0.000000000000000000, -1.000000000000000000 ) ) ;
#194 = CARTESIAN_POINT ( 'NONE',  ( 0.000000000000000000, 0.000000000000000000, 1.199999999999999956 ) ) ;
#195 = DIRECTION ( 'NONE',  ( 1.000000000000000000, 0.000000000000000000, 0.000000000000000000 ) ) ;
#196 = AXIS2_PLACEMENT_3D ( 'NONE', #73, #100, #304 ) ;
#197 = LOCAL_TIME ( 12, 31, 10.00000000000000000, #40 ) ;
#198 = DIRECTION ( 'NONE',  ( 0.000000000000000000, 0.000000000000000000, 1.000000000000000000 ) ) ;
#199 = PRODUCT ( '4479', '4479', '', ( #3 ) ) ;
#200 = COORDINATED_UNIVERSAL_TIME_OFFSET ( 1, 0, .AHEAD. ) ;
#201 = AXIS2_PLACEMENT_3D ( 'NONE', #171, #284, #122 ) ;
#202 = EDGE_LOOP ( 'NONE', ( #36, #297 ) ) ;
#203 = EDGE_LOOP ( 'NONE', ( #87, #178, #295, #109 ) ) ;
#204 = EDGE_LOOP ( 'NONE', ( #189, #47, #257, #234 ) ) ;
#205 = APPROVAL_DATE_TIME ( #37, #19 ) ;
#206 = EDGE_CURVE ( 'NONE', #111, #41, #278, .T. ) ;
#207 = CARTESIAN_POINT ( 'NONE',  ( 0.000000000000000000, 0.000000000000000000, 101.2000000000000171 ) ) ;
#208 = EDGE_LOOP ( 'NONE', ( #7, #227 ) ) ;
#209 = APPLICATION_CONTEXT ( 'configuration controlled 3d designs of mechanical parts and assemblies' ) ;
#210 = FACE_BOUND ( 'NONE', #208, .T. ) ;
#211 = ADVANCED_FACE ( 'NONE', ( #51 ), #149, .T. ) ;
#212 = FACE_OUTER_BOUND ( 'NONE', #12, .T. ) ;
#213 = LOCAL_TIME ( 12, 31, 10.00000000000000000, #200 ) ;
#214 = CARTESIAN_POINT ( 'NONE',  ( 0.5000000000000000000, 6.123233995736766036E-17, 1.399999999999998579 ) ) ;
#215 = UNCERTAINTY_MEASURE_WITH_UNIT (LENGTH_MEASURE( 1.000000000000000082E-05 ), #105, 'distance_accuracy_value', 'NONE');
#216 = FACE_OUTER_BOUND ( 'NONE', #68, .T. ) ;
#217 = LOCAL_TIME ( 12, 31, 10.00000000000000000, #110 ) ;
#218 = APPROVAL_PERSON_ORGANIZATION ( #108, #245, #145 ) ;
#219 = DIRECTION ( 'NONE',  ( 1.000000000000000000, 0.000000000000000000, 0.000000000000000000 ) ) ;
#220 = CARTESIAN_POINT ( 'NONE',  ( -0.5000000000000000000, 0.000000000000000000, 101.2000000000000171 ) ) ;
#221 = MANIFOLD_SOLID_BREP ( 'Zaoblit1', #9 ) ;
#222 = APPLICATION_PROTOCOL_DEFINITION ( 'international standard', 'config_control_design', 1994, #29 ) ;
#223 = CC_DESIGN_APPROVAL ( #235, ( #256 ) ) ;
#224 = DIRECTION ( 'NONE',  ( 1.000000000000000000, 0.000000000000000000, 0.000000000000000000 ) ) ;
#225 = EDGE_CURVE ( 'NONE', #140, #64, #117, .T. ) ;
#226 = PERSON_AND_ORGANIZATION ( #131, #50 ) ;
#227 = ORIENTED_EDGE ( 'NONE', *, *, #296, .T. ) ;
#228 = SHAPE_DEFINITION_REPRESENTATION ( #14, #269 ) ;
#229 = LOCAL_TIME ( 12, 31, 10.00000000000000000, #62 ) ;
#230 = ORIENTED_EDGE ( 'NONE', *, *, #69, .F. ) ;
#231 = APPROVAL_STATUS ( 'not_yet_approved' ) ;
#232 = VERTEX_POINT ( 'NONE', #1 ) ;
#233 = ADVANCED_FACE ( 'NONE', ( #174 ), #60, .T. ) ;
#234 = ORIENTED_EDGE ( 'NONE', *, *, #170, .T. ) ;
#235 = APPROVAL ( #254, 'NEURÈENÝ' ) ;
#236 = PERSON_AND_ORGANIZATION_ROLE ( 'creator' ) ;
#237 = ORIENTED_EDGE ( 'NONE', *, *, #288, .T. ) ;
#238 = AXIS2_PLACEMENT_3D ( 'NONE', #30, #175, #79 ) ;
#239 = EDGE_CURVE ( 'NONE', #41, #64, #283, .T. ) ;
#240 = DIRECTION ( 'NONE',  ( 0.000000000000000000, 0.000000000000000000, 1.000000000000000000 ) ) ;
#241 = DIRECTION ( 'NONE',  ( 1.000000000000000000, 0.000000000000000000, 0.000000000000000000 ) ) ;
#242 = CARTESIAN_POINT ( 'NONE',  ( 0.000000000000000000, 0.000000000000000000, 0.000000000000000000 ) ) ;
#243 = CIRCLE ( 'NONE', #141, 1.250000000000000000 ) ;
#244 = CARTESIAN_POINT ( 'NONE',  ( 0.000000000000000000, 0.000000000000000000, 1.399999999999998579 ) ) ;
#245 = APPROVAL ( #185, 'NEURÈENÝ' ) ;
#246 = LINE ( 'NONE', #156, #168 ) ;
#247 = CARTESIAN_POINT ( 'NONE',  ( -0.6999999999999999556, 8.572527594031471957E-17, 1.399999999999998579 ) ) ;
#248 = EDGE_CURVE ( 'NONE', #232, #140, #35, .T. ) ;
#249 = DIRECTION ( 'NONE',  ( 1.000000000000000000, 0.000000000000000000, 0.000000000000000000 ) ) ;
#250 = CIRCLE ( 'NONE', #282, 0.5000000000000000000 ) ;
#251 = DIRECTION ( 'NONE',  ( -0.000000000000000000, -0.000000000000000000, -1.000000000000000000 ) ) ;
#252 = ADVANCED_FACE ( 'NONE', ( #2 ), #176, .F. ) ;
#253 = DIRECTION ( 'NONE',  ( 1.000000000000000000, 0.000000000000000000, 0.000000000000000000 ) ) ;
#254 = APPROVAL_STATUS ( 'not_yet_approved' ) ;
#255 = ORIENTED_EDGE ( 'NONE', *, *, #112, .F. ) ;
#256 = SECURITY_CLASSIFICATION ( '', '', #90 ) ;
#257 = ORIENTED_EDGE ( 'NONE', *, *, #248, .T. ) ;
#258 = PRODUCT_DEFINITION ( 'NEZNÁMÝ', '', #24, #101 ) ;
#259 = ORIENTED_EDGE ( 'NONE', *, *, #181, .T. ) ;
#260 = ORIENTED_EDGE ( 'NONE', *, *, #285, .F. ) ;
#261 = AXIS2_PLACEMENT_3D ( 'NONE', #190, #53, #124 ) ;
#262 = FACE_OUTER_BOUND ( 'NONE', #137, .T. ) ;
#263 = LOCAL_TIME ( 12, 31, 10.00000000000000000, #299 ) ;
#264 = CARTESIAN_POINT ( 'NONE',  ( -0.6999999999999999556, 8.572527594031473190E-17, 1.199999999999999289 ) ) ;
#265 = CARTESIAN_POINT ( 'NONE',  ( 0.5000000000000000000, 6.123233995736766036E-17, 101.2000000000000171 ) ) ;
#266 = CARTESIAN_POINT ( 'NONE',  ( -0.5000000000000000000, 0.000000000000000000, 1.399999999999998579 ) ) ;
#267 = CYLINDRICAL_SURFACE ( 'NONE', #303, 1.250000000000000000 ) ;
#268 = DIRECTION ( 'NONE',  ( 1.000000000000000000, 0.000000000000000000, 0.000000000000000000 ) ) ;
#269 = ADVANCED_BREP_SHAPE_REPRESENTATION ( '4479', ( #221, #123 ), #151 ) ;
#270 = AXIS2_PLACEMENT_3D ( 'NONE', #242, #240, #172 ) ;
#271 = PERSON_AND_ORGANIZATION ( #131, #50 ) ;
#272 = CALENDAR_DATE ( 2022, 20, 6 ) ;
#273 = DATE_TIME_ROLE ( 'classification_date' ) ;
#274 = VERTEX_POINT ( 'NONE', #33 ) ;
#275 = ORIENTED_EDGE ( 'NONE', *, *, #69, .T. ) ;
#276 = CIRCLE ( 'NONE', #84, 0.5000000000000000000 ) ;
#277 = PERSON_AND_ORGANIZATION_ROLE ( 'classification_officer' ) ;
#278 = CIRCLE ( 'NONE', #148, 0.2000000000000000944 ) ;
#279 = ORIENTED_EDGE ( 'NONE', *, *, #38, .T. ) ;
#280 = CARTESIAN_POINT ( 'NONE',  ( 0.000000000000000000, 0.000000000000000000, 101.2000000000000171 ) ) ;
#281 = DIRECTION ( 'NONE',  ( -1.000000000000000000, 0.000000000000000000, 0.000000000000000000 ) ) ;
#282 = AXIS2_PLACEMENT_3D ( 'NONE', #280, #48, #253 ) ;
#283 = CIRCLE ( 'NONE', #103, 0.6999999999999999556 ) ;
#284 = DIRECTION ( 'NONE',  ( -0.000000000000000000, -0.000000000000000000, -1.000000000000000000 ) ) ;
#285 = EDGE_CURVE ( 'NONE', #92, #144, #243, .T. ) ;
#286 = DIRECTION ( 'NONE',  ( -0.000000000000000000, -0.000000000000000000, -1.000000000000000000 ) ) ;
#287 = DIRECTION ( 'NONE',  ( 0.000000000000000000, 0.000000000000000000, 1.000000000000000000 ) ) ;
#288 = EDGE_CURVE ( 'NONE', #92, #274, #246, .T. ) ;
#289 = CARTESIAN_POINT ( 'NONE',  ( 0.000000000000000000, 0.000000000000000000, 1.399999999999998579 ) ) ;
#290 = VECTOR ( 'NONE', #75, 1000.000000000000000 ) ;
#291 = AXIS2_PLACEMENT_3D ( 'NONE', #26, #125, #71 ) ;
#292 = CARTESIAN_POINT ( 'NONE',  ( 0.000000000000000000, 0.000000000000000000, 0.000000000000000000 ) ) ;
#293 = EDGE_CURVE ( 'NONE', #144, #92, #43, .T. ) ;
#294 = PERSON_AND_ORGANIZATION ( #131, #50 ) ;
#295 = ORIENTED_EDGE ( 'NONE', *, *, #239, .F. ) ;
#296 = EDGE_CURVE ( 'NONE', #64, #41, #72, .T. ) ;
#297 = ORIENTED_EDGE ( 'NONE', *, *, #88, .F. ) ;
#298 = EDGE_LOOP ( 'NONE', ( #279, #259 ) ) ;
#299 = COORDINATED_UNIVERSAL_TIME_OFFSET ( 1, 0, .AHEAD. ) ;
#300 = CARTESIAN_POINT ( 'NONE',  ( 0.000000000000000000, 0.000000000000000000, 101.2000000000000171 ) ) ;
#301 = EDGE_LOOP ( 'NONE', ( #89, #160, #275, #16 ) ) ;
#302 = CARTESIAN_POINT ( 'NONE',  ( -1.250000000000000000, 0.000000000000000000, 0.000000000000000000 ) ) ;
#303 = AXIS2_PLACEMENT_3D ( 'NONE', #194, #193, #169 ) ;
#304 = DIRECTION ( 'NONE',  ( 1.000000000000000000, 0.000000000000000000, 0.000000000000000000 ) ) ;
#305 = CARTESIAN_POINT ( 'NONE',  ( 0.000000000000000000, 0.000000000000000000, 1.399999999999998579 ) ) ;
#306 = DIRECTION ( 'NONE',  ( 0.000000000000000000, 0.000000000000000000, 1.000000000000000000 ) ) ;
#307 = AXIS2_PLACEMENT_3D ( 'NONE', #289, #104, #268 ) ;
ENDSEC;
END-ISO-10303-21;
