ISO-10303-21;
HEADER;
FILE_DESCRIPTION (( 'STEP AP203' ),
    '1' );
FILE_NAME ('6c63.STEP',
    '2022-06-20T09:22:28',
    ( '' ),
    ( '' ),
    'SwSTEP 2.0',
    'SolidWorks 2019',
    '' );
FILE_SCHEMA (( 'CONFIG_CONTROL_DESIGN' ));
ENDSEC;

DATA;
#1 = ORGANIZATION ( 'NEURÈENÝ', 'NEURÈENÝ', '' ) ;
#2 =( NAMED_UNIT ( * ) SI_UNIT ( $, .STERADIAN. ) SOLID_ANGLE_UNIT ( ) );
#3 =( NAMED_UNIT ( * ) PLANE_ANGLE_UNIT ( ) SI_UNIT ( $, .RADIAN. ) );
#4 = APPROVAL ( #283, 'NEURÈENÝ' ) ;
#5 = ORIENTED_EDGE ( 'NONE', *, *, #107, .F. ) ;
#6 = LINE ( 'NONE', #241, #307 ) ;
#7 = EDGE_CURVE ( 'NONE', #78, #135, #6, .T. ) ;
#8 = ORIENTED_EDGE ( 'NONE', *, *, #88, .F. ) ;
#9 = CARTESIAN_POINT ( 'NONE',  ( 0.000000000000000000, 0.000000000000000000, 7.000000000000000000 ) ) ;
#10 = CC_DESIGN_PERSON_AND_ORGANIZATION_ASSIGNMENT ( #127, #20, ( #69 ) ) ;
#11 = ORIENTED_EDGE ( 'NONE', *, *, #64, .F. ) ;
#12 = CYLINDRICAL_SURFACE ( 'NONE', #157, 9.000000000000000000 ) ;
#13 = AXIS2_PLACEMENT_3D ( 'NONE', #121, #21, #194 ) ;
#14 = CALENDAR_DATE ( 2022, 20, 6 ) ;
#15 = FACE_BOUND ( 'NONE', #59, .T. ) ;
#16 = SECURITY_CLASSIFICATION_LEVEL ( 'unclassified' ) ;
#17 = FACE_OUTER_BOUND ( 'NONE', #153, .T. ) ;
#18 = AXIS2_PLACEMENT_3D ( 'NONE', #41, #193, #19 ) ;
#19 = DIRECTION ( 'NONE',  ( 0.000000000000000000, 0.000000000000000000, -1.000000000000000000 ) ) ;
#20 = PERSON_AND_ORGANIZATION_ROLE ( 'creator' ) ;
#21 = DIRECTION ( 'NONE',  ( 0.000000000000000000, 0.000000000000000000, 1.000000000000000000 ) ) ;
#22 = EDGE_CURVE ( 'NONE', #78, #286, #236, .T. ) ;
#23 = DIRECTION ( 'NONE',  ( 1.000000000000000000, 0.000000000000000000, 0.000000000000000000 ) ) ;
#24 = TOROIDAL_SURFACE ( 'NONE', #76, 9.199999999999999289, 0.2000000000000000111 ) ;
#25 = DIRECTION ( 'NONE',  ( 0.000000000000000000, 0.000000000000000000, 1.000000000000000000 ) ) ;
#26 = ADVANCED_FACE ( 'NONE', ( #262 ), #224, .T. ) ;
#27 = CALENDAR_DATE ( 2022, 20, 6 ) ;
#28 = ADVANCED_BREP_SHAPE_REPRESENTATION ( '6c63', ( #36, #13 ), #212 ) ;
#29 = PRODUCT_DEFINITION_FORMATION_WITH_SPECIFIED_SOURCE ( 'LIBOVOLNÝ', '', #99, .NOT_KNOWN. ) ;
#30 = CIRCLE ( 'NONE', #181, 12.00000000000000178 ) ;
#31 = DIRECTION ( 'NONE',  ( 1.000000000000000000, 0.000000000000000000, -0.000000000000000000 ) ) ;
#32 = EDGE_LOOP ( 'NONE', ( #246, #174, #101, #34 ) ) ;
#33 = EDGE_CURVE ( 'NONE', #261, #293, #282, .T. ) ;
#34 = ORIENTED_EDGE ( 'NONE', *, *, #171, .T. ) ;
#35 = CARTESIAN_POINT ( 'NONE',  ( 0.000000000000000000, 0.000000000000000000, 167.0000000000000000 ) ) ;
#36 = MANIFOLD_SOLID_BREP ( 'Zaoblit1', #260 ) ;
#37 = ADVANCED_FACE ( 'NONE', ( #155 ), #183, .T. ) ;
#38 = CARTESIAN_POINT ( 'NONE',  ( 0.000000000000000000, 0.000000000000000000, 167.0000000000000000 ) ) ;
#39 = AXIS2_PLACEMENT_3D ( 'NONE', #119, #40, #302 ) ;
#40 = DIRECTION ( 'NONE',  ( 0.000000000000000000, 0.000000000000000000, 1.000000000000000000 ) ) ;
#41 = CARTESIAN_POINT ( 'NONE',  ( 9.199999999999999289, 0.000000000000000000, 7.200000000000011724 ) ) ;
#42 = LOCAL_TIME ( 11, 22, 28.00000000000000000, #270 ) ;
#43 = LINE ( 'NONE', #142, #170 ) ;
#44 = FACE_OUTER_BOUND ( 'NONE', #215, .T. ) ;
#45 = DIRECTION ( 'NONE',  ( 0.000000000000000000, 0.000000000000000000, 1.000000000000000000 ) ) ;
#46 = SHAPE_DEFINITION_REPRESENTATION ( #216, #28 ) ;
#47 = CALENDAR_DATE ( 2022, 20, 6 ) ;
#48 = AXIS2_PLACEMENT_3D ( 'NONE', #167, #191, #269 ) ;
#49 =( LENGTH_UNIT ( ) NAMED_UNIT ( * ) SI_UNIT ( .MILLI., .METRE. ) );
#50 = EDGE_CURVE ( 'NONE', #179, #135, #104, .T. ) ;
#51 = LOCAL_TIME ( 11, 22, 28.00000000000000000, #210 ) ;
#52 = PERSON_AND_ORGANIZATION ( #217, #1 ) ;
#53 = EDGE_LOOP ( 'NONE', ( #8, #54, #134, #11 ) ) ;
#54 = ORIENTED_EDGE ( 'NONE', *, *, #73, .T. ) ;
#55 = LOCAL_TIME ( 11, 22, 28.00000000000000000, #240 ) ;
#56 = ORIENTED_EDGE ( 'NONE', *, *, #88, .T. ) ;
#57 = DIRECTION ( 'NONE',  ( 0.000000000000000000, 0.000000000000000000, 1.000000000000000000 ) ) ;
#58 = ORIENTED_EDGE ( 'NONE', *, *, #33, .T. ) ;
#59 = EDGE_LOOP ( 'NONE', ( #184, #288 ) ) ;
#60 = CC_DESIGN_APPROVAL ( #219, ( #227 ) ) ;
#61 = DIRECTION ( 'NONE',  ( 0.000000000000000000, 0.000000000000000000, 1.000000000000000000 ) ) ;
#62 = CARTESIAN_POINT ( 'NONE',  ( 0.000000000000000000, 0.000000000000000000, 7.000000000000000000 ) ) ;
#63 = CALENDAR_DATE ( 2022, 20, 6 ) ;
#64 = EDGE_CURVE ( 'NONE', #261, #245, #156, .T. ) ;
#65 = CARTESIAN_POINT ( 'NONE',  ( -12.00000000000000178, 0.000000000000000000, 0.000000000000000000 ) ) ;
#66 = DIRECTION ( 'NONE',  ( -0.000000000000000000, -0.000000000000000000, -1.000000000000000000 ) ) ;
#67 = PERSON_AND_ORGANIZATION_ROLE ( 'design_supplier' ) ;
#68 = DIRECTION ( 'NONE',  ( -0.000000000000000000, -0.000000000000000000, -1.000000000000000000 ) ) ;
#69 = PRODUCT_DEFINITION ( 'NEZNÁMÝ', '', #29, #130 ) ;
#70 = CARTESIAN_POINT ( 'NONE',  ( 12.00000000000000178, 1.469576158976824144E-15, 0.000000000000000000 ) ) ;
#71 = AXIS2_PLACEMENT_3D ( 'NONE', #161, #247, #138 ) ;
#72 = MECHANICAL_CONTEXT ( 'NONE', #80, 'mechanical' ) ;
#73 = EDGE_CURVE ( 'NONE', #293, #291, #225, .T. ) ;
#74 = EDGE_LOOP ( 'NONE', ( #284, #147, #176, #132 ) ) ;
#75 = VECTOR ( 'NONE', #68, 1000.000000000000000 ) ;
#76 = AXIS2_PLACEMENT_3D ( 'NONE', #149, #256, #168 ) ;
#77 = ORIENTED_EDGE ( 'NONE', *, *, #171, .F. ) ;
#78 = VERTEX_POINT ( 'NONE', #208 ) ;
#79 = APPROVAL_PERSON_ORGANIZATION ( #96, #259, #95 ) ;
#80 = APPLICATION_CONTEXT ( 'configuration controlled 3d designs of mechanical parts and assemblies' ) ;
#81 = CARTESIAN_POINT ( 'NONE',  ( 0.000000000000000000, 0.000000000000000000, 167.0000000000000000 ) ) ;
#82 = CC_DESIGN_DATE_AND_TIME_ASSIGNMENT ( #214, #306, ( #69 ) ) ;
#83 = ORIENTED_EDGE ( 'NONE', *, *, #50, .T. ) ;
#84 = ORIENTED_EDGE ( 'NONE', *, *, #22, .T. ) ;
#85 = CARTESIAN_POINT ( 'NONE',  ( -9.199999999999999289, 1.126675055215564822E-15, 7.200000000000011724 ) ) ;
#86 = CIRCLE ( 'NONE', #108, 9.199999999999999289 ) ;
#87 = DIRECTION ( 'NONE',  ( 0.000000000000000000, 0.000000000000000000, 1.000000000000000000 ) ) ;
#88 = EDGE_CURVE ( 'NONE', #293, #261, #148, .T. ) ;
#89 = CARTESIAN_POINT ( 'NONE',  ( 0.000000000000000000, 0.000000000000000000, 167.0000000000000000 ) ) ;
#90 = PERSON_AND_ORGANIZATION ( #217, #1 ) ;
#91 = FACE_OUTER_BOUND ( 'NONE', #74, .T. ) ;
#92 = CC_DESIGN_APPROVAL ( #259, ( #29 ) ) ;
#93 = CARTESIAN_POINT ( 'NONE',  ( 9.000000000000000000, 1.102182119232617714E-15, 7.200000000000011724 ) ) ;
#94 = ADVANCED_FACE ( 'NONE', ( #44 ), #12, .T. ) ;
#95 = APPROVAL_ROLE ( '' ) ;
#96 = PERSON_AND_ORGANIZATION ( #217, #1 ) ;
#97 = PERSON_AND_ORGANIZATION_ROLE ( 'design_owner' ) ;
#98 = AXIS2_PLACEMENT_3D ( 'NONE', #85, #272, #234 ) ;
#99 = PRODUCT ( '6c63', '6c63', '', ( #72 ) ) ;
#100 = APPLICATION_PROTOCOL_DEFINITION ( 'international standard', 'config_control_design', 1994, #80 ) ;
#101 = ORIENTED_EDGE ( 'NONE', *, *, #7, .T. ) ;
#102 = ORIENTED_EDGE ( 'NONE', *, *, #223, .T. ) ;
#103 = DIRECTION ( 'NONE',  ( 1.000000000000000000, 0.000000000000000000, 0.000000000000000000 ) ) ;
#104 = CIRCLE ( 'NONE', #276, 9.000000000000000000 ) ;
#105 = EDGE_LOOP ( 'NONE', ( #77, #265, #220, #5 ) ) ;
#106 = APPLICATION_CONTEXT ( 'configuration controlled 3d designs of mechanical parts and assemblies' ) ;
#107 = EDGE_CURVE ( 'NONE', #179, #218, #117, .T. ) ;
#108 = AXIS2_PLACEMENT_3D ( 'NONE', #299, #298, #250 ) ;
#109 = ORIENTED_EDGE ( 'NONE', *, *, #128, .F. ) ;
#110 = DIRECTION ( 'NONE',  ( 1.000000000000000000, 0.000000000000000000, 0.000000000000000000 ) ) ;
#111 = DIRECTION ( 'NONE',  ( 1.000000000000000000, 0.000000000000000000, 0.000000000000000000 ) ) ;
#112 = APPROVAL_PERSON_ORGANIZATION ( #166, #219, #143 ) ;
#113 = DIRECTION ( 'NONE',  ( -0.000000000000000000, -0.000000000000000000, -1.000000000000000000 ) ) ;
#114 = ADVANCED_FACE ( 'NONE', ( #294 ), #232, .F. ) ;
#115 = DIRECTION ( 'NONE',  ( -1.000000000000000000, 0.000000000000000000, 0.000000000000000000 ) ) ;
#116 = COORDINATED_UNIVERSAL_TIME_OFFSET ( 1, 0, .AHEAD. ) ;
#117 = CIRCLE ( 'NONE', #18, 0.1999999999999996503 ) ;
#118 = CARTESIAN_POINT ( 'NONE',  ( -9.199999999999999289, 1.126675055215564822E-15, 7.000000000000006217 ) ) ;
#119 = CARTESIAN_POINT ( 'NONE',  ( 0.000000000000000000, 0.000000000000000000, 0.000000000000000000 ) ) ;
#120 = APPROVAL_PERSON_ORGANIZATION ( #195, #4, #281 ) ;
#121 = CARTESIAN_POINT ( 'NONE',  ( 0.000000000000000000, 0.000000000000000000, 0.000000000000000000 ) ) ;
#122 = VECTOR ( 'NONE', #137, 1000.000000000000000 ) ;
#123 = ORIENTED_EDGE ( 'NONE', *, *, #201, .F. ) ;
#124 = ADVANCED_FACE ( 'NONE', ( #275 ), #189, .T. ) ;
#125 = CIRCLE ( 'NONE', #187, 9.199999999999999289 ) ;
#126 = FACE_OUTER_BOUND ( 'NONE', #105, .T. ) ;
#127 = PERSON_AND_ORGANIZATION ( #217, #1 ) ;
#128 = EDGE_CURVE ( 'NONE', #135, #169, #129, .T. ) ;
#129 = CIRCLE ( 'NONE', #98, 0.2000000000000005107 ) ;
#130 = DESIGN_CONTEXT ( 'detailed design', #106, 'design' ) ;
#131 = DIRECTION ( 'NONE',  ( 0.000000000000000000, 0.000000000000000000, 1.000000000000000000 ) ) ;
#132 = ORIENTED_EDGE ( 'NONE', *, *, #182, .T. ) ;
#133 = AXIS2_PLACEMENT_3D ( 'NONE', #38, #202, #31 ) ;
#134 = ORIENTED_EDGE ( 'NONE', *, *, #201, .T. ) ;
#135 = VERTEX_POINT ( 'NONE', #305 ) ;
#136 = UNCERTAINTY_MEASURE_WITH_UNIT (LENGTH_MEASURE( 1.000000000000000082E-05 ), #49, 'distance_accuracy_value', 'NONE');
#137 = DIRECTION ( 'NONE',  ( -0.000000000000000000, -0.000000000000000000, -1.000000000000000000 ) ) ;
#138 = DIRECTION ( 'NONE',  ( 1.000000000000000000, 0.000000000000000000, -0.000000000000000000 ) ) ;
#139 = CALENDAR_DATE ( 2022, 20, 6 ) ;
#140 = DIRECTION ( 'NONE',  ( -0.000000000000000000, -0.000000000000000000, -1.000000000000000000 ) ) ;
#141 = PERSON_AND_ORGANIZATION_ROLE ( 'creator' ) ;
#142 = CARTESIAN_POINT ( 'NONE',  ( 9.000000000000000000, 1.102182119232617714E-15, 167.0000000000000000 ) ) ;
#143 = APPROVAL_ROLE ( '' ) ;
#144 = DIRECTION ( 'NONE',  ( -0.000000000000000000, -0.000000000000000000, -1.000000000000000000 ) ) ;
#145 = PERSON_AND_ORGANIZATION ( #217, #1 ) ;
#146 = DIRECTION ( 'NONE',  ( 1.000000000000000000, 0.000000000000000000, 0.000000000000000000 ) ) ;
#147 = ORIENTED_EDGE ( 'NONE', *, *, #33, .F. ) ;
#148 = CIRCLE ( 'NONE', #48, 12.00000000000000178 ) ;
#149 = CARTESIAN_POINT ( 'NONE',  ( 0.000000000000000000, 0.000000000000000000, 7.200000000000011724 ) ) ;
#150 = ADVANCED_FACE ( 'NONE', ( #91 ), #253, .T. ) ;
#151 = APPLICATION_PROTOCOL_DEFINITION ( 'international standard', 'config_control_design', 1994, #106 ) ;
#152 = EDGE_CURVE ( 'NONE', #218, #169, #125, .T. ) ;
#153 = EDGE_LOOP ( 'NONE', ( #58, #56 ) ) ;
#154 = TOROIDAL_SURFACE ( 'NONE', #222, 9.199999999999999289, 0.2000000000000000111 ) ;
#155 = FACE_OUTER_BOUND ( 'NONE', #32, .T. ) ;
#156 = LINE ( 'NONE', #243, #122 ) ;
#157 = AXIS2_PLACEMENT_3D ( 'NONE', #192, #144, #249 ) ;
#158 = EDGE_LOOP ( 'NONE', ( #264, #123 ) ) ;
#159 = DIRECTION ( 'NONE',  ( 1.000000000000000000, 0.000000000000000000, 0.000000000000000000 ) ) ;
#160 = CC_DESIGN_PERSON_AND_ORGANIZATION_ASSIGNMENT ( #90, #67, ( #29 ) ) ;
#161 = CARTESIAN_POINT ( 'NONE',  ( 0.000000000000000000, 0.000000000000000000, 7.000000000000000000 ) ) ;
#162 = CARTESIAN_POINT ( 'NONE',  ( 0.000000000000000000, 0.000000000000000000, 0.000000000000000000 ) ) ;
#163 = LOCAL_TIME ( 11, 22, 28.00000000000000000, #116 ) ;
#164 = CARTESIAN_POINT ( 'NONE',  ( -12.00000000000000178, 0.000000000000000000, 7.000000000000000000 ) ) ;
#165 = DIRECTION ( 'NONE',  ( 0.000000000000000000, 0.000000000000000000, 1.000000000000000000 ) ) ;
#166 = PERSON_AND_ORGANIZATION ( #217, #1 ) ;
#167 = CARTESIAN_POINT ( 'NONE',  ( 0.000000000000000000, 0.000000000000000000, 7.000000000000000000 ) ) ;
#168 = DIRECTION ( 'NONE',  ( 1.000000000000000000, 0.000000000000000000, 0.000000000000000000 ) ) ;
#169 = VERTEX_POINT ( 'NONE', #118 ) ;
#170 = VECTOR ( 'NONE', #231, 1000.000000000000000 ) ;
#171 = EDGE_CURVE ( 'NONE', #135, #179, #296, .T. ) ;
#172 = AXIS2_PLACEMENT_3D ( 'NONE', #9, #131, #110 ) ;
#173 = CARTESIAN_POINT ( 'NONE',  ( 12.00000000000000178, 1.469576158976824144E-15, 7.000000000000000000 ) ) ;
#174 = ORIENTED_EDGE ( 'NONE', *, *, #22, .F. ) ;
#175 = APPROVAL_DATE_TIME ( #279, #4 ) ;
#176 = ORIENTED_EDGE ( 'NONE', *, *, #64, .T. ) ;
#177 = AXIS2_PLACEMENT_3D ( 'NONE', #251, #140, #213 ) ;
#178 = AXIS2_PLACEMENT_3D ( 'NONE', #35, #266, #103 ) ;
#179 = VERTEX_POINT ( 'NONE', #93 ) ;
#180 = ORIENTED_EDGE ( 'NONE', *, *, #186, .F. ) ;
#181 = AXIS2_PLACEMENT_3D ( 'NONE', #162, #61, #111 ) ;
#182 = EDGE_CURVE ( 'NONE', #245, #291, #303, .T. ) ;
#183 = CYLINDRICAL_SURFACE ( 'NONE', #289, 9.000000000000000000 ) ;
#184 = ORIENTED_EDGE ( 'NONE', *, *, #152, .T. ) ;
#185 = DIRECTION ( 'NONE',  ( -1.000000000000000000, 0.000000000000000000, 0.000000000000000000 ) ) ;
#186 = EDGE_CURVE ( 'NONE', #169, #218, #86, .T. ) ;
#187 = AXIS2_PLACEMENT_3D ( 'NONE', #62, #66, #205 ) ;
#188 = DIRECTION ( 'NONE',  ( 1.000000000000000000, 0.000000000000000000, 0.000000000000000000 ) ) ;
#189 = CYLINDRICAL_SURFACE ( 'NONE', #198, 12.00000000000000178 ) ;
#190 = DATE_TIME_ROLE ( 'classification_date' ) ;
#191 = DIRECTION ( 'NONE',  ( 0.000000000000000000, 0.000000000000000000, 1.000000000000000000 ) ) ;
#192 = CARTESIAN_POINT ( 'NONE',  ( 0.000000000000000000, 0.000000000000000000, 167.0000000000000000 ) ) ;
#193 = DIRECTION ( 'NONE',  ( 0.000000000000000000, -1.000000000000000000, 0.000000000000000000 ) ) ;
#194 = DIRECTION ( 'NONE',  ( 1.000000000000000000, 0.000000000000000000, 0.000000000000000000 ) ) ;
#195 = PERSON_AND_ORGANIZATION ( #217, #1 ) ;
#196 = CC_DESIGN_APPROVAL ( #4, ( #69 ) ) ;
#197 = ORIENTED_EDGE ( 'NONE', *, *, #107, .T. ) ;
#198 = AXIS2_PLACEMENT_3D ( 'NONE', #211, #113, #115 ) ;
#199 = EDGE_LOOP ( 'NONE', ( #84, #102 ) ) ;
#200 = DIRECTION ( 'NONE',  ( -0.000000000000000000, -0.000000000000000000, -1.000000000000000000 ) ) ;
#201 = EDGE_CURVE ( 'NONE', #291, #245, #30, .T. ) ;
#202 = DIRECTION ( 'NONE',  ( 0.000000000000000000, 0.000000000000000000, 1.000000000000000000 ) ) ;
#203 = ORIENTED_EDGE ( 'NONE', *, *, #268, .T. ) ;
#204 = EDGE_LOOP ( 'NONE', ( #109, #239, #197, #180 ) ) ;
#205 = DIRECTION ( 'NONE',  ( 1.000000000000000000, 0.000000000000000000, 0.000000000000000000 ) ) ;
#206 = AXIS2_PLACEMENT_3D ( 'NONE', #89, #87, #271 ) ;
#207 = CARTESIAN_POINT ( 'NONE',  ( 9.199999999999999289, 0.000000000000000000, 7.000000000000006217 ) ) ;
#208 = CARTESIAN_POINT ( 'NONE',  ( -9.000000000000000000, 0.000000000000000000, 167.0000000000000000 ) ) ;
#209 = ADVANCED_FACE ( 'NONE', ( #15, #17 ), #226, .T. ) ;
#210 = COORDINATED_UNIVERSAL_TIME_OFFSET ( 1, 0, .AHEAD. ) ;
#211 = CARTESIAN_POINT ( 'NONE',  ( 0.000000000000000000, 0.000000000000000000, 7.000000000000000000 ) ) ;
#212 =( GEOMETRIC_REPRESENTATION_CONTEXT ( 3 ) GLOBAL_UNCERTAINTY_ASSIGNED_CONTEXT ( ( #136 ) ) GLOBAL_UNIT_ASSIGNED_CONTEXT ( ( #49, #3, #2 ) ) REPRESENTATION_CONTEXT ( 'NONE', 'WORKASPACE' ) );
#213 = DIRECTION ( 'NONE',  ( -1.000000000000000000, 0.000000000000000000, 0.000000000000000000 ) ) ;
#214 = DATE_AND_TIME ( #27, #55 ) ;
#215 = EDGE_LOOP ( 'NONE', ( #292, #203, #83, #257 ) ) ;
#216 = PRODUCT_DEFINITION_SHAPE ( 'NONE', 'NONE',  #69 ) ;
#217 = PERSON ( 'NEURÈENÝ', 'NEURÈENÝ', 'NEURÈENÝ', ('NEURÈENÝ'), ('NEURÈENÝ'), ('NEURÈENÝ') ) ;
#218 = VERTEX_POINT ( 'NONE', #207 ) ;
#219 = APPROVAL ( #300, 'NEURÈENÝ' ) ;
#220 = ORIENTED_EDGE ( 'NONE', *, *, #152, .F. ) ;
#221 = DIRECTION ( 'NONE',  ( -0.000000000000000000, -0.000000000000000000, -1.000000000000000000 ) ) ;
#222 = AXIS2_PLACEMENT_3D ( 'NONE', #258, #25, #23 ) ;
#223 = EDGE_CURVE ( 'NONE', #286, #78, #278, .T. ) ;
#224 = PLANE ( 'NONE',  #133 ) ;
#225 = LINE ( 'NONE', #244, #75 ) ;
#226 = PLANE ( 'NONE',  #71 ) ;
#227 = SECURITY_CLASSIFICATION ( '', '', #16 ) ;
#228 = DATE_AND_TIME ( #139, #51 ) ;
#229 = CARTESIAN_POINT ( 'NONE',  ( 0.000000000000000000, 0.000000000000000000, 7.200000000000011724 ) ) ;
#230 = DATE_AND_TIME ( #63, #163 ) ;
#231 = DIRECTION ( 'NONE',  ( -0.000000000000000000, -0.000000000000000000, -1.000000000000000000 ) ) ;
#232 = PLANE ( 'NONE',  #39 ) ;
#233 = AXIS2_PLACEMENT_3D ( 'NONE', #229, #165, #188 ) ;
#234 = DIRECTION ( 'NONE',  ( -1.000000000000000000, 1.224646799147353207E-16, 0.000000000000000000 ) ) ;
#235 = PERSON_AND_ORGANIZATION ( #217, #1 ) ;
#236 = CIRCLE ( 'NONE', #178, 9.000000000000000000 ) ;
#237 = CARTESIAN_POINT ( 'NONE',  ( 9.000000000000000000, 1.102182119232617714E-15, 167.0000000000000000 ) ) ;
#238 = FACE_OUTER_BOUND ( 'NONE', #204, .T. ) ;
#239 = ORIENTED_EDGE ( 'NONE', *, *, #50, .F. ) ;
#240 = COORDINATED_UNIVERSAL_TIME_OFFSET ( 1, 0, .AHEAD. ) ;
#241 = CARTESIAN_POINT ( 'NONE',  ( -9.000000000000000000, 0.000000000000000000, 167.0000000000000000 ) ) ;
#242 = LOCAL_TIME ( 11, 22, 28.00000000000000000, #277 ) ;
#243 = CARTESIAN_POINT ( 'NONE',  ( -12.00000000000000178, 0.000000000000000000, 7.000000000000000000 ) ) ;
#244 = CARTESIAN_POINT ( 'NONE',  ( 12.00000000000000178, 1.469576158976824144E-15, 7.000000000000000000 ) ) ;
#245 = VERTEX_POINT ( 'NONE', #65 ) ;
#246 = ORIENTED_EDGE ( 'NONE', *, *, #268, .F. ) ;
#247 = DIRECTION ( 'NONE',  ( 0.000000000000000000, 0.000000000000000000, 1.000000000000000000 ) ) ;
#248 = CC_DESIGN_PERSON_AND_ORGANIZATION_ASSIGNMENT ( #145, #297, ( #227 ) ) ;
#249 = DIRECTION ( 'NONE',  ( -1.000000000000000000, 0.000000000000000000, 0.000000000000000000 ) ) ;
#250 = DIRECTION ( 'NONE',  ( 1.000000000000000000, 0.000000000000000000, 0.000000000000000000 ) ) ;
#251 = CARTESIAN_POINT ( 'NONE',  ( 0.000000000000000000, 0.000000000000000000, 7.000000000000000000 ) ) ;
#252 = DATE_AND_TIME ( #14, #42 ) ;
#253 = CYLINDRICAL_SURFACE ( 'NONE', #177, 12.00000000000000178 ) ;
#254 = APPROVAL_DATE_TIME ( #252, #219 ) ;
#255 = AXIS2_PLACEMENT_3D ( 'NONE', #267, #45, #146 ) ;
#256 = DIRECTION ( 'NONE',  ( 0.000000000000000000, 0.000000000000000000, 1.000000000000000000 ) ) ;
#257 = ORIENTED_EDGE ( 'NONE', *, *, #7, .F. ) ;
#258 = CARTESIAN_POINT ( 'NONE',  ( 0.000000000000000000, 0.000000000000000000, 7.200000000000011724 ) ) ;
#259 = APPROVAL ( #304, 'NEURÈENÝ' ) ;
#260 = CLOSED_SHELL ( 'NONE', ( #287, #94, #124, #150, #209, #114, #37, #26, #273 ) ) ;
#261 = VERTEX_POINT ( 'NONE', #164 ) ;
#262 = FACE_OUTER_BOUND ( 'NONE', #199, .T. ) ;
#263 = CC_DESIGN_PERSON_AND_ORGANIZATION_ASSIGNMENT ( #52, #97, ( #99 ) ) ;
#264 = ORIENTED_EDGE ( 'NONE', *, *, #182, .F. ) ;
#265 = ORIENTED_EDGE ( 'NONE', *, *, #128, .T. ) ;
#266 = DIRECTION ( 'NONE',  ( 0.000000000000000000, 0.000000000000000000, 1.000000000000000000 ) ) ;
#267 = CARTESIAN_POINT ( 'NONE',  ( 0.000000000000000000, 0.000000000000000000, 0.000000000000000000 ) ) ;
#268 = EDGE_CURVE ( 'NONE', #286, #179, #43, .T. ) ;
#269 = DIRECTION ( 'NONE',  ( 1.000000000000000000, 0.000000000000000000, 0.000000000000000000 ) ) ;
#270 = COORDINATED_UNIVERSAL_TIME_OFFSET ( 1, 0, .AHEAD. ) ;
#271 = DIRECTION ( 'NONE',  ( 1.000000000000000000, 0.000000000000000000, 0.000000000000000000 ) ) ;
#272 = DIRECTION ( 'NONE',  ( 1.224646799147353207E-16, 1.000000000000000000, -0.000000000000000000 ) ) ;
#273 = ADVANCED_FACE ( 'NONE', ( #238 ), #24, .F. ) ;
#274 = APPROVAL_DATE_TIME ( #228, #259 ) ;
#275 = FACE_OUTER_BOUND ( 'NONE', #53, .T. ) ;
#276 = AXIS2_PLACEMENT_3D ( 'NONE', #290, #57, #159 ) ;
#277 = COORDINATED_UNIVERSAL_TIME_OFFSET ( 1, 0, .AHEAD. ) ;
#278 = CIRCLE ( 'NONE', #206, 9.000000000000000000 ) ;
#279 = DATE_AND_TIME ( #47, #242 ) ;
#280 = CC_DESIGN_PERSON_AND_ORGANIZATION_ASSIGNMENT ( #235, #141, ( #29 ) ) ;
#281 = APPROVAL_ROLE ( '' ) ;
#282 = CIRCLE ( 'NONE', #172, 12.00000000000000178 ) ;
#283 = APPROVAL_STATUS ( 'not_yet_approved' ) ;
#284 = ORIENTED_EDGE ( 'NONE', *, *, #73, .F. ) ;
#285 = CC_DESIGN_SECURITY_CLASSIFICATION ( #227, ( #29 ) ) ;
#286 = VERTEX_POINT ( 'NONE', #237 ) ;
#287 = ADVANCED_FACE ( 'NONE', ( #126 ), #154, .F. ) ;
#288 = ORIENTED_EDGE ( 'NONE', *, *, #186, .T. ) ;
#289 = AXIS2_PLACEMENT_3D ( 'NONE', #81, #200, #185 ) ;
#290 = CARTESIAN_POINT ( 'NONE',  ( 0.000000000000000000, 0.000000000000000000, 7.200000000000011724 ) ) ;
#291 = VERTEX_POINT ( 'NONE', #70 ) ;
#292 = ORIENTED_EDGE ( 'NONE', *, *, #223, .F. ) ;
#293 = VERTEX_POINT ( 'NONE', #173 ) ;
#294 = FACE_OUTER_BOUND ( 'NONE', #158, .T. ) ;
#295 = CC_DESIGN_DATE_AND_TIME_ASSIGNMENT ( #230, #190, ( #227 ) ) ;
#296 = CIRCLE ( 'NONE', #233, 9.000000000000000000 ) ;
#297 = PERSON_AND_ORGANIZATION_ROLE ( 'classification_officer' ) ;
#298 = DIRECTION ( 'NONE',  ( -0.000000000000000000, -0.000000000000000000, -1.000000000000000000 ) ) ;
#299 = CARTESIAN_POINT ( 'NONE',  ( 0.000000000000000000, 0.000000000000000000, 7.000000000000000000 ) ) ;
#300 = APPROVAL_STATUS ( 'not_yet_approved' ) ;
#301 = PRODUCT_RELATED_PRODUCT_CATEGORY ( 'detail', '', ( #99 ) ) ;
#302 = DIRECTION ( 'NONE',  ( 1.000000000000000000, 0.000000000000000000, -0.000000000000000000 ) ) ;
#303 = CIRCLE ( 'NONE', #255, 12.00000000000000178 ) ;
#304 = APPROVAL_STATUS ( 'not_yet_approved' ) ;
#305 = CARTESIAN_POINT ( 'NONE',  ( -9.000000000000000000, 0.000000000000000000, 7.200000000000011724 ) ) ;
#306 = DATE_TIME_ROLE ( 'creation_date' ) ;
#307 = VECTOR ( 'NONE', #221, 1000.000000000000000 ) ;
ENDSEC;
END-ISO-10303-21;
