ISO-10303-21;
HEADER;
FILE_DESCRIPTION (( 'STEP AP203' ),
    '1' );
FILE_NAME ('195e.STEP',
    '2022-06-20T09:59:22',
    ( '' ),
    ( '' ),
    'SwSTEP 2.0',
    'SolidWorks 2019',
    '' );
FILE_SCHEMA (( 'CONFIG_CONTROL_DESIGN' ));
ENDSEC;

DATA;
#1 = DIRECTION ( 'NONE',  ( 1.000000000000000000, 0.000000000000000000, 0.000000000000000000 ) ) ;
#2 = AXIS2_PLACEMENT_3D ( 'NONE', #107, #38, #302 ) ;
#3 = ORIENTED_EDGE ( 'NONE', *, *, #262, .T. ) ;
#4 = CARTESIAN_POINT ( 'NONE',  ( -2.949999999999999734, 3.612708057484692097E-16, 3.199999999999980638 ) ) ;
#5 = DIRECTION ( 'NONE',  ( -1.000000000000000000, 0.000000000000000000, 0.000000000000000000 ) ) ;
#6 = DIRECTION ( 'NONE',  ( -0.000000000000000000, -0.000000000000000000, -1.000000000000000000 ) ) ;
#7 = EDGE_CURVE ( 'NONE', #94, #210, #233, .T. ) ;
#8 = DIRECTION ( 'NONE',  ( 0.000000000000000000, 0.000000000000000000, 1.000000000000000000 ) ) ;
#9 = ORIENTED_EDGE ( 'NONE', *, *, #16, .T. ) ;
#10 = CIRCLE ( 'NONE', #96, 5.000000000000000000 ) ;
#11 = DIRECTION ( 'NONE',  ( 0.000000000000000000, 0.000000000000000000, 1.000000000000000000 ) ) ;
#12 = LOCAL_TIME ( 11, 59, 22.00000000000000000, #121 ) ;
#13 = DIRECTION ( 'NONE',  ( -1.000000000000000000, 0.000000000000000000, 0.000000000000000000 ) ) ;
#14 = EDGE_LOOP ( 'NONE', ( #85, #189, #22, #223 ) ) ;
#15 = CYLINDRICAL_SURFACE ( 'NONE', #42, 5.000000000000000000 ) ;
#16 = EDGE_CURVE ( 'NONE', #289, #217, #89, .T. ) ;
#17 = VECTOR ( 'NONE', #124, 1000.000000000000000 ) ;
#18 =( NAMED_UNIT ( * ) PLANE_ANGLE_UNIT ( ) SI_UNIT ( $, .RADIAN. ) );
#19 = ORIENTED_EDGE ( 'NONE', *, *, #29, .F. ) ;
#20 = DIRECTION ( 'NONE',  ( -1.000000000000000000, 0.000000000000000000, 0.000000000000000000 ) ) ;
#21 = MANIFOLD_SOLID_BREP ( 'Zaoblit1', #123 ) ;
#22 = ORIENTED_EDGE ( 'NONE', *, *, #229, .T. ) ;
#23 = ORIENTED_EDGE ( 'NONE', *, *, #47, .F. ) ;
#24 = PERSON_AND_ORGANIZATION_ROLE ( 'creator' ) ;
#25 =( GEOMETRIC_REPRESENTATION_CONTEXT ( 3 ) GLOBAL_UNCERTAINTY_ASSIGNED_CONTEXT ( ( #143 ) ) GLOBAL_UNIT_ASSIGNED_CONTEXT ( ( #160, #18, #115 ) ) REPRESENTATION_CONTEXT ( 'NONE', 'WORKASPACE' ) );
#26 = CARTESIAN_POINT ( 'NONE',  ( 0.000000000000000000, 0.000000000000000000, 318.0000000000000000 ) ) ;
#27 = PERSON_AND_ORGANIZATION_ROLE ( 'design_supplier' ) ;
#28 = DIRECTION ( 'NONE',  ( 1.224646799147353207E-16, 1.000000000000000000, -0.000000000000000000 ) ) ;
#29 = EDGE_CURVE ( 'NONE', #154, #192, #177, .T. ) ;
#30 = FACE_OUTER_BOUND ( 'NONE', #63, .T. ) ;
#31 = DESIGN_CONTEXT ( 'detailed design', #288, 'design' ) ;
#32 = LOCAL_TIME ( 11, 59, 22.00000000000000000, #216 ) ;
#33 = CARTESIAN_POINT ( 'NONE',  ( 5.000000000000000000, 6.123233995736766282E-16, 3.000000000000000000 ) ) ;
#34 = AXIS2_PLACEMENT_3D ( 'NONE', #80, #57, #126 ) ;
#35 = SECURITY_CLASSIFICATION ( '', '', #106 ) ;
#36 = DIRECTION ( 'NONE',  ( -0.000000000000000000, -0.000000000000000000, -1.000000000000000000 ) ) ;
#37 = EDGE_LOOP ( 'NONE', ( #243, #232, #112, #59 ) ) ;
#38 = DIRECTION ( 'NONE',  ( 0.000000000000000000, 0.000000000000000000, 1.000000000000000000 ) ) ;
#39 = ORIENTED_EDGE ( 'NONE', *, *, #53, .T. ) ;
#40 = CC_DESIGN_PERSON_AND_ORGANIZATION_ASSIGNMENT ( #269, #24, ( #245 ) ) ;
#41 = DIRECTION ( 'NONE',  ( 1.000000000000000000, 0.000000000000000000, -0.000000000000000000 ) ) ;
#42 = AXIS2_PLACEMENT_3D ( 'NONE', #183, #238, #20 ) ;
#43 = CALENDAR_DATE ( 2022, 20, 6 ) ;
#44 = CARTESIAN_POINT ( 'NONE',  ( 0.000000000000000000, 0.000000000000000000, 0.000000000000000000 ) ) ;
#45 = COORDINATED_UNIVERSAL_TIME_OFFSET ( 1, 0, .AHEAD. ) ;
#46 = VERTEX_POINT ( 'NONE', #193 ) ;
#47 = EDGE_CURVE ( 'NONE', #141, #281, #224, .T. ) ;
#48 = FACE_OUTER_BOUND ( 'NONE', #108, .T. ) ;
#49 = SHAPE_DEFINITION_REPRESENTATION ( #168, #299 ) ;
#50 = FACE_OUTER_BOUND ( 'NONE', #257, .T. ) ;
#51 = AXIS2_PLACEMENT_3D ( 'NONE', #241, #156, #214 ) ;
#52 = FACE_OUTER_BOUND ( 'NONE', #206, .T. ) ;
#53 = EDGE_CURVE ( 'NONE', #154, #141, #98, .T. ) ;
#54 = DIRECTION ( 'NONE',  ( -0.000000000000000000, -0.000000000000000000, -1.000000000000000000 ) ) ;
#55 = CC_DESIGN_PERSON_AND_ORGANIZATION_ASSIGNMENT ( #191, #27, ( #245 ) ) ;
#56 = AXIS2_PLACEMENT_3D ( 'NONE', #272, #122, #5 ) ;
#57 = DIRECTION ( 'NONE',  ( 0.000000000000000000, 0.000000000000000000, 1.000000000000000000 ) ) ;
#58 = AXIS2_PLACEMENT_3D ( 'NONE', #298, #133, #249 ) ;
#59 = ORIENTED_EDGE ( 'NONE', *, *, #229, .F. ) ;
#60 = CC_DESIGN_APPROVAL ( #61, ( #255 ) ) ;
#61 = APPROVAL ( #91, 'NEURÈENÝ' ) ;
#62 = CARTESIAN_POINT ( 'NONE',  ( -5.000000000000000000, 0.000000000000000000, 3.000000000000000000 ) ) ;
#63 = EDGE_LOOP ( 'NONE', ( #119, #23, #165, #268 ) ) ;
#64 = CYLINDRICAL_SURFACE ( 'NONE', #295, 5.000000000000000000 ) ;
#65 = ORIENTED_EDGE ( 'NONE', *, *, #284, .F. ) ;
#66 = ADVANCED_FACE ( 'NONE', ( #50 ), #167, .F. ) ;
#67 = PERSON_AND_ORGANIZATION ( #157, #90 ) ;
#68 = ORIENTED_EDGE ( 'NONE', *, *, #173, .T. ) ;
#69 = ORIENTED_EDGE ( 'NONE', *, *, #173, .F. ) ;
#70 = APPROVAL_ROLE ( '' ) ;
#71 = ADVANCED_FACE ( 'NONE', ( #48 ), #142, .T. ) ;
#72 = DIRECTION ( 'NONE',  ( 1.000000000000000000, 0.000000000000000000, 0.000000000000000000 ) ) ;
#73 = CARTESIAN_POINT ( 'NONE',  ( 0.000000000000000000, 0.000000000000000000, 318.0000000000000000 ) ) ;
#74 = PERSON_AND_ORGANIZATION_ROLE ( 'classification_officer' ) ;
#75 = AXIS2_PLACEMENT_3D ( 'NONE', #270, #116, #244 ) ;
#76 = ORIENTED_EDGE ( 'NONE', *, *, #53, .F. ) ;
#77 = EDGE_CURVE ( 'NONE', #281, #217, #203, .T. ) ;
#78 = DATE_AND_TIME ( #101, #12 ) ;
#79 = LOCAL_TIME ( 11, 59, 22.00000000000000000, #252 ) ;
#80 = CARTESIAN_POINT ( 'NONE',  ( 0.000000000000000000, 0.000000000000000000, 3.199999999999980638 ) ) ;
#81 = CARTESIAN_POINT ( 'NONE',  ( -2.949999999999999734, 3.612708057484692097E-16, 2.999999999999990674 ) ) ;
#82 = LINE ( 'NONE', #172, #226 ) ;
#83 = ADVANCED_FACE ( 'NONE', ( #52 ), #215, .T. ) ;
#84 = CARTESIAN_POINT ( 'NONE',  ( -2.750000000000000000, 0.000000000000000000, 318.0000000000000000 ) ) ;
#85 = ORIENTED_EDGE ( 'NONE', *, *, #212, .F. ) ;
#86 = DIRECTION ( 'NONE',  ( 1.000000000000000000, 0.000000000000000000, 0.000000000000000000 ) ) ;
#87 = EDGE_LOOP ( 'NONE', ( #9, #190 ) ) ;
#88 = ORIENTED_EDGE ( 'NONE', *, *, #7, .T. ) ;
#89 = CIRCLE ( 'NONE', #136, 2.949999999999999734 ) ;
#90 = ORGANIZATION ( 'NEURÈENÝ', 'NEURÈENÝ', '' ) ;
#91 = APPROVAL_STATUS ( 'not_yet_approved' ) ;
#92 = PERSON_AND_ORGANIZATION_ROLE ( 'design_owner' ) ;
#93 = PRODUCT ( '195e', '195e', '', ( #304 ) ) ;
#94 = VERTEX_POINT ( 'NONE', #265 ) ;
#95 = APPROVAL ( #185, 'NEURÈENÝ' ) ;
#96 = AXIS2_PLACEMENT_3D ( 'NONE', #44, #111, #275 ) ;
#97 = DATE_AND_TIME ( #307, #279 ) ;
#98 = LINE ( 'NONE', #271, #213 ) ;
#99 = AXIS2_PLACEMENT_3D ( 'NONE', #228, #151, #282 ) ;
#100 = EDGE_LOOP ( 'NONE', ( #182, #240, #242, #147 ) ) ;
#101 = CALENDAR_DATE ( 2022, 20, 6 ) ;
#102 = DIRECTION ( 'NONE',  ( -1.000000000000000000, 1.224646799147353207E-16, 0.000000000000000000 ) ) ;
#103 = DIRECTION ( 'NONE',  ( 1.000000000000000000, 0.000000000000000000, 0.000000000000000000 ) ) ;
#104 = DATE_TIME_ROLE ( 'classification_date' ) ;
#105 = DIRECTION ( 'NONE',  ( -0.000000000000000000, -0.000000000000000000, -1.000000000000000000 ) ) ;
#106 = SECURITY_CLASSIFICATION_LEVEL ( 'unclassified' ) ;
#107 = CARTESIAN_POINT ( 'NONE',  ( 0.000000000000000000, 0.000000000000000000, 318.0000000000000000 ) ) ;
#108 = EDGE_LOOP ( 'NONE', ( #139, #131 ) ) ;
#109 = AXIS2_PLACEMENT_3D ( 'NONE', #4, #28, #102 ) ;
#110 = DIRECTION ( 'NONE',  ( -0.000000000000000000, -0.000000000000000000, -1.000000000000000000 ) ) ;
#111 = DIRECTION ( 'NONE',  ( 0.000000000000000000, 0.000000000000000000, 1.000000000000000000 ) ) ;
#112 = ORIENTED_EDGE ( 'NONE', *, *, #113, .T. ) ;
#113 = EDGE_CURVE ( 'NONE', #152, #46, #10, .T. ) ;
#114 = LOCAL_TIME ( 11, 59, 22.00000000000000000, #117 ) ;
#115 =( NAMED_UNIT ( * ) SI_UNIT ( $, .STERADIAN. ) SOLID_ANGLE_UNIT ( ) );
#116 = DIRECTION ( 'NONE',  ( 0.000000000000000000, 0.000000000000000000, 1.000000000000000000 ) ) ;
#117 = COORDINATED_UNIVERSAL_TIME_OFFSET ( 1, 0, .AHEAD. ) ;
#118 = DIRECTION ( 'NONE',  ( 0.000000000000000000, 0.000000000000000000, 1.000000000000000000 ) ) ;
#119 = ORIENTED_EDGE ( 'NONE', *, *, #77, .F. ) ;
#120 = DIRECTION ( 'NONE',  ( 0.000000000000000000, 0.000000000000000000, 1.000000000000000000 ) ) ;
#121 = COORDINATED_UNIVERSAL_TIME_OFFSET ( 1, 0, .AHEAD. ) ;
#122 = DIRECTION ( 'NONE',  ( -0.000000000000000000, -0.000000000000000000, -1.000000000000000000 ) ) ;
#123 = CLOSED_SHELL ( 'NONE', ( #180, #83, #222, #303, #127, #66, #247, #71, #169 ) ) ;
#124 = DIRECTION ( 'NONE',  ( -0.000000000000000000, -0.000000000000000000, -1.000000000000000000 ) ) ;
#125 = CIRCLE ( 'NONE', #134, 5.000000000000000000 ) ;
#126 = DIRECTION ( 'NONE',  ( 1.000000000000000000, 0.000000000000000000, 0.000000000000000000 ) ) ;
#127 = ADVANCED_FACE ( 'NONE', ( #198, #231 ), #178, .T. ) ;
#128 = APPROVAL_PERSON_ORGANIZATION ( #287, #61, #187 ) ;
#129 = DIRECTION ( 'NONE',  ( 1.000000000000000000, 0.000000000000000000, 0.000000000000000000 ) ) ;
#130 = CARTESIAN_POINT ( 'NONE',  ( 0.000000000000000000, 0.000000000000000000, 3.000000000000000000 ) ) ;
#131 = ORIENTED_EDGE ( 'NONE', *, *, #29, .T. ) ;
#132 = APPLICATION_CONTEXT ( 'configuration controlled 3d designs of mechanical parts and assemblies' ) ;
#133 = DIRECTION ( 'NONE',  ( 0.000000000000000000, 0.000000000000000000, 1.000000000000000000 ) ) ;
#134 = AXIS2_PLACEMENT_3D ( 'NONE', #174, #8, #129 ) ;
#135 = CARTESIAN_POINT ( 'NONE',  ( 2.949999999999999734, 0.000000000000000000, 2.999999999999990674 ) ) ;
#136 = AXIS2_PLACEMENT_3D ( 'NONE', #291, #248, #72 ) ;
#137 = CC_DESIGN_DATE_AND_TIME_ASSIGNMENT ( #286, #266, ( #255 ) ) ;
#138 = AXIS2_PLACEMENT_3D ( 'NONE', #149, #11, #296 ) ;
#139 = ORIENTED_EDGE ( 'NONE', *, *, #284, .T. ) ;
#140 = DIRECTION ( 'NONE',  ( 1.000000000000000000, 0.000000000000000000, 0.000000000000000000 ) ) ;
#141 = VERTEX_POINT ( 'NONE', #280 ) ;
#142 = PLANE ( 'NONE',  #293 ) ;
#143 = UNCERTAINTY_MEASURE_WITH_UNIT (LENGTH_MEASURE( 1.000000000000000082E-05 ), #160, 'distance_accuracy_value', 'NONE');
#144 = VECTOR ( 'NONE', #110, 1000.000000000000000 ) ;
#145 = EDGE_CURVE ( 'NONE', #46, #152, #250, .T. ) ;
#146 = PERSON_AND_ORGANIZATION ( #157, #90 ) ;
#147 = ORIENTED_EDGE ( 'NONE', *, *, #218, .F. ) ;
#148 = DATE_AND_TIME ( #197, #79 ) ;
#149 = CARTESIAN_POINT ( 'NONE',  ( 0.000000000000000000, 0.000000000000000000, 0.000000000000000000 ) ) ;
#150 = CARTESIAN_POINT ( 'NONE',  ( 5.000000000000000000, 6.123233995736766282E-16, 3.000000000000000000 ) ) ;
#151 = DIRECTION ( 'NONE',  ( 0.000000000000000000, -1.000000000000000000, 0.000000000000000000 ) ) ;
#152 = VERTEX_POINT ( 'NONE', #297 ) ;
#153 = FACE_OUTER_BOUND ( 'NONE', #100, .T. ) ;
#154 = VERTEX_POINT ( 'NONE', #181 ) ;
#155 = CYLINDRICAL_SURFACE ( 'NONE', #194, 2.750000000000000000 ) ;
#156 = DIRECTION ( 'NONE',  ( 0.000000000000000000, 0.000000000000000000, 1.000000000000000000 ) ) ;
#157 = PERSON ( 'NEURÈENÝ', 'NEURÈENÝ', 'NEURÈENÝ', ('NEURÈENÝ'), ('NEURÈENÝ'), ('NEURÈENÝ') ) ;
#158 = TOROIDAL_SURFACE ( 'NONE', #58, 2.949999999999999734, 0.2000000000000000111 ) ;
#159 = CC_DESIGN_PERSON_AND_ORGANIZATION_ASSIGNMENT ( #294, #74, ( #35 ) ) ;
#160 =( LENGTH_UNIT ( ) NAMED_UNIT ( * ) SI_UNIT ( .MILLI., .METRE. ) );
#161 = EDGE_CURVE ( 'NONE', #281, #141, #196, .T. ) ;
#162 = PERSON_AND_ORGANIZATION ( #157, #90 ) ;
#163 = ORIENTED_EDGE ( 'NONE', *, *, #145, .F. ) ;
#164 = PERSON_AND_ORGANIZATION_ROLE ( 'creator' ) ;
#165 = ORIENTED_EDGE ( 'NONE', *, *, #218, .T. ) ;
#166 = APPROVAL_DATE_TIME ( #97, #95 ) ;
#167 = PLANE ( 'NONE',  #75 ) ;
#168 = PRODUCT_DEFINITION_SHAPE ( 'NONE', 'NONE',  #255 ) ;
#169 = ADVANCED_FACE ( 'NONE', ( #30 ), #158, .F. ) ;
#170 = DIRECTION ( 'NONE',  ( 0.000000000000000000, 0.000000000000000000, 1.000000000000000000 ) ) ;
#171 = CARTESIAN_POINT ( 'NONE',  ( 0.000000000000000000, 0.000000000000000000, 3.199999999999980638 ) ) ;
#172 = CARTESIAN_POINT ( 'NONE',  ( -2.750000000000000000, 0.000000000000000000, 318.0000000000000000 ) ) ;
#173 = EDGE_CURVE ( 'NONE', #192, #281, #82, .T. ) ;
#174 = CARTESIAN_POINT ( 'NONE',  ( 0.000000000000000000, 0.000000000000000000, 3.000000000000000000 ) ) ;
#175 = CIRCLE ( 'NONE', #99, 0.2000000000000000944 ) ;
#176 = CARTESIAN_POINT ( 'NONE',  ( 0.000000000000000000, 0.000000000000000000, 3.000000000000000000 ) ) ;
#177 = CIRCLE ( 'NONE', #264, 2.750000000000000000 ) ;
#178 = PLANE ( 'NONE',  #276 ) ;
#179 = ORIENTED_EDGE ( 'NONE', *, *, #161, .T. ) ;
#180 = ADVANCED_FACE ( 'NONE', ( #153 ), #285, .F. ) ;
#181 = CARTESIAN_POINT ( 'NONE',  ( 2.750000000000000000, 3.367778697655221012E-16, 318.0000000000000000 ) ) ;
#182 = ORIENTED_EDGE ( 'NONE', *, *, #161, .F. ) ;
#183 = CARTESIAN_POINT ( 'NONE',  ( 0.000000000000000000, 0.000000000000000000, 3.000000000000000000 ) ) ;
#184 = APPROVAL_DATE_TIME ( #261, #61 ) ;
#185 = APPROVAL_STATUS ( 'not_yet_approved' ) ;
#186 = CC_DESIGN_DATE_AND_TIME_ASSIGNMENT ( #78, #104, ( #35 ) ) ;
#187 = APPROVAL_ROLE ( '' ) ;
#188 = ORIENTED_EDGE ( 'NONE', *, *, #113, .F. ) ;
#189 = ORIENTED_EDGE ( 'NONE', *, *, #7, .F. ) ;
#190 = ORIENTED_EDGE ( 'NONE', *, *, #200, .T. ) ;
#191 = PERSON_AND_ORGANIZATION ( #157, #90 ) ;
#192 = VERTEX_POINT ( 'NONE', #84 ) ;
#193 = CARTESIAN_POINT ( 'NONE',  ( -5.000000000000000000, 0.000000000000000000, 0.000000000000000000 ) ) ;
#194 = AXIS2_PLACEMENT_3D ( 'NONE', #205, #36, #259 ) ;
#195 = CC_DESIGN_PERSON_AND_ORGANIZATION_ASSIGNMENT ( #67, #164, ( #255 ) ) ;
#196 = CIRCLE ( 'NONE', #34, 2.750000000000000000 ) ;
#197 = CALENDAR_DATE ( 2022, 20, 6 ) ;
#198 = FACE_BOUND ( 'NONE', #87, .T. ) ;
#199 = DIRECTION ( 'NONE',  ( 0.000000000000000000, 0.000000000000000000, 1.000000000000000000 ) ) ;
#200 = EDGE_CURVE ( 'NONE', #217, #289, #305, .T. ) ;
#201 = CARTESIAN_POINT ( 'NONE',  ( 0.000000000000000000, 0.000000000000000000, 3.000000000000000000 ) ) ;
#202 = ORIENTED_EDGE ( 'NONE', *, *, #47, .T. ) ;
#203 = CIRCLE ( 'NONE', #109, 0.2000000000000000944 ) ;
#204 = CC_DESIGN_PERSON_AND_ORGANIZATION_ASSIGNMENT ( #263, #92, ( #93 ) ) ;
#205 = CARTESIAN_POINT ( 'NONE',  ( 0.000000000000000000, 0.000000000000000000, 318.0000000000000000 ) ) ;
#206 = EDGE_LOOP ( 'NONE', ( #19, #39, #202, #69 ) ) ;
#207 = APPROVAL_PERSON_ORGANIZATION ( #162, #95, #70 ) ;
#208 = APPROVAL ( #219, 'NEURÈENÝ' ) ;
#209 = APPLICATION_PROTOCOL_DEFINITION ( 'international standard', 'config_control_design', 1994, #132 ) ;
#210 = VERTEX_POINT ( 'NONE', #150 ) ;
#211 = CALENDAR_DATE ( 2022, 20, 6 ) ;
#212 = EDGE_CURVE ( 'NONE', #210, #152, #251, .T. ) ;
#213 = VECTOR ( 'NONE', #290, 1000.000000000000000 ) ;
#214 = DIRECTION ( 'NONE',  ( 1.000000000000000000, 0.000000000000000000, 0.000000000000000000 ) ) ;
#215 = CYLINDRICAL_SURFACE ( 'NONE', #56, 2.750000000000000000 ) ;
#216 = COORDINATED_UNIVERSAL_TIME_OFFSET ( 1, 0, .AHEAD. ) ;
#217 = VERTEX_POINT ( 'NONE', #81 ) ;
#218 = EDGE_CURVE ( 'NONE', #141, #289, #175, .T. ) ;
#219 = APPROVAL_STATUS ( 'not_yet_approved' ) ;
#220 = CARTESIAN_POINT ( 'NONE',  ( 0.000000000000000000, 0.000000000000000000, 3.000000000000000000 ) ) ;
#221 = DIRECTION ( 'NONE',  ( 1.000000000000000000, 0.000000000000000000, -0.000000000000000000 ) ) ;
#222 = ADVANCED_FACE ( 'NONE', ( #225 ), #64, .T. ) ;
#223 = ORIENTED_EDGE ( 'NONE', *, *, #145, .T. ) ;
#224 = CIRCLE ( 'NONE', #300, 2.750000000000000000 ) ;
#225 = FACE_OUTER_BOUND ( 'NONE', #37, .T. ) ;
#226 = VECTOR ( 'NONE', #6, 1000.000000000000000 ) ;
#227 = APPROVAL_PERSON_ORGANIZATION ( #146, #208, #273 ) ;
#228 = CARTESIAN_POINT ( 'NONE',  ( 2.949999999999999734, 0.000000000000000000, 3.199999999999980638 ) ) ;
#229 = EDGE_CURVE ( 'NONE', #94, #46, #256, .T. ) ;
#230 = CARTESIAN_POINT ( 'NONE',  ( -2.750000000000000000, 0.000000000000000000, 3.199999999999980638 ) ) ;
#231 = FACE_OUTER_BOUND ( 'NONE', #278, .T. ) ;
#232 = ORIENTED_EDGE ( 'NONE', *, *, #212, .T. ) ;
#233 = CIRCLE ( 'NONE', #260, 5.000000000000000000 ) ;
#234 = PRODUCT_RELATED_PRODUCT_CATEGORY ( 'detail', '', ( #93 ) ) ;
#235 = AXIS2_PLACEMENT_3D ( 'NONE', #176, #54, #277 ) ;
#236 = CARTESIAN_POINT ( 'NONE',  ( 0.000000000000000000, 0.000000000000000000, 3.199999999999980638 ) ) ;
#237 = FACE_OUTER_BOUND ( 'NONE', #14, .T. ) ;
#238 = DIRECTION ( 'NONE',  ( -0.000000000000000000, -0.000000000000000000, -1.000000000000000000 ) ) ;
#239 = CC_DESIGN_APPROVAL ( #208, ( #35 ) ) ;
#240 = ORIENTED_EDGE ( 'NONE', *, *, #77, .T. ) ;
#241 = CARTESIAN_POINT ( 'NONE',  ( 0.000000000000000000, 0.000000000000000000, 0.000000000000000000 ) ) ;
#242 = ORIENTED_EDGE ( 'NONE', *, *, #16, .F. ) ;
#243 = ORIENTED_EDGE ( 'NONE', *, *, #262, .F. ) ;
#244 = DIRECTION ( 'NONE',  ( 1.000000000000000000, 0.000000000000000000, -0.000000000000000000 ) ) ;
#245 = PRODUCT_DEFINITION_FORMATION_WITH_SPECIFIED_SOURCE ( 'LIBOVOLNÝ', '', #93, .NOT_KNOWN. ) ;
#246 = APPROVAL_DATE_TIME ( #148, #208 ) ;
#247 = ADVANCED_FACE ( 'NONE', ( #258 ), #155, .T. ) ;
#248 = DIRECTION ( 'NONE',  ( -0.000000000000000000, -0.000000000000000000, -1.000000000000000000 ) ) ;
#249 = DIRECTION ( 'NONE',  ( 1.000000000000000000, 0.000000000000000000, 0.000000000000000000 ) ) ;
#250 = CIRCLE ( 'NONE', #138, 5.000000000000000000 ) ;
#251 = LINE ( 'NONE', #33, #17 ) ;
#252 = COORDINATED_UNIVERSAL_TIME_OFFSET ( 1, 0, .AHEAD. ) ;
#253 = AXIS2_PLACEMENT_3D ( 'NONE', #236, #274, #86 ) ;
#254 = CC_DESIGN_APPROVAL ( #95, ( #245 ) ) ;
#255 = PRODUCT_DEFINITION ( 'NEZNÁMÝ', '', #245, #31 ) ;
#256 = LINE ( 'NONE', #62, #144 ) ;
#257 = EDGE_LOOP ( 'NONE', ( #163, #188 ) ) ;
#258 = FACE_OUTER_BOUND ( 'NONE', #306, .T. ) ;
#259 = DIRECTION ( 'NONE',  ( -1.000000000000000000, 0.000000000000000000, 0.000000000000000000 ) ) ;
#260 = AXIS2_PLACEMENT_3D ( 'NONE', #220, #292, #140 ) ;
#261 = DATE_AND_TIME ( #211, #114 ) ;
#262 = EDGE_CURVE ( 'NONE', #210, #94, #125, .T. ) ;
#263 = PERSON_AND_ORGANIZATION ( #157, #90 ) ;
#264 = AXIS2_PLACEMENT_3D ( 'NONE', #73, #118, #103 ) ;
#265 = CARTESIAN_POINT ( 'NONE',  ( -5.000000000000000000, 0.000000000000000000, 3.000000000000000000 ) ) ;
#266 = DATE_TIME_ROLE ( 'creation_date' ) ;
#267 = CC_DESIGN_SECURITY_CLASSIFICATION ( #35, ( #245 ) ) ;
#268 = ORIENTED_EDGE ( 'NONE', *, *, #200, .F. ) ;
#269 = PERSON_AND_ORGANIZATION ( #157, #90 ) ;
#270 = CARTESIAN_POINT ( 'NONE',  ( 0.000000000000000000, 0.000000000000000000, 0.000000000000000000 ) ) ;
#271 = CARTESIAN_POINT ( 'NONE',  ( 2.750000000000000000, 3.367778697655221012E-16, 318.0000000000000000 ) ) ;
#272 = CARTESIAN_POINT ( 'NONE',  ( 0.000000000000000000, 0.000000000000000000, 318.0000000000000000 ) ) ;
#273 = APPROVAL_ROLE ( '' ) ;
#274 = DIRECTION ( 'NONE',  ( 0.000000000000000000, 0.000000000000000000, 1.000000000000000000 ) ) ;
#275 = DIRECTION ( 'NONE',  ( 1.000000000000000000, 0.000000000000000000, 0.000000000000000000 ) ) ;
#276 = AXIS2_PLACEMENT_3D ( 'NONE', #201, #199, #41 ) ;
#277 = DIRECTION ( 'NONE',  ( 1.000000000000000000, 0.000000000000000000, 0.000000000000000000 ) ) ;
#278 = EDGE_LOOP ( 'NONE', ( #88, #3 ) ) ;
#279 = LOCAL_TIME ( 11, 59, 22.00000000000000000, #45 ) ;
#280 = CARTESIAN_POINT ( 'NONE',  ( 2.750000000000000000, 3.367778697655221012E-16, 3.199999999999980638 ) ) ;
#281 = VERTEX_POINT ( 'NONE', #230 ) ;
#282 = DIRECTION ( 'NONE',  ( 0.000000000000000000, 0.000000000000000000, -1.000000000000000000 ) ) ;
#283 = APPLICATION_PROTOCOL_DEFINITION ( 'international standard', 'config_control_design', 1994, #288 ) ;
#284 = EDGE_CURVE ( 'NONE', #192, #154, #301, .T. ) ;
#285 = TOROIDAL_SURFACE ( 'NONE', #253, 2.949999999999999734, 0.2000000000000000111 ) ;
#286 = DATE_AND_TIME ( #43, #32 ) ;
#287 = PERSON_AND_ORGANIZATION ( #157, #90 ) ;
#288 = APPLICATION_CONTEXT ( 'configuration controlled 3d designs of mechanical parts and assemblies' ) ;
#289 = VERTEX_POINT ( 'NONE', #135 ) ;
#290 = DIRECTION ( 'NONE',  ( -0.000000000000000000, -0.000000000000000000, -1.000000000000000000 ) ) ;
#291 = CARTESIAN_POINT ( 'NONE',  ( 0.000000000000000000, 0.000000000000000000, 3.000000000000000000 ) ) ;
#292 = DIRECTION ( 'NONE',  ( 0.000000000000000000, 0.000000000000000000, 1.000000000000000000 ) ) ;
#293 = AXIS2_PLACEMENT_3D ( 'NONE', #26, #120, #221 ) ;
#294 = PERSON_AND_ORGANIZATION ( #157, #90 ) ;
#295 = AXIS2_PLACEMENT_3D ( 'NONE', #130, #105, #13 ) ;
#296 = DIRECTION ( 'NONE',  ( 1.000000000000000000, 0.000000000000000000, 0.000000000000000000 ) ) ;
#297 = CARTESIAN_POINT ( 'NONE',  ( 5.000000000000000000, 6.123233995736766282E-16, 0.000000000000000000 ) ) ;
#298 = CARTESIAN_POINT ( 'NONE',  ( 0.000000000000000000, 0.000000000000000000, 3.199999999999980638 ) ) ;
#299 = ADVANCED_BREP_SHAPE_REPRESENTATION ( '195e', ( #21, #51 ), #25 ) ;
#300 = AXIS2_PLACEMENT_3D ( 'NONE', #171, #170, #1 ) ;
#301 = CIRCLE ( 'NONE', #2, 2.750000000000000000 ) ;
#302 = DIRECTION ( 'NONE',  ( 1.000000000000000000, 0.000000000000000000, 0.000000000000000000 ) ) ;
#303 = ADVANCED_FACE ( 'NONE', ( #237 ), #15, .T. ) ;
#304 = MECHANICAL_CONTEXT ( 'NONE', #132, 'mechanical' ) ;
#305 = CIRCLE ( 'NONE', #235, 2.949999999999999734 ) ;
#306 = EDGE_LOOP ( 'NONE', ( #76, #65, #68, #179 ) ) ;
#307 = CALENDAR_DATE ( 2022, 20, 6 ) ;
ENDSEC;
END-ISO-10303-21;
