ISO-10303-21;
HEADER;
FILE_DESCRIPTION (( 'STEP AP203' ),
    '1' );
FILE_NAME ('c9f3.STEP',
    '2022-06-20T10:22:35',
    ( '' ),
    ( '' ),
    'SwSTEP 2.0',
    'SolidWorks 2019',
    '' );
FILE_SCHEMA (( 'CONFIG_CONTROL_DESIGN' ));
ENDSEC;

DATA;
#1 = APPROVAL_STATUS ( 'not_yet_approved' ) ;
#2 = ORIENTED_EDGE ( 'NONE', *, *, #146, .F. ) ;
#3 = MECHANICAL_CONTEXT ( 'NONE', #140, 'mechanical' ) ;
#4 = VERTEX_POINT ( 'NONE', #234 ) ;
#5 = DATE_AND_TIME ( #143, #211 ) ;
#6 = EDGE_LOOP ( 'NONE', ( #249, #28 ) ) ;
#7 = APPROVAL_ROLE ( '' ) ;
#8 = DIRECTION ( 'NONE',  ( 0.000000000000000000, 0.000000000000000000, -1.000000000000000000 ) ) ;
#9 = PRODUCT_DEFINITION ( 'NEZNÁMÝ', '', #93, #174 ) ;
#10 = DIRECTION ( 'NONE',  ( 0.000000000000000000, 0.000000000000000000, 1.000000000000000000 ) ) ;
#11 = DIRECTION ( 'NONE',  ( 1.000000000000000000, 0.000000000000000000, -0.000000000000000000 ) ) ;
#12 = VERTEX_POINT ( 'NONE', #154 ) ;
#13 = CC_DESIGN_PERSON_AND_ORGANIZATION_ASSIGNMENT ( #250, #191, ( #93 ) ) ;
#14 = CIRCLE ( 'NONE', #52, 0.2000000000000000944 ) ;
#15 = DIRECTION ( 'NONE',  ( -0.000000000000000000, -0.000000000000000000, -1.000000000000000000 ) ) ;
#16 = VECTOR ( 'NONE', #214, 1000.000000000000000 ) ;
#17 = CARTESIAN_POINT ( 'NONE',  ( 0.000000000000000000, 0.000000000000000000, 1.500000000000000000 ) ) ;
#18 = CARTESIAN_POINT ( 'NONE',  ( 1.500000000000000222, 1.836970198721030181E-16, 1.500000000000000000 ) ) ;
#19 = CARTESIAN_POINT ( 'NONE',  ( -1.500000000000000222, 0.000000000000000000, 1.500000000000000000 ) ) ;
#20 = LOCAL_TIME ( 12, 22, 35.00000000000000000, #195 ) ;
#21 = CC_DESIGN_APPROVAL ( #116, ( #108 ) ) ;
#22 = CARTESIAN_POINT ( 'NONE',  ( 0.000000000000000000, 0.000000000000000000, 0.000000000000000000 ) ) ;
#23 = EDGE_CURVE ( 'NONE', #29, #192, #194, .T. ) ;
#24 = PERSON_AND_ORGANIZATION_ROLE ( 'classification_officer' ) ;
#25 = PERSON_AND_ORGANIZATION ( #126, #26 ) ;
#26 = ORGANIZATION ( 'NEURÈENÝ', 'NEURÈENÝ', '' ) ;
#27 = PERSON_AND_ORGANIZATION_ROLE ( 'design_owner' ) ;
#28 = ORIENTED_EDGE ( 'NONE', *, *, #259, .F. ) ;
#29 = VERTEX_POINT ( 'NONE', #277 ) ;
#30 = PERSON_AND_ORGANIZATION ( #126, #26 ) ;
#31 = EDGE_LOOP ( 'NONE', ( #151, #221, #82, #200 ) ) ;
#32 = CARTESIAN_POINT ( 'NONE',  ( 0.000000000000000000, 0.000000000000000000, 161.5000000000000000 ) ) ;
#33 = ADVANCED_FACE ( 'NONE', ( #207 ), #299, .T. ) ;
#34 = CC_DESIGN_APPROVAL ( #150, ( #93 ) ) ;
#35 = APPROVAL_DATE_TIME ( #289, #116 ) ;
#36 = CARTESIAN_POINT ( 'NONE',  ( 0.000000000000000000, 0.000000000000000000, 161.5000000000000000 ) ) ;
#37 = DIRECTION ( 'NONE',  ( 1.000000000000000000, 0.000000000000000000, 0.000000000000000000 ) ) ;
#38 = DIRECTION ( 'NONE',  ( 0.000000000000000000, -1.000000000000000000, 0.000000000000000000 ) ) ;
#39 = AXIS2_PLACEMENT_3D ( 'NONE', #152, #208, #180 ) ;
#40 = DIRECTION ( 'NONE',  ( 1.000000000000000000, 0.000000000000000000, 0.000000000000000000 ) ) ;
#41 = PLANE ( 'NONE',  #253 ) ;
#42 = DIRECTION ( 'NONE',  ( -0.000000000000000000, -0.000000000000000000, -1.000000000000000000 ) ) ;
#43 = CIRCLE ( 'NONE', #118, 1.000000000000000000 ) ;
#44 = CARTESIAN_POINT ( 'NONE',  ( 0.000000000000000000, 0.000000000000000000, 1.500000000000000000 ) ) ;
#45 = DIRECTION ( 'NONE',  ( 1.000000000000000000, 0.000000000000000000, 0.000000000000000000 ) ) ;
#46 = CIRCLE ( 'NONE', #298, 0.8000000000000000444 ) ;
#47 = DIRECTION ( 'NONE',  ( -0.000000000000000000, -0.000000000000000000, -1.000000000000000000 ) ) ;
#48 = CC_DESIGN_APPROVAL ( #167, ( #9 ) ) ;
#49 = APPLICATION_PROTOCOL_DEFINITION ( 'international standard', 'config_control_design', 1994, #88 ) ;
#50 = CALENDAR_DATE ( 2022, 20, 6 ) ;
#51 = AXIS2_PLACEMENT_3D ( 'NONE', #256, #83, #210 ) ;
#52 = AXIS2_PLACEMENT_3D ( 'NONE', #254, #110, #59 ) ;
#53 = ORIENTED_EDGE ( 'NONE', *, *, #102, .F. ) ;
#54 = DATE_AND_TIME ( #50, #222 ) ;
#55 = EDGE_CURVE ( 'NONE', #12, #4, #232, .T. ) ;
#56 = EDGE_LOOP ( 'NONE', ( #97, #196, #233, #53 ) ) ;
#57 = CIRCLE ( 'NONE', #275, 1.500000000000000222 ) ;
#58 = FACE_OUTER_BOUND ( 'NONE', #103, .T. ) ;
#59 = DIRECTION ( 'NONE',  ( -1.000000000000000000, 1.224646799147351975E-16, 0.000000000000000000 ) ) ;
#60 = CARTESIAN_POINT ( 'NONE',  ( 1.500000000000000222, 1.836970198721030181E-16, 0.000000000000000000 ) ) ;
#61 = CIRCLE ( 'NONE', #209, 0.8000000000000000444 ) ;
#62 = CC_DESIGN_PERSON_AND_ORGANIZATION_ASSIGNMENT ( #128, #24, ( #108 ) ) ;
#63 = DIRECTION ( 'NONE',  ( 0.000000000000000000, 0.000000000000000000, 1.000000000000000000 ) ) ;
#64 = DIRECTION ( 'NONE',  ( -1.000000000000000000, 0.000000000000000000, 0.000000000000000000 ) ) ;
#65 = DIRECTION ( 'NONE',  ( -0.000000000000000000, -0.000000000000000000, -1.000000000000000000 ) ) ;
#66 = CARTESIAN_POINT ( 'NONE',  ( 0.000000000000000000, 0.000000000000000000, 1.500000000000000000 ) ) ;
#67 = ADVANCED_FACE ( 'NONE', ( #276 ), #85, .T. ) ;
#68 = CARTESIAN_POINT ( 'NONE',  ( 0.000000000000000000, 0.000000000000000000, 1.500000000000000000 ) ) ;
#69 = AXIS2_PLACEMENT_3D ( 'NONE', #94, #42, #215 ) ;
#70 = APPROVAL_PERSON_ORGANIZATION ( #288, #116, #122 ) ;
#71 = DIRECTION ( 'NONE',  ( 1.000000000000000000, 0.000000000000000000, 0.000000000000000000 ) ) ;
#72 = ORIENTED_EDGE ( 'NONE', *, *, #55, .F. ) ;
#73 = CALENDAR_DATE ( 2022, 20, 6 ) ;
#74 = ORIENTED_EDGE ( 'NONE', *, *, #121, .F. ) ;
#75 = AXIS2_PLACEMENT_3D ( 'NONE', #36, #257, #11 ) ;
#76 =( NAMED_UNIT ( * ) SI_UNIT ( $, .STERADIAN. ) SOLID_ANGLE_UNIT ( ) );
#77 = AXIS2_PLACEMENT_3D ( 'NONE', #136, #15, #64 ) ;
#78 = PERSON_AND_ORGANIZATION_ROLE ( 'creator' ) ;
#79 = EDGE_LOOP ( 'NONE', ( #273, #225 ) ) ;
#80 = ORIENTED_EDGE ( 'NONE', *, *, #139, .T. ) ;
#81 = ADVANCED_FACE ( 'NONE', ( #58 ), #163, .F. ) ;
#82 = ORIENTED_EDGE ( 'NONE', *, *, #259, .T. ) ;
#83 = DIRECTION ( 'NONE',  ( 0.000000000000000000, 0.000000000000000000, 1.000000000000000000 ) ) ;
#84 = CARTESIAN_POINT ( 'NONE',  ( 0.000000000000000000, 0.000000000000000000, 1.500000000000000000 ) ) ;
#85 = CYLINDRICAL_SURFACE ( 'NONE', #303, 1.500000000000000222 ) ;
#86 = EDGE_CURVE ( 'NONE', #255, #244, #46, .T. ) ;
#87 =( LENGTH_UNIT ( ) NAMED_UNIT ( * ) SI_UNIT ( .MILLI., .METRE. ) );
#88 = APPLICATION_CONTEXT ( 'configuration controlled 3d designs of mechanical parts and assemblies' ) ;
#89 = MANIFOLD_SOLID_BREP ( 'Zaoblit1', #201 ) ;
#90 =( NAMED_UNIT ( * ) PLANE_ANGLE_UNIT ( ) SI_UNIT ( $, .RADIAN. ) );
#91 = AXIS2_PLACEMENT_3D ( 'NONE', #84, #181, #40 ) ;
#92 = DIRECTION ( 'NONE',  ( -0.000000000000000000, -0.000000000000000000, -1.000000000000000000 ) ) ;
#93 = PRODUCT_DEFINITION_FORMATION_WITH_SPECIFIED_SOURCE ( 'LIBOVOLNÝ', '', #258, .NOT_KNOWN. ) ;
#94 = CARTESIAN_POINT ( 'NONE',  ( 0.000000000000000000, 0.000000000000000000, 161.5000000000000000 ) ) ;
#95 = CYLINDRICAL_SURFACE ( 'NONE', #69, 0.8000000000000000444 ) ;
#96 = APPROVAL_ROLE ( '' ) ;
#97 = ORIENTED_EDGE ( 'NONE', *, *, #139, .F. ) ;
#98 = CC_DESIGN_PERSON_AND_ORGANIZATION_ASSIGNMENT ( #30, #243, ( #93 ) ) ;
#99 = ORIENTED_EDGE ( 'NONE', *, *, #216, .F. ) ;
#100 = APPLICATION_PROTOCOL_DEFINITION ( 'international standard', 'config_control_design', 1994, #140 ) ;
#101 = APPROVAL_DATE_TIME ( #218, #167 ) ;
#102 = EDGE_CURVE ( 'NONE', #29, #266, #235, .T. ) ;
#103 = EDGE_LOOP ( 'NONE', ( #2, #290, #269, #111 ) ) ;
#104 = CARTESIAN_POINT ( 'NONE',  ( 0.000000000000000000, 0.000000000000000000, 161.5000000000000000 ) ) ;
#105 = VERTEX_POINT ( 'NONE', #60 ) ;
#106 = UNCERTAINTY_MEASURE_WITH_UNIT (LENGTH_MEASURE( 1.000000000000000082E-05 ), #87, 'distance_accuracy_value', 'NONE');
#107 = AXIS2_PLACEMENT_3D ( 'NONE', #44, #262, #137 ) ;
#108 = SECURITY_CLASSIFICATION ( '', '', #189 ) ;
#109 = FACE_OUTER_BOUND ( 'NONE', #31, .T. ) ;
#110 = DIRECTION ( 'NONE',  ( 1.224646799147353207E-16, 1.000000000000000000, -0.000000000000000000 ) ) ;
#111 = ORIENTED_EDGE ( 'NONE', *, *, #228, .F. ) ;
#112 = CARTESIAN_POINT ( 'NONE',  ( -0.8000000000000000444, 0.000000000000000000, 161.5000000000000000 ) ) ;
#113 = VECTOR ( 'NONE', #92, 1000.000000000000000 ) ;
#114 = APPROVAL_PERSON_ORGANIZATION ( #248, #150, #7 ) ;
#115 = CARTESIAN_POINT ( 'NONE',  ( 0.000000000000000000, 0.000000000000000000, 1.500000000000000000 ) ) ;
#116 = APPROVAL ( #169, 'NEURÈENÝ' ) ;
#117 = DIRECTION ( 'NONE',  ( -1.000000000000000000, 0.000000000000000000, 0.000000000000000000 ) ) ;
#118 = AXIS2_PLACEMENT_3D ( 'NONE', #66, #47, #236 ) ;
#119 = CYLINDRICAL_SURFACE ( 'NONE', #77, 0.8000000000000000444 ) ;
#120 = CALENDAR_DATE ( 2022, 20, 6 ) ;
#121 = EDGE_CURVE ( 'NONE', #244, #255, #226, .T. ) ;
#122 = APPROVAL_ROLE ( '' ) ;
#123 = VERTEX_POINT ( 'NONE', #274 ) ;
#124 = DATE_TIME_ROLE ( 'creation_date' ) ;
#125 = EDGE_LOOP ( 'NONE', ( #297, #251 ) ) ;
#126 = PERSON ( 'NEURÈENÝ', 'NEURÈENÝ', 'NEURÈENÝ', ('NEURÈENÝ'), ('NEURÈENÝ'), ('NEURÈENÝ') ) ;
#127 = ORIENTED_EDGE ( 'NONE', *, *, #216, .T. ) ;
#128 = PERSON_AND_ORGANIZATION ( #126, #26 ) ;
#129 = DIRECTION ( 'NONE',  ( 1.000000000000000000, 0.000000000000000000, 0.000000000000000000 ) ) ;
#130 = SHAPE_DEFINITION_REPRESENTATION ( #280, #267 ) ;
#131 = EDGE_LOOP ( 'NONE', ( #190, #247 ) ) ;
#132 = FACE_OUTER_BOUND ( 'NONE', #56, .T. ) ;
#133 = TOROIDAL_SURFACE ( 'NONE', #39, 1.000000000000000000, 0.2000000000000000111 ) ;
#134 = DIRECTION ( 'NONE',  ( 0.000000000000000000, 0.000000000000000000, 1.000000000000000000 ) ) ;
#135 = VERTEX_POINT ( 'NONE', #149 ) ;
#136 = CARTESIAN_POINT ( 'NONE',  ( 0.000000000000000000, 0.000000000000000000, 161.5000000000000000 ) ) ;
#137 = DIRECTION ( 'NONE',  ( 1.000000000000000000, 0.000000000000000000, 0.000000000000000000 ) ) ;
#138 = AXIS2_PLACEMENT_3D ( 'NONE', #68, #263, #142 ) ;
#139 = EDGE_CURVE ( 'NONE', #192, #29, #61, .T. ) ;
#140 = APPLICATION_CONTEXT ( 'configuration controlled 3d designs of mechanical parts and assemblies' ) ;
#141 = LINE ( 'NONE', #304, #16 ) ;
#142 = DIRECTION ( 'NONE',  ( 1.000000000000000000, 0.000000000000000000, -0.000000000000000000 ) ) ;
#143 = CALENDAR_DATE ( 2022, 20, 6 ) ;
#144 = APPROVAL_STATUS ( 'not_yet_approved' ) ;
#145 = EDGE_LOOP ( 'NONE', ( #165, #72, #219, #198 ) ) ;
#146 = EDGE_CURVE ( 'NONE', #192, #135, #14, .T. ) ;
#147 = PERSON_AND_ORGANIZATION ( #126, #26 ) ;
#148 = APPROVAL_DATE_TIME ( #54, #150 ) ;
#149 = CARTESIAN_POINT ( 'NONE',  ( -1.000000000000000000, 1.224646799147353207E-16, 1.500000000000003553 ) ) ;
#150 = APPROVAL ( #1, 'NEURÈENÝ' ) ;
#151 = ORIENTED_EDGE ( 'NONE', *, *, #237, .F. ) ;
#152 = CARTESIAN_POINT ( 'NONE',  ( 0.000000000000000000, 0.000000000000000000, 1.700000000000007061 ) ) ;
#153 = CC_DESIGN_PERSON_AND_ORGANIZATION_ASSIGNMENT ( #25, #27, ( #258 ) ) ;
#154 = CARTESIAN_POINT ( 'NONE',  ( -1.500000000000000222, 0.000000000000000000, 1.500000000000000000 ) ) ;
#155 = PRODUCT_RELATED_PRODUCT_CATEGORY ( 'detail', '', ( #258 ) ) ;
#156 = CARTESIAN_POINT ( 'NONE',  ( 0.8000000000000000444, 9.797174393178826150E-17, 161.5000000000000000 ) ) ;
#157 = CARTESIAN_POINT ( 'NONE',  ( -0.8000000000000000444, 0.000000000000000000, 1.700000000000007061 ) ) ;
#158 = CARTESIAN_POINT ( 'NONE',  ( 0.8000000000000000444, 9.797174393178826150E-17, 161.5000000000000000 ) ) ;
#159 = AXIS2_PLACEMENT_3D ( 'NONE', #172, #224, #71 ) ;
#160 = ADVANCED_FACE ( 'NONE', ( #132 ), #133, .F. ) ;
#161 = DIRECTION ( 'NONE',  ( 1.000000000000000000, 0.000000000000000000, -0.000000000000000000 ) ) ;
#162 = DIRECTION ( 'NONE',  ( -0.000000000000000000, -0.000000000000000000, -1.000000000000000000 ) ) ;
#163 = TOROIDAL_SURFACE ( 'NONE', #179, 1.000000000000000000, 0.2000000000000000111 ) ;
#164 = ADVANCED_FACE ( 'NONE', ( #109 ), #185, .T. ) ;
#165 = ORIENTED_EDGE ( 'NONE', *, *, #187, .F. ) ;
#166 = ORIENTED_EDGE ( 'NONE', *, *, #206, .T. ) ;
#167 = APPROVAL ( #144, 'NEURÈENÝ' ) ;
#168 = AXIS2_PLACEMENT_3D ( 'NONE', #293, #38, #8 ) ;
#169 = APPROVAL_STATUS ( 'not_yet_approved' ) ;
#170 = CC_DESIGN_DATE_AND_TIME_ASSIGNMENT ( #193, #291, ( #108 ) ) ;
#171 = AXIS2_PLACEMENT_3D ( 'NONE', #17, #162, #183 ) ;
#172 = CARTESIAN_POINT ( 'NONE',  ( 0.000000000000000000, 0.000000000000000000, 0.000000000000000000 ) ) ;
#173 = EDGE_LOOP ( 'NONE', ( #278, #127, #227, #272 ) ) ;
#174 = DESIGN_CONTEXT ( 'detailed design', #88, 'design' ) ;
#175 = EDGE_CURVE ( 'NONE', #266, #135, #300, .T. ) ;
#176 = DIRECTION ( 'NONE',  ( 1.000000000000000000, 0.000000000000000000, 0.000000000000000000 ) ) ;
#177 = DIRECTION ( 'NONE',  ( -0.000000000000000000, -0.000000000000000000, -1.000000000000000000 ) ) ;
#178 = CARTESIAN_POINT ( 'NONE',  ( 0.000000000000000000, 0.000000000000000000, 1.700000000000007061 ) ) ;
#179 = AXIS2_PLACEMENT_3D ( 'NONE', #252, #229, #230 ) ;
#180 = DIRECTION ( 'NONE',  ( 1.000000000000000000, 0.000000000000000000, 0.000000000000000000 ) ) ;
#181 = DIRECTION ( 'NONE',  ( 0.000000000000000000, 0.000000000000000000, 1.000000000000000000 ) ) ;
#182 = ADVANCED_FACE ( 'NONE', ( #240 ), #119, .T. ) ;
#183 = DIRECTION ( 'NONE',  ( 1.000000000000000000, 0.000000000000000000, 0.000000000000000000 ) ) ;
#184 = CIRCLE ( 'NONE', #197, 1.500000000000000222 ) ;
#185 = CYLINDRICAL_SURFACE ( 'NONE', #204, 1.500000000000000222 ) ;
#186 = LINE ( 'NONE', #19, #238 ) ;
#187 = EDGE_CURVE ( 'NONE', #4, #105, #282, .T. ) ;
#188 = DIRECTION ( 'NONE',  ( 0.000000000000000000, 0.000000000000000000, 1.000000000000000000 ) ) ;
#189 = SECURITY_CLASSIFICATION_LEVEL ( 'unclassified' ) ;
#190 = ORIENTED_EDGE ( 'NONE', *, *, #55, .T. ) ;
#191 = PERSON_AND_ORGANIZATION_ROLE ( 'design_supplier' ) ;
#192 = VERTEX_POINT ( 'NONE', #157 ) ;
#193 = DATE_AND_TIME ( #120, #270 ) ;
#194 = CIRCLE ( 'NONE', #51, 0.8000000000000000444 ) ;
#195 = COORDINATED_UNIVERSAL_TIME_OFFSET ( 1, 0, .AHEAD. ) ;
#196 = ORIENTED_EDGE ( 'NONE', *, *, #146, .T. ) ;
#197 = AXIS2_PLACEMENT_3D ( 'NONE', #22, #217, #45 ) ;
#198 = ORIENTED_EDGE ( 'NONE', *, *, #245, .T. ) ;
#199 = ADVANCED_FACE ( 'NONE', ( #284 ), #95, .T. ) ;
#200 = ORIENTED_EDGE ( 'NONE', *, *, #283, .F. ) ;
#201 = CLOSED_SHELL ( 'NONE', ( #160, #199, #164, #67, #286, #231, #182, #33, #81 ) ) ;
#202 = CARTESIAN_POINT ( 'NONE',  ( 0.000000000000000000, 0.000000000000000000, 1.500000000000000000 ) ) ;
#203 = APPROVAL_PERSON_ORGANIZATION ( #147, #167, #96 ) ;
#204 = AXIS2_PLACEMENT_3D ( 'NONE', #115, #65, #117 ) ;
#205 = CC_DESIGN_SECURITY_CLASSIFICATION ( #108, ( #93 ) ) ;
#206 = EDGE_CURVE ( 'NONE', #244, #192, #141, .T. ) ;
#207 = FACE_OUTER_BOUND ( 'NONE', #79, .T. ) ;
#208 = DIRECTION ( 'NONE',  ( 0.000000000000000000, 0.000000000000000000, 1.000000000000000000 ) ) ;
#209 = AXIS2_PLACEMENT_3D ( 'NONE', #178, #134, #37 ) ;
#210 = DIRECTION ( 'NONE',  ( 1.000000000000000000, 0.000000000000000000, 0.000000000000000000 ) ) ;
#211 = LOCAL_TIME ( 12, 22, 35.00000000000000000, #246 ) ;
#212 = CARTESIAN_POINT ( 'NONE',  ( 0.000000000000000000, 0.000000000000000000, 0.000000000000000000 ) ) ;
#213 = CC_DESIGN_DATE_AND_TIME_ASSIGNMENT ( #5, #124, ( #9 ) ) ;
#214 = DIRECTION ( 'NONE',  ( -0.000000000000000000, -0.000000000000000000, -1.000000000000000000 ) ) ;
#215 = DIRECTION ( 'NONE',  ( -1.000000000000000000, 0.000000000000000000, 0.000000000000000000 ) ) ;
#216 = EDGE_CURVE ( 'NONE', #255, #29, #302, .T. ) ;
#217 = DIRECTION ( 'NONE',  ( 0.000000000000000000, 0.000000000000000000, 1.000000000000000000 ) ) ;
#218 = DATE_AND_TIME ( #73, #20 ) ;
#219 = ORIENTED_EDGE ( 'NONE', *, *, #283, .T. ) ;
#220 = COORDINATED_UNIVERSAL_TIME_OFFSET ( 1, 0, .AHEAD. ) ;
#221 = ORIENTED_EDGE ( 'NONE', *, *, #187, .T. ) ;
#222 = LOCAL_TIME ( 12, 22, 35.00000000000000000, #271 ) ;
#223 = COORDINATED_UNIVERSAL_TIME_OFFSET ( 1, 0, .AHEAD. ) ;
#224 = DIRECTION ( 'NONE',  ( 0.000000000000000000, 0.000000000000000000, 1.000000000000000000 ) ) ;
#225 = ORIENTED_EDGE ( 'NONE', *, *, #86, .T. ) ;
#226 = CIRCLE ( 'NONE', #264, 0.8000000000000000444 ) ;
#227 = ORIENTED_EDGE ( 'NONE', *, *, #23, .T. ) ;
#228 = EDGE_CURVE ( 'NONE', #135, #266, #43, .T. ) ;
#229 = DIRECTION ( 'NONE',  ( 0.000000000000000000, 0.000000000000000000, 1.000000000000000000 ) ) ;
#230 = DIRECTION ( 'NONE',  ( 1.000000000000000000, 0.000000000000000000, 0.000000000000000000 ) ) ;
#231 = ADVANCED_FACE ( 'NONE', ( #281 ), #41, .F. ) ;
#232 = CIRCLE ( 'NONE', #91, 1.500000000000000222 ) ;
#233 = ORIENTED_EDGE ( 'NONE', *, *, #175, .F. ) ;
#234 = CARTESIAN_POINT ( 'NONE',  ( 1.500000000000000222, 1.836970198721030181E-16, 1.500000000000000000 ) ) ;
#235 = CIRCLE ( 'NONE', #168, 0.2000000000000000944 ) ;
#236 = DIRECTION ( 'NONE',  ( 1.000000000000000000, 0.000000000000000000, 0.000000000000000000 ) ) ;
#237 = EDGE_CURVE ( 'NONE', #4, #12, #287, .T. ) ;
#238 = VECTOR ( 'NONE', #301, 1000.000000000000000 ) ;
#239 = DIRECTION ( 'NONE',  ( 1.000000000000000000, 0.000000000000000000, 0.000000000000000000 ) ) ;
#240 = FACE_OUTER_BOUND ( 'NONE', #296, .T. ) ;
#241 = CARTESIAN_POINT ( 'NONE',  ( 1.000000000000000000, 0.000000000000000000, 1.500000000000003553 ) ) ;
#242 = LOCAL_TIME ( 12, 22, 35.00000000000000000, #220 ) ;
#243 = PERSON_AND_ORGANIZATION_ROLE ( 'creator' ) ;
#244 = VERTEX_POINT ( 'NONE', #112 ) ;
#245 = EDGE_CURVE ( 'NONE', #123, #105, #57, .T. ) ;
#246 = COORDINATED_UNIVERSAL_TIME_OFFSET ( 1, 0, .AHEAD. ) ;
#247 = ORIENTED_EDGE ( 'NONE', *, *, #237, .T. ) ;
#248 = PERSON_AND_ORGANIZATION ( #126, #26 ) ;
#249 = ORIENTED_EDGE ( 'NONE', *, *, #245, .F. ) ;
#250 = PERSON_AND_ORGANIZATION ( #126, #26 ) ;
#251 = ORIENTED_EDGE ( 'NONE', *, *, #228, .T. ) ;
#252 = CARTESIAN_POINT ( 'NONE',  ( 0.000000000000000000, 0.000000000000000000, 1.700000000000007061 ) ) ;
#253 = AXIS2_PLACEMENT_3D ( 'NONE', #261, #188, #161 ) ;
#254 = CARTESIAN_POINT ( 'NONE',  ( -1.000000000000000000, 1.224646799147353207E-16, 1.700000000000007061 ) ) ;
#255 = VERTEX_POINT ( 'NONE', #156 ) ;
#256 = CARTESIAN_POINT ( 'NONE',  ( 0.000000000000000000, 0.000000000000000000, 1.700000000000007061 ) ) ;
#257 = DIRECTION ( 'NONE',  ( 0.000000000000000000, 0.000000000000000000, 1.000000000000000000 ) ) ;
#258 = PRODUCT ( 'c9f3', 'c9f3', '', ( #3 ) ) ;
#259 = EDGE_CURVE ( 'NONE', #105, #123, #184, .T. ) ;
#260 = DIRECTION ( 'NONE',  ( -0.000000000000000000, -0.000000000000000000, -1.000000000000000000 ) ) ;
#261 = CARTESIAN_POINT ( 'NONE',  ( 0.000000000000000000, 0.000000000000000000, 0.000000000000000000 ) ) ;
#262 = DIRECTION ( 'NONE',  ( 0.000000000000000000, 0.000000000000000000, 1.000000000000000000 ) ) ;
#263 = DIRECTION ( 'NONE',  ( 0.000000000000000000, 0.000000000000000000, 1.000000000000000000 ) ) ;
#264 = AXIS2_PLACEMENT_3D ( 'NONE', #104, #294, #176 ) ;
#265 = CC_DESIGN_PERSON_AND_ORGANIZATION_ASSIGNMENT ( #292, #78, ( #9 ) ) ;
#266 = VERTEX_POINT ( 'NONE', #241 ) ;
#267 = ADVANCED_BREP_SHAPE_REPRESENTATION ( 'c9f3', ( #89, #159 ), #295 ) ;
#268 = CALENDAR_DATE ( 2022, 20, 6 ) ;
#269 = ORIENTED_EDGE ( 'NONE', *, *, #102, .T. ) ;
#270 = LOCAL_TIME ( 12, 22, 35.00000000000000000, #223 ) ;
#271 = COORDINATED_UNIVERSAL_TIME_OFFSET ( 1, 0, .AHEAD. ) ;
#272 = ORIENTED_EDGE ( 'NONE', *, *, #206, .F. ) ;
#273 = ORIENTED_EDGE ( 'NONE', *, *, #121, .T. ) ;
#274 = CARTESIAN_POINT ( 'NONE',  ( -1.500000000000000222, 0.000000000000000000, 0.000000000000000000 ) ) ;
#275 = AXIS2_PLACEMENT_3D ( 'NONE', #212, #63, #239 ) ;
#276 = FACE_OUTER_BOUND ( 'NONE', #145, .T. ) ;
#277 = CARTESIAN_POINT ( 'NONE',  ( 0.8000000000000000444, 9.797174393178826150E-17, 1.700000000000007061 ) ) ;
#278 = ORIENTED_EDGE ( 'NONE', *, *, #86, .F. ) ;
#279 = DIRECTION ( 'NONE',  ( -1.000000000000000000, 0.000000000000000000, 0.000000000000000000 ) ) ;
#280 = PRODUCT_DEFINITION_SHAPE ( 'NONE', 'NONE',  #9 ) ;
#281 = FACE_OUTER_BOUND ( 'NONE', #6, .T. ) ;
#282 = LINE ( 'NONE', #18, #305 ) ;
#283 = EDGE_CURVE ( 'NONE', #12, #123, #186, .T. ) ;
#284 = FACE_OUTER_BOUND ( 'NONE', #173, .T. ) ;
#285 = PLANE ( 'NONE',  #138 ) ;
#286 = ADVANCED_FACE ( 'NONE', ( #306, #307 ), #285, .T. ) ;
#287 = CIRCLE ( 'NONE', #107, 1.500000000000000222 ) ;
#288 = PERSON_AND_ORGANIZATION ( #126, #26 ) ;
#289 = DATE_AND_TIME ( #268, #242 ) ;
#290 = ORIENTED_EDGE ( 'NONE', *, *, #23, .F. ) ;
#291 = DATE_TIME_ROLE ( 'classification_date' ) ;
#292 = PERSON_AND_ORGANIZATION ( #126, #26 ) ;
#293 = CARTESIAN_POINT ( 'NONE',  ( 1.000000000000000000, 0.000000000000000000, 1.700000000000007061 ) ) ;
#294 = DIRECTION ( 'NONE',  ( 0.000000000000000000, 0.000000000000000000, 1.000000000000000000 ) ) ;
#295 =( GEOMETRIC_REPRESENTATION_CONTEXT ( 3 ) GLOBAL_UNCERTAINTY_ASSIGNED_CONTEXT ( ( #106 ) ) GLOBAL_UNIT_ASSIGNED_CONTEXT ( ( #87, #90, #76 ) ) REPRESENTATION_CONTEXT ( 'NONE', 'WORKASPACE' ) );
#296 = EDGE_LOOP ( 'NONE', ( #99, #74, #166, #80 ) ) ;
#297 = ORIENTED_EDGE ( 'NONE', *, *, #175, .T. ) ;
#298 = AXIS2_PLACEMENT_3D ( 'NONE', #32, #10, #129 ) ;
#299 = PLANE ( 'NONE',  #75 ) ;
#300 = CIRCLE ( 'NONE', #171, 1.000000000000000000 ) ;
#301 = DIRECTION ( 'NONE',  ( -0.000000000000000000, -0.000000000000000000, -1.000000000000000000 ) ) ;
#302 = LINE ( 'NONE', #158, #113 ) ;
#303 = AXIS2_PLACEMENT_3D ( 'NONE', #202, #177, #279 ) ;
#304 = CARTESIAN_POINT ( 'NONE',  ( -0.8000000000000000444, 0.000000000000000000, 161.5000000000000000 ) ) ;
#305 = VECTOR ( 'NONE', #260, 1000.000000000000000 ) ;
#306 = FACE_BOUND ( 'NONE', #125, .T. ) ;
#307 = FACE_OUTER_BOUND ( 'NONE', #131, .T. ) ;
ENDSEC;
END-ISO-10303-21;
