ISO-10303-21;
HEADER;
FILE_DESCRIPTION (( 'STEP AP203' ),
    '1' );
FILE_NAME ('debb.STEP',
    '2024-01-02T22:03:03',
    ( '' ),
    ( '' ),
    'SwSTEP 2.0',
    'SolidWorks 2019',
    '' );
FILE_SCHEMA (( 'CONFIG_CONTROL_DESIGN' ));
ENDSEC;

DATA;
#1 = APPROVAL_DATE_TIME ( #29, #79 ) ;
#2 = ADVANCED_BREP_SHAPE_REPRESENTATION ( 'debb', ( #94, #17 ), #38 ) ;
#3 = AXIS2_PLACEMENT_3D ( 'NONE', #320, #56, #385 ) ;
#4 = ADVANCED_FACE ( 'NONE', ( #283, #252 ), #220, .T. ) ;
#5 = DIRECTION ( 'NONE',  ( -0.000000000000000000, -0.000000000000000000, 1.000000000000000000 ) ) ;
#6 = PERSON_AND_ORGANIZATION ( #83, #255 ) ;
#7 = ORIENTED_EDGE ( 'NONE', *, *, #229, .T. ) ;
#8 = CC_DESIGN_PERSON_AND_ORGANIZATION_ASSIGNMENT ( #129, #238, ( #54 ) ) ;
#9 = VERTEX_POINT ( 'NONE', #327 ) ;
#10 = DIRECTION ( 'NONE',  ( -0.000000000000000000, -0.000000000000000000, 1.000000000000000000 ) ) ;
#11 = ORIENTED_EDGE ( 'NONE', *, *, #23, .F. ) ;
#12 = DIRECTION ( 'NONE',  ( 1.000000000000000000, 0.000000000000000000, 0.000000000000000000 ) ) ;
#13 = ADVANCED_FACE ( 'NONE', ( #362 ), #265, .F. ) ;
#14 = CARTESIAN_POINT ( 'NONE',  ( -8.499999999999998224, 1.071565949253933927E-15, -5.500000000000000000 ) ) ;
#15 = CARTESIAN_POINT ( 'NONE',  ( 0.000000000000000000, 0.000000000000000000, -17.50000000000000000 ) ) ;
#16 = PRODUCT_RELATED_PRODUCT_CATEGORY ( 'detail', '', ( #107 ) ) ;
#17 = AXIS2_PLACEMENT_3D ( 'NONE', #254, #313, #317 ) ;
#18 = LINE ( 'NONE', #117, #39 ) ;
#19 = LINE ( 'NONE', #303, #299 ) ;
#20 = CARTESIAN_POINT ( 'NONE',  ( 0.000000000000000000, 0.000000000000000000, 0.000000000000000000 ) ) ;
#21 = CARTESIAN_POINT ( 'NONE',  ( 0.000000000000000000, 0.000000000000000000, -5.500000000000000000 ) ) ;
#22 = VERTEX_POINT ( 'NONE', #321 ) ;
#23 = EDGE_CURVE ( 'NONE', #389, #104, #69, .T. ) ;
#24 = EDGE_LOOP ( 'NONE', ( #325, #167, #197, #71 ) ) ;
#25 = AXIS2_PLACEMENT_3D ( 'NONE', #332, #113, #365 ) ;
#26 = ORIENTED_EDGE ( 'NONE', *, *, #108, .T. ) ;
#27 = APPROVAL_PERSON_ORGANIZATION ( #90, #99, #47 ) ;
#28 = ORIENTED_EDGE ( 'NONE', *, *, #67, .F. ) ;
#29 = DATE_AND_TIME ( #315, #309 ) ;
#30 = ORIENTED_EDGE ( 'NONE', *, *, #72, .F. ) ;
#31 = CONICAL_SURFACE ( 'NONE', #239, 10.50000000000000533, 0.7853981633974447263 ) ;
#32 = CIRCLE ( 'NONE', #124, 11.00000000000000000 ) ;
#33 = ORIENTED_EDGE ( 'NONE', *, *, #108, .F. ) ;
#34 = FACE_OUTER_BOUND ( 'NONE', #181, .T. ) ;
#35 = ADVANCED_FACE ( 'NONE', ( #49 ), #31, .T. ) ;
#36 = ORIENTED_EDGE ( 'NONE', *, *, #281, .T. ) ;
#37 = PERSON_AND_ORGANIZATION_ROLE ( 'design_supplier' ) ;
#38 =( GEOMETRIC_REPRESENTATION_CONTEXT ( 3 ) GLOBAL_UNCERTAINTY_ASSIGNED_CONTEXT ( ( #64 ) ) GLOBAL_UNIT_ASSIGNED_CONTEXT ( ( #161, #387, #63 ) ) REPRESENTATION_CONTEXT ( 'NONE', 'WORKASPACE' ) );
#39 = VECTOR ( 'NONE', #244, 1000.000000000000114 ) ;
#40 = ORIENTED_EDGE ( 'NONE', *, *, #281, .F. ) ;
#41 = DIRECTION ( 'NONE',  ( -0.000000000000000000, -0.000000000000000000, 1.000000000000000000 ) ) ;
#42 = CIRCLE ( 'NONE', #52, 11.00000000000000000 ) ;
#43 = AXIS2_PLACEMENT_3D ( 'NONE', #141, #46, #306 ) ;
#44 = DIRECTION ( 'NONE',  ( -0.000000000000000000, -0.000000000000000000, 1.000000000000000000 ) ) ;
#45 = CARTESIAN_POINT ( 'NONE',  ( 0.000000000000000000, 0.000000000000000000, -5.000000000000000000 ) ) ;
#46 = DIRECTION ( 'NONE',  ( 0.000000000000000000, -1.000000000000000000, 0.000000000000000000 ) ) ;
#47 = APPROVAL_ROLE ( '' ) ;
#48 = EDGE_CURVE ( 'NONE', #391, #164, #395, .T. ) ;
#49 = FACE_OUTER_BOUND ( 'NONE', #100, .T. ) ;
#50 = APPROVAL_DATE_TIME ( #179, #99 ) ;
#51 = DIRECTION ( 'NONE',  ( -1.000000000000000000, 0.000000000000000000, 0.000000000000000000 ) ) ;
#52 = AXIS2_PLACEMENT_3D ( 'NONE', #271, #342, #12 ) ;
#53 = FACE_OUTER_BOUND ( 'NONE', #24, .T. ) ;
#54 = PRODUCT_DEFINITION_FORMATION_WITH_SPECIFIED_SOURCE ( 'LIBOVOLNÝ', '', #107, .NOT_KNOWN. ) ;
#55 = DIRECTION ( 'NONE',  ( 1.000000000000000000, 0.000000000000000000, 0.000000000000000000 ) ) ;
#56 = DIRECTION ( 'NONE',  ( -0.000000000000000000, -0.000000000000000000, 1.000000000000000000 ) ) ;
#57 = CARTESIAN_POINT ( 'NONE',  ( -11.00000000000000000, 1.347111479062088405E-15, -5.000000000000000000 ) ) ;
#58 = ORIENTED_EDGE ( 'NONE', *, *, #237, .F. ) ;
#59 = DIRECTION ( 'NONE',  ( -1.000000000000000000, 0.000000000000000000, -0.000000000000000000 ) ) ;
#60 = CIRCLE ( 'NONE', #407, 8.499999999999998224 ) ;
#61 = CARTESIAN_POINT ( 'NONE',  ( 0.000000000000000000, 0.000000000000000000, -5.500000000000000000 ) ) ;
#62 = ORIENTED_EDGE ( 'NONE', *, *, #91, .F. ) ;
#63 =( NAMED_UNIT ( * ) SI_UNIT ( $, .STERADIAN. ) SOLID_ANGLE_UNIT ( ) );
#64 = UNCERTAINTY_MEASURE_WITH_UNIT (LENGTH_MEASURE( 1.000000000000000082E-05 ), #161, 'distance_accuracy_value', 'NONE');
#65 = MECHANICAL_CONTEXT ( 'NONE', #151, 'mechanical' ) ;
#66 = AXIS2_PLACEMENT_3D ( 'NONE', #122, #368, #51 ) ;
#67 = EDGE_CURVE ( 'NONE', #389, #213, #297, .T. ) ;
#68 = LINE ( 'NONE', #106, #292 ) ;
#69 = CIRCLE ( 'NONE', #135, 8.499999999999998224 ) ;
#70 = AXIS2_PLACEMENT_3D ( 'NONE', #250, #305, #125 ) ;
#71 = ORIENTED_EDGE ( 'NONE', *, *, #72, .T. ) ;
#72 = EDGE_CURVE ( 'NONE', #403, #164, #397, .T. ) ;
#73 = DIRECTION ( 'NONE',  ( -0.000000000000000000, -0.000000000000000000, 1.000000000000000000 ) ) ;
#74 = DIRECTION ( 'NONE',  ( -1.000000000000000000, 0.000000000000000000, 0.000000000000000000 ) ) ;
#75 = AXIS2_PLACEMENT_3D ( 'NONE', #150, #120, #268 ) ;
#76 = CARTESIAN_POINT ( 'NONE',  ( 9.000000000000000000, 1.102182119232617714E-15, -5.500000000000000000 ) ) ;
#77 = TOROIDAL_SURFACE ( 'NONE', #70, 9.000000000000000000, 0.5000000000000000000 ) ;
#78 = DIRECTION ( 'NONE',  ( -1.000000000000000000, 0.000000000000000000, 0.000000000000000000 ) ) ;
#79 = APPROVAL ( #95, 'NEURÈENÝ' ) ;
#80 = DIRECTION ( 'NONE',  ( 1.000000000000000000, 0.000000000000000000, 0.000000000000000000 ) ) ;
#81 = DIRECTION ( 'NONE',  ( 0.000000000000000000, -0.000000000000000000, 1.000000000000000000 ) ) ;
#82 = DATE_AND_TIME ( #147, #203 ) ;
#83 = PERSON ( 'NEURÈENÝ', 'NEURÈENÝ', 'NEURÈENÝ', ('NEURÈENÝ'), ('NEURÈENÝ'), ('NEURÈENÝ') ) ;
#84 = FACE_OUTER_BOUND ( 'NONE', #187, .T. ) ;
#85 = AXIS2_PLACEMENT_3D ( 'NONE', #230, #41, #289 ) ;
#86 = AXIS2_PLACEMENT_3D ( 'NONE', #373, #276, #176 ) ;
#87 = ORIENTED_EDGE ( 'NONE', *, *, #261, .F. ) ;
#88 = CIRCLE ( 'NONE', #318, 9.000000000000000000 ) ;
#89 = CARTESIAN_POINT ( 'NONE',  ( 11.00000000000000000, 0.000000000000000000, 0.000000000000000000 ) ) ;
#90 = PERSON_AND_ORGANIZATION ( #83, #255 ) ;
#91 = EDGE_CURVE ( 'NONE', #375, #403, #247, .T. ) ;
#92 = EDGE_LOOP ( 'NONE', ( #336, #300 ) ) ;
#93 = DIRECTION ( 'NONE',  ( -1.000000000000000000, 0.000000000000000000, 0.000000000000000000 ) ) ;
#94 = MANIFOLD_SOLID_BREP ( 'Zkosení1', #96 ) ;
#95 = APPROVAL_STATUS ( 'not_yet_approved' ) ;
#96 = CLOSED_SHELL ( 'NONE', ( #355, #153, #296, #402, #257, #364, #193, #208, #4, #341, #13, #408, #35 ) ) ;
#97 = AXIS2_PLACEMENT_3D ( 'NONE', #116, #81, #209 ) ;
#98 = SECURITY_CLASSIFICATION ( '', '', #170 ) ;
#99 = APPROVAL ( #272, 'NEURÈENÝ' ) ;
#100 = EDGE_LOOP ( 'NONE', ( #394, #158, #263, #30 ) ) ;
#101 = DATE_AND_TIME ( #103, #111 ) ;
#102 = EDGE_LOOP ( 'NONE', ( #11, #196, #357, #406 ) ) ;
#103 = CALENDAR_DATE ( 2024, 2, 1 ) ;
#104 = VERTEX_POINT ( 'NONE', #178 ) ;
#105 = ORIENTED_EDGE ( 'NONE', *, *, #225, .T. ) ;
#106 = CARTESIAN_POINT ( 'NONE',  ( -10.50000000000000533, 0.000000000000000000, 0.000000000000000000 ) ) ;
#107 = PRODUCT ( 'debb', 'debb', '', ( #65 ) ) ;
#108 = EDGE_CURVE ( 'NONE', #340, #22, #190, .T. ) ;
#109 = CYLINDRICAL_SURFACE ( 'NONE', #287, 11.00000000000000000 ) ;
#110 = AXIS2_PLACEMENT_3D ( 'NONE', #76, #361, #326 ) ;
#111 = LOCAL_TIME ( 23, 3, 3.000000000000000000, #384 ) ;
#112 = DIRECTION ( 'NONE',  ( -0.7071067811865451302, 0.000000000000000000, -0.7071067811865500152 ) ) ;
#113 = DIRECTION ( 'NONE',  ( 1.224646799147353207E-16, 1.000000000000000000, 0.000000000000000000 ) ) ;
#114 = EDGE_CURVE ( 'NONE', #9, #233, #169, .T. ) ;
#115 = CARTESIAN_POINT ( 'NONE',  ( 0.000000000000000000, 0.000000000000000000, 0.000000000000000000 ) ) ;
#116 = CARTESIAN_POINT ( 'NONE',  ( 0.000000000000000000, 0.000000000000000000, 0.000000000000000000 ) ) ;
#117 = CARTESIAN_POINT ( 'NONE',  ( 10.50000000000000533, 1.285879139104721619E-15, 0.000000000000000000 ) ) ;
#118 = CYLINDRICAL_SURFACE ( 'NONE', #273, 9.000000000000000000 ) ;
#119 = ORIENTED_EDGE ( 'NONE', *, *, #270, .T. ) ;
#120 = DIRECTION ( 'NONE',  ( -0.000000000000000000, -1.000000000000000000, -0.000000000000000000 ) ) ;
#121 = EDGE_LOOP ( 'NONE', ( #343, #175, #130, #58 ) ) ;
#122 = CARTESIAN_POINT ( 'NONE',  ( 0.000000000000000000, 0.000000000000000000, 0.000000000000000000 ) ) ;
#123 = EDGE_CURVE ( 'NONE', #391, #375, #42, .T. ) ;
#124 = AXIS2_PLACEMENT_3D ( 'NONE', #45, #180, #280 ) ;
#125 = DIRECTION ( 'NONE',  ( 1.000000000000000000, 0.000000000000000000, 0.000000000000000000 ) ) ;
#126 = ORIENTED_EDGE ( 'NONE', *, *, #128, .F. ) ;
#127 = DIRECTION ( 'NONE',  ( -1.000000000000000000, 0.000000000000000000, 0.000000000000000000 ) ) ;
#128 = EDGE_CURVE ( 'NONE', #213, #328, #241, .T. ) ;
#129 = PERSON_AND_ORGANIZATION ( #83, #255 ) ;
#130 = ORIENTED_EDGE ( 'NONE', *, *, #316, .F. ) ;
#131 = APPROVAL_ROLE ( '' ) ;
#132 = PERSON_AND_ORGANIZATION ( #83, #255 ) ;
#133 = LINE ( 'NONE', #260, #227 ) ;
#134 = CARTESIAN_POINT ( 'NONE',  ( 10.50000000000000533, 1.316495309083405012E-15, 0.000000000000000000 ) ) ;
#135 = AXIS2_PLACEMENT_3D ( 'NONE', #359, #144, #404 ) ;
#136 = AXIS2_PLACEMENT_3D ( 'NONE', #376, #188, #59 ) ;
#137 = EDGE_CURVE ( 'NONE', #389, #22, #330, .T. ) ;
#138 = ORIENTED_EDGE ( 'NONE', *, *, #249, .T. ) ;
#139 = DIRECTION ( 'NONE',  ( 1.000000000000000000, 0.000000000000000000, 0.000000000000000000 ) ) ;
#140 = CIRCLE ( 'NONE', #374, 9.000000000000000000 ) ;
#141 = CARTESIAN_POINT ( 'NONE',  ( 9.000000000000000000, 0.000000000000000000, -5.500000000000000000 ) ) ;
#142 = DIRECTION ( 'NONE',  ( 1.000000000000000000, 0.000000000000000000, 0.000000000000000000 ) ) ;
#143 = EDGE_CURVE ( 'NONE', #104, #340, #157, .T. ) ;
#144 = DIRECTION ( 'NONE',  ( -0.000000000000000000, -0.000000000000000000, 1.000000000000000000 ) ) ;
#145 = FACE_OUTER_BOUND ( 'NONE', #371, .T. ) ;
#146 = DIRECTION ( 'NONE',  ( -1.000000000000000000, 0.000000000000000000, 0.000000000000000000 ) ) ;
#147 = CALENDAR_DATE ( 2024, 2, 1 ) ;
#148 = CARTESIAN_POINT ( 'NONE',  ( 0.000000000000000000, 0.000000000000000000, -0.4999999999999968914 ) ) ;
#149 = CIRCLE ( 'NONE', #212, 9.000000000000000000 ) ;
#150 = CARTESIAN_POINT ( 'NONE',  ( -9.000000000000000000, 0.000000000000000000, -5.500000000000000000 ) ) ;
#151 = APPLICATION_CONTEXT ( 'configuration controlled 3d designs of mechanical parts and assemblies' ) ;
#152 = CARTESIAN_POINT ( 'NONE',  ( -11.00000000000000000, 1.347111479062088405E-15, 0.000000000000000000 ) ) ;
#153 = ADVANCED_FACE ( 'NONE', ( #329 ), #307, .F. ) ;
#154 = ORIENTED_EDGE ( 'NONE', *, *, #123, .F. ) ;
#155 = FACE_OUTER_BOUND ( 'NONE', #102, .T. ) ;
#156 = DIRECTION ( 'NONE',  ( -0.000000000000000000, -0.000000000000000000, 1.000000000000000000 ) ) ;
#157 = CIRCLE ( 'NONE', #43, 0.5000000000000004441 ) ;
#158 = ORIENTED_EDGE ( 'NONE', *, *, #114, .F. ) ;
#159 = APPLICATION_PROTOCOL_DEFINITION ( 'international standard', 'config_control_design', 1994, #151 ) ;
#160 = CC_DESIGN_DATE_AND_TIME_ASSIGNMENT ( #352, #166, ( #331 ) ) ;
#161 =( LENGTH_UNIT ( ) NAMED_UNIT ( * ) SI_UNIT ( .MILLI., .METRE. ) );
#162 = AXIS2_PLACEMENT_3D ( 'NONE', #347, #235, #386 ) ;
#163 = ORIENTED_EDGE ( 'NONE', *, *, #379, .T. ) ;
#164 = VERTEX_POINT ( 'NONE', #401 ) ;
#165 = EDGE_CURVE ( 'NONE', #233, #403, #18, .T. ) ;
#166 = DATE_TIME_ROLE ( 'creation_date' ) ;
#167 = ORIENTED_EDGE ( 'NONE', *, *, #123, .T. ) ;
#168 = CARTESIAN_POINT ( 'NONE',  ( -9.000000000000000000, 0.000000000000000000, -4.999999999999999112 ) ) ;
#169 = CIRCLE ( 'NONE', #174, 10.50000000000000533 ) ;
#170 = SECURITY_CLASSIFICATION_LEVEL ( 'unclassified' ) ;
#171 = ORIENTED_EDGE ( 'NONE', *, *, #261, .T. ) ;
#172 = APPLICATION_CONTEXT ( 'configuration controlled 3d designs of mechanical parts and assemblies' ) ;
#173 = CARTESIAN_POINT ( 'NONE',  ( 0.000000000000000000, 0.000000000000000000, -17.50000000000000000 ) ) ;
#174 = AXIS2_PLACEMENT_3D ( 'NONE', #302, #369, #298 ) ;
#175 = ORIENTED_EDGE ( 'NONE', *, *, #165, .T. ) ;
#176 = DIRECTION ( 'NONE',  ( 1.000000000000000000, 0.000000000000000000, 0.000000000000000000 ) ) ;
#177 = ORIENTED_EDGE ( 'NONE', *, *, #304, .T. ) ;
#178 = CARTESIAN_POINT ( 'NONE',  ( 8.499999999999998224, 0.000000000000000000, -5.500000000000000000 ) ) ;
#179 = DATE_AND_TIME ( #215, #262 ) ;
#180 = DIRECTION ( 'NONE',  ( -0.000000000000000000, -0.000000000000000000, 1.000000000000000000 ) ) ;
#181 = EDGE_LOOP ( 'NONE', ( #87, #105, #345, #312 ) ) ;
#182 = PLANE ( 'NONE',  #136 ) ;
#183 = PRODUCT_DEFINITION_SHAPE ( 'NONE', 'NONE',  #331 ) ;
#184 = CC_DESIGN_APPROVAL ( #99, ( #98 ) ) ;
#185 = CYLINDRICAL_SURFACE ( 'NONE', #3, 11.00000000000000000 ) ;
#186 = ORIENTED_EDGE ( 'NONE', *, *, #48, .T. ) ;
#187 = EDGE_LOOP ( 'NONE', ( #381, #138 ) ) ;
#188 = DIRECTION ( 'NONE',  ( 0.000000000000000000, 0.000000000000000000, -1.000000000000000000 ) ) ;
#189 = CC_DESIGN_PERSON_AND_ORGANIZATION_ASSIGNMENT ( #285, #253, ( #331 ) ) ;
#190 = CIRCLE ( 'NONE', #291, 9.000000000000000000 ) ;
#191 = TOROIDAL_SURFACE ( 'NONE', #353, 9.000000000000000000, 0.5000000000000000000 ) ;
#192 = COORDINATED_UNIVERSAL_TIME_OFFSET ( 1, 0, .AHEAD. ) ;
#193 = ADVANCED_FACE ( 'NONE', ( #84 ), #398, .T. ) ;
#194 = LOCAL_TIME ( 23, 3, 3.000000000000000000, #224 ) ;
#195 = CC_DESIGN_PERSON_AND_ORGANIZATION_ASSIGNMENT ( #293, #333, ( #98 ) ) ;
#196 = ORIENTED_EDGE ( 'NONE', *, *, #137, .T. ) ;
#197 = ORIENTED_EDGE ( 'NONE', *, *, #91, .T. ) ;
#198 = DIRECTION ( 'NONE',  ( -0.000000000000000000, -0.000000000000000000, 1.000000000000000000 ) ) ;
#199 = CC_DESIGN_PERSON_AND_ORGANIZATION_ASSIGNMENT ( #132, #258, ( #107 ) ) ;
#200 = DIRECTION ( 'NONE',  ( 0.000000000000000000, 0.000000000000000000, -1.000000000000000000 ) ) ;
#201 = DIRECTION ( 'NONE',  ( 1.000000000000000000, 0.000000000000000000, 0.000000000000000000 ) ) ;
#202 = AXIS2_PLACEMENT_3D ( 'NONE', #301, #10, #264 ) ;
#203 = LOCAL_TIME ( 23, 3, 3.000000000000000000, #370 ) ;
#204 = DIRECTION ( 'NONE',  ( -0.000000000000000000, -0.000000000000000000, 1.000000000000000000 ) ) ;
#205 = DATE_TIME_ROLE ( 'classification_date' ) ;
#206 = CARTESIAN_POINT ( 'NONE',  ( 11.00000000000000000, 0.000000000000000000, -0.4999999999999968914 ) ) ;
#207 = CARTESIAN_POINT ( 'NONE',  ( 0.000000000000000000, 0.000000000000000000, -5.500000000000000000 ) ) ;
#208 = ADVANCED_FACE ( 'NONE', ( #53 ), #185, .T. ) ;
#209 = DIRECTION ( 'NONE',  ( 1.000000000000000000, 0.000000000000000000, 0.000000000000000000 ) ) ;
#210 = EDGE_LOOP ( 'NONE', ( #290, #177, #163, #322 ) ) ;
#211 = DIRECTION ( 'NONE',  ( -0.000000000000000000, -0.000000000000000000, 1.000000000000000000 ) ) ;
#212 = AXIS2_PLACEMENT_3D ( 'NONE', #173, #73, #142 ) ;
#213 = VERTEX_POINT ( 'NONE', #168 ) ;
#214 = DIRECTION ( 'NONE',  ( 1.000000000000000000, 0.000000000000000000, 0.000000000000000000 ) ) ;
#215 = CALENDAR_DATE ( 2024, 2, 1 ) ;
#216 = DIRECTION ( 'NONE',  ( -0.000000000000000000, -0.000000000000000000, 1.000000000000000000 ) ) ;
#217 = ORIENTED_EDGE ( 'NONE', *, *, #23, .T. ) ;
#218 = DIRECTION ( 'NONE',  ( 1.000000000000000000, 0.000000000000000000, 0.000000000000000000 ) ) ;
#219 = DIRECTION ( 'NONE',  ( -0.000000000000000000, -0.000000000000000000, 1.000000000000000000 ) ) ;
#220 = PLANE ( 'NONE',  #162 ) ;
#221 = AXIS2_PLACEMENT_3D ( 'NONE', #363, #198, #201 ) ;
#222 = CARTESIAN_POINT ( 'NONE',  ( -9.000000000000000000, 1.102182119232617714E-15, -17.50000000000000000 ) ) ;
#223 = EDGE_LOOP ( 'NONE', ( #246, #226, #245, #26 ) ) ;
#224 = COORDINATED_UNIVERSAL_TIME_OFFSET ( 1, 0, .AHEAD. ) ;
#225 = EDGE_CURVE ( 'NONE', #104, #389, #60, .T. ) ;
#226 = ORIENTED_EDGE ( 'NONE', *, *, #225, .F. ) ;
#227 = VECTOR ( 'NONE', #5, 1000.000000000000000 ) ;
#228 = PERSON_AND_ORGANIZATION ( #83, #255 ) ;
#229 = EDGE_CURVE ( 'NONE', #409, #22, #133, .T. ) ;
#230 = CARTESIAN_POINT ( 'NONE',  ( 0.000000000000000000, 0.000000000000000000, -5.500000000000000000 ) ) ;
#231 = CIRCLE ( 'NONE', #110, 0.5000000000000004441 ) ;
#232 = APPROVAL_PERSON_ORGANIZATION ( #228, #319, #131 ) ;
#233 = VERTEX_POINT ( 'NONE', #134 ) ;
#234 = DIRECTION ( 'NONE',  ( -0.000000000000000000, -0.000000000000000000, 1.000000000000000000 ) ) ;
#235 = DIRECTION ( 'NONE',  ( 0.000000000000000000, 0.000000000000000000, -1.000000000000000000 ) ) ;
#236 = CARTESIAN_POINT ( 'NONE',  ( 0.000000000000000000, 0.000000000000000000, 0.000000000000000000 ) ) ;
#237 = EDGE_CURVE ( 'NONE', #9, #164, #68, .T. ) ;
#238 = PERSON_AND_ORGANIZATION_ROLE ( 'creator' ) ;
#239 = AXIS2_PLACEMENT_3D ( 'NONE', #20, #335, #78 ) ;
#240 = CARTESIAN_POINT ( 'NONE',  ( 9.000000000000000000, 1.102182119232617714E-15, -4.999999999999999112 ) ) ;
#241 = CIRCLE ( 'NONE', #360, 9.000000000000000000 ) ;
#242 = CARTESIAN_POINT ( 'NONE',  ( 0.000000000000000000, 0.000000000000000000, -6.000000000000000000 ) ) ;
#243 = CC_DESIGN_PERSON_AND_ORGANIZATION_ASSIGNMENT ( #6, #37, ( #54 ) ) ;
#244 = DIRECTION ( 'NONE',  ( 0.7071067811865451302, 8.659560562354904508E-17, -0.7071067811865500152 ) ) ;
#245 = ORIENTED_EDGE ( 'NONE', *, *, #143, .T. ) ;
#246 = ORIENTED_EDGE ( 'NONE', *, *, #137, .F. ) ;
#247 = LINE ( 'NONE', #89, #350 ) ;
#248 = FACE_OUTER_BOUND ( 'NONE', #295, .T. ) ;
#249 = EDGE_CURVE ( 'NONE', #233, #9, #282, .T. ) ;
#250 = CARTESIAN_POINT ( 'NONE',  ( 0.000000000000000000, 0.000000000000000000, -5.500000000000000000 ) ) ;
#251 = ORIENTED_EDGE ( 'NONE', *, *, #316, .T. ) ;
#252 = FACE_OUTER_BOUND ( 'NONE', #294, .T. ) ;
#253 = PERSON_AND_ORGANIZATION_ROLE ( 'creator' ) ;
#254 = CARTESIAN_POINT ( 'NONE',  ( 0.000000000000000000, 0.000000000000000000, 0.000000000000000000 ) ) ;
#255 = ORGANIZATION ( 'NEURÈENÝ', 'NEURÈENÝ', '' ) ;
#256 = ORIENTED_EDGE ( 'NONE', *, *, #270, .F. ) ;
#257 = ADVANCED_FACE ( 'NONE', ( #269 ), #109, .T. ) ;
#258 = PERSON_AND_ORGANIZATION_ROLE ( 'design_owner' ) ;
#259 = APPROVAL_STATUS ( 'not_yet_approved' ) ;
#260 = CARTESIAN_POINT ( 'NONE',  ( -9.000000000000000000, 1.102182119232617714E-15, 0.000000000000000000 ) ) ;
#261 = EDGE_CURVE ( 'NONE', #104, #328, #231, .T. ) ;
#262 = LOCAL_TIME ( 23, 3, 3.000000000000000000, #278 ) ;
#263 = ORIENTED_EDGE ( 'NONE', *, *, #237, .T. ) ;
#264 = DIRECTION ( 'NONE',  ( 1.000000000000000000, 0.000000000000000000, 0.000000000000000000 ) ) ;
#265 = TOROIDAL_SURFACE ( 'NONE', #85, 9.000000000000000000, 0.5000000000000000000 ) ;
#266 = VECTOR ( 'NONE', #277, 1000.000000000000000 ) ;
#267 = EDGE_CURVE ( 'NONE', #22, #340, #392, .T. ) ;
#268 = DIRECTION ( 'NONE',  ( 0.000000000000000000, 0.000000000000000000, -1.000000000000000000 ) ) ;
#269 = FACE_OUTER_BOUND ( 'NONE', #383, .T. ) ;
#270 = EDGE_CURVE ( 'NONE', #351, #409, #149, .T. ) ;
#271 = CARTESIAN_POINT ( 'NONE',  ( 0.000000000000000000, 0.000000000000000000, -5.000000000000000000 ) ) ;
#272 = APPROVAL_STATUS ( 'not_yet_approved' ) ;
#273 = AXIS2_PLACEMENT_3D ( 'NONE', #115, #367, #80 ) ;
#274 = DIRECTION ( 'NONE',  ( 1.000000000000000000, 0.000000000000000000, 0.000000000000000000 ) ) ;
#275 = CC_DESIGN_APPROVAL ( #79, ( #54 ) ) ;
#276 = DIRECTION ( 'NONE',  ( 0.000000000000000000, 0.000000000000000000, -1.000000000000000000 ) ) ;
#277 = DIRECTION ( 'NONE',  ( -0.000000000000000000, -0.000000000000000000, 1.000000000000000000 ) ) ;
#278 = COORDINATED_UNIVERSAL_TIME_OFFSET ( 1, 0, .AHEAD. ) ;
#279 = CARTESIAN_POINT ( 'NONE',  ( 0.000000000000000000, 0.000000000000000000, 0.000000000000000000 ) ) ;
#280 = DIRECTION ( 'NONE',  ( 1.000000000000000000, 0.000000000000000000, 0.000000000000000000 ) ) ;
#281 = EDGE_CURVE ( 'NONE', #375, #391, #32, .T. ) ;
#282 = CIRCLE ( 'NONE', #202, 10.50000000000000533 ) ;
#283 = FACE_BOUND ( 'NONE', #92, .T. ) ;
#284 = CALENDAR_DATE ( 2024, 2, 1 ) ;
#285 = PERSON_AND_ORGANIZATION ( #83, #255 ) ;
#286 = APPLICATION_PROTOCOL_DEFINITION ( 'international standard', 'config_control_design', 1994, #172 ) ;
#287 = AXIS2_PLACEMENT_3D ( 'NONE', #236, #234, #139 ) ;
#288 = CC_DESIGN_SECURITY_CLASSIFICATION ( #98, ( #54 ) ) ;
#289 = DIRECTION ( 'NONE',  ( 1.000000000000000000, 0.000000000000000000, 0.000000000000000000 ) ) ;
#290 = ORIENTED_EDGE ( 'NONE', *, *, #229, .F. ) ;
#291 = AXIS2_PLACEMENT_3D ( 'NONE', #242, #204, #214 ) ;
#292 = VECTOR ( 'NONE', #112, 1000.000000000000114 ) ;
#293 = PERSON_AND_ORGANIZATION ( #83, #255 ) ;
#294 = EDGE_LOOP ( 'NONE', ( #40, #154 ) ) ;
#295 = EDGE_LOOP ( 'NONE', ( #256, #334 ) ) ;
#296 = ADVANCED_FACE ( 'NONE', ( #155 ), #77, .F. ) ;
#297 = CIRCLE ( 'NONE', #75, 0.5000000000000004441 ) ;
#298 = DIRECTION ( 'NONE',  ( 1.000000000000000000, 0.000000000000000000, 0.000000000000000000 ) ) ;
#299 = VECTOR ( 'NONE', #344, 1000.000000000000000 ) ;
#300 = ORIENTED_EDGE ( 'NONE', *, *, #324, .T. ) ;
#301 = CARTESIAN_POINT ( 'NONE',  ( 0.000000000000000000, 0.000000000000000000, 0.000000000000000000 ) ) ;
#302 = CARTESIAN_POINT ( 'NONE',  ( 0.000000000000000000, 0.000000000000000000, 0.000000000000000000 ) ) ;
#303 = CARTESIAN_POINT ( 'NONE',  ( 9.000000000000000000, 0.000000000000000000, 0.000000000000000000 ) ) ;
#304 = EDGE_CURVE ( 'NONE', #409, #351, #88, .T. ) ;
#305 = DIRECTION ( 'NONE',  ( -0.000000000000000000, -0.000000000000000000, 1.000000000000000000 ) ) ;
#306 = DIRECTION ( 'NONE',  ( 0.000000000000000000, 0.000000000000000000, -1.000000000000000000 ) ) ;
#307 = TOROIDAL_SURFACE ( 'NONE', #388, 9.000000000000000000, 0.5000000000000000000 ) ;
#308 = CARTESIAN_POINT ( 'NONE',  ( 11.00000000000000000, 0.000000000000000000, -5.000000000000000000 ) ) ;
#309 = LOCAL_TIME ( 23, 3, 3.000000000000000000, #192 ) ;
#310 = FACE_OUTER_BOUND ( 'NONE', #121, .T. ) ;
#311 = CARTESIAN_POINT ( 'NONE',  ( 9.000000000000000000, 0.000000000000000000, -17.50000000000000000 ) ) ;
#312 = ORIENTED_EDGE ( 'NONE', *, *, #324, .F. ) ;
#313 = DIRECTION ( 'NONE',  ( 0.000000000000000000, 0.000000000000000000, 1.000000000000000000 ) ) ;
#314 = AXIS2_PLACEMENT_3D ( 'NONE', #279, #219, #55 ) ;
#315 = CALENDAR_DATE ( 2024, 2, 1 ) ;
#316 = EDGE_CURVE ( 'NONE', #164, #403, #323, .T. ) ;
#317 = DIRECTION ( 'NONE',  ( 1.000000000000000000, 0.000000000000000000, 0.000000000000000000 ) ) ;
#318 = AXIS2_PLACEMENT_3D ( 'NONE', #15, #211, #378 ) ;
#319 = APPROVAL ( #259, 'NEURÈENÝ' ) ;
#320 = CARTESIAN_POINT ( 'NONE',  ( 0.000000000000000000, 0.000000000000000000, 0.000000000000000000 ) ) ;
#321 = CARTESIAN_POINT ( 'NONE',  ( -9.000000000000000000, 1.102182119232617714E-15, -6.000000000000000000 ) ) ;
#322 = ORIENTED_EDGE ( 'NONE', *, *, #267, .F. ) ;
#323 = CIRCLE ( 'NONE', #382, 11.00000000000000000 ) ;
#324 = EDGE_CURVE ( 'NONE', #328, #213, #140, .T. ) ;
#325 = ORIENTED_EDGE ( 'NONE', *, *, #48, .F. ) ;
#326 = DIRECTION ( 'NONE',  ( -1.000000000000000000, -1.224646799147353454E-16, 0.000000000000000000 ) ) ;
#327 = CARTESIAN_POINT ( 'NONE',  ( -10.50000000000000533, 0.000000000000000000, 0.000000000000000000 ) ) ;
#328 = VERTEX_POINT ( 'NONE', #240 ) ;
#329 = FACE_OUTER_BOUND ( 'NONE', #372, .T. ) ;
#330 = CIRCLE ( 'NONE', #25, 0.5000000000000004441 ) ;
#331 = PRODUCT_DEFINITION ( 'NEZNÁMÝ', '', #54, #399 ) ;
#332 = CARTESIAN_POINT ( 'NONE',  ( -9.000000000000000000, 1.102182119232617714E-15, -5.500000000000000000 ) ) ;
#333 = PERSON_AND_ORGANIZATION_ROLE ( 'classification_officer' ) ;
#334 = ORIENTED_EDGE ( 'NONE', *, *, #304, .F. ) ;
#335 = DIRECTION ( 'NONE',  ( 0.000000000000000000, 0.000000000000000000, -1.000000000000000000 ) ) ;
#336 = ORIENTED_EDGE ( 'NONE', *, *, #128, .T. ) ;
#337 = CYLINDRICAL_SURFACE ( 'NONE', #314, 9.000000000000000000 ) ;
#338 = DIRECTION ( 'NONE',  ( -0.000000000000000000, -0.000000000000000000, 1.000000000000000000 ) ) ;
#339 = DIRECTION ( 'NONE',  ( 0.000000000000000000, 0.000000000000000000, -1.000000000000000000 ) ) ;
#340 = VERTEX_POINT ( 'NONE', #346 ) ;
#341 = ADVANCED_FACE ( 'NONE', ( #396 ), #337, .T. ) ;
#342 = DIRECTION ( 'NONE',  ( -0.000000000000000000, -0.000000000000000000, 1.000000000000000000 ) ) ;
#343 = ORIENTED_EDGE ( 'NONE', *, *, #249, .F. ) ;
#344 = DIRECTION ( 'NONE',  ( -0.000000000000000000, -0.000000000000000000, 1.000000000000000000 ) ) ;
#345 = ORIENTED_EDGE ( 'NONE', *, *, #67, .T. ) ;
#346 = CARTESIAN_POINT ( 'NONE',  ( 9.000000000000000000, 0.000000000000000000, -6.000000000000000000 ) ) ;
#347 = CARTESIAN_POINT ( 'NONE',  ( 0.000000000000000000, 11.00000000000000000, -5.000000000000000000 ) ) ;
#348 = APPROVAL_DATE_TIME ( #101, #319 ) ;
#349 = DIRECTION ( 'NONE',  ( 0.000000000000000000, 0.000000000000000000, -1.000000000000000000 ) ) ;
#350 = VECTOR ( 'NONE', #44, 1000.000000000000000 ) ;
#351 = VERTEX_POINT ( 'NONE', #311 ) ;
#352 = DATE_AND_TIME ( #284, #194 ) ;
#353 = AXIS2_PLACEMENT_3D ( 'NONE', #61, #349, #127 ) ;
#354 = CC_DESIGN_APPROVAL ( #319, ( #331 ) ) ;
#355 = ADVANCED_FACE ( 'NONE', ( #310 ), #366, .T. ) ;
#356 = APPROVAL_ROLE ( '' ) ;
#357 = ORIENTED_EDGE ( 'NONE', *, *, #267, .T. ) ;
#358 = ORIENTED_EDGE ( 'NONE', *, *, #379, .F. ) ;
#359 = CARTESIAN_POINT ( 'NONE',  ( 0.000000000000000000, 0.000000000000000000, -5.500000000000000000 ) ) ;
#360 = AXIS2_PLACEMENT_3D ( 'NONE', #393, #338, #74 ) ;
#361 = DIRECTION ( 'NONE',  ( -1.224646799147353207E-16, 1.000000000000000000, 0.000000000000000000 ) ) ;
#362 = FACE_OUTER_BOUND ( 'NONE', #223, .T. ) ;
#363 = CARTESIAN_POINT ( 'NONE',  ( 0.000000000000000000, 0.000000000000000000, -6.000000000000000000 ) ) ;
#364 = ADVANCED_FACE ( 'NONE', ( #248 ), #182, .T. ) ;
#365 = DIRECTION ( 'NONE',  ( -1.000000000000000000, 1.224646799147353454E-16, 0.000000000000000000 ) ) ;
#366 = CONICAL_SURFACE ( 'NONE', #66, 10.50000000000000533, 0.7853981633974447263 ) ;
#367 = DIRECTION ( 'NONE',  ( -0.000000000000000000, -0.000000000000000000, 1.000000000000000000 ) ) ;
#368 = DIRECTION ( 'NONE',  ( 0.000000000000000000, 0.000000000000000000, -1.000000000000000000 ) ) ;
#369 = DIRECTION ( 'NONE',  ( -0.000000000000000000, -0.000000000000000000, 1.000000000000000000 ) ) ;
#370 = COORDINATED_UNIVERSAL_TIME_OFFSET ( 1, 0, .AHEAD. ) ;
#371 = EDGE_LOOP ( 'NONE', ( #119, #7, #33, #358 ) ) ;
#372 = EDGE_LOOP ( 'NONE', ( #217, #171, #126, #28 ) ) ;
#373 = CARTESIAN_POINT ( 'NONE',  ( 0.000000000000000000, 0.000000000000000000, -0.4999999999999968914 ) ) ;
#374 = AXIS2_PLACEMENT_3D ( 'NONE', #400, #216, #93 ) ;
#375 = VERTEX_POINT ( 'NONE', #308 ) ;
#376 = CARTESIAN_POINT ( 'NONE',  ( 0.000000000000000000, 9.000000000000000000, -17.50000000000000000 ) ) ;
#377 = APPROVAL_PERSON_ORGANIZATION ( #380, #79, #356 ) ;
#378 = DIRECTION ( 'NONE',  ( 1.000000000000000000, 0.000000000000000000, 0.000000000000000000 ) ) ;
#379 = EDGE_CURVE ( 'NONE', #351, #340, #19, .T. ) ;
#380 = PERSON_AND_ORGANIZATION ( #83, #255 ) ;
#381 = ORIENTED_EDGE ( 'NONE', *, *, #114, .T. ) ;
#382 = AXIS2_PLACEMENT_3D ( 'NONE', #148, #339, #274 ) ;
#383 = EDGE_LOOP ( 'NONE', ( #36, #186, #251, #62 ) ) ;
#384 = COORDINATED_UNIVERSAL_TIME_OFFSET ( 1, 0, .AHEAD. ) ;
#385 = DIRECTION ( 'NONE',  ( 1.000000000000000000, 0.000000000000000000, 0.000000000000000000 ) ) ;
#386 = DIRECTION ( 'NONE',  ( -1.000000000000000000, 0.000000000000000000, -0.000000000000000000 ) ) ;
#387 =( NAMED_UNIT ( * ) PLANE_ANGLE_UNIT ( ) SI_UNIT ( $, .RADIAN. ) );
#388 = AXIS2_PLACEMENT_3D ( 'NONE', #207, #200, #146 ) ;
#389 = VERTEX_POINT ( 'NONE', #14 ) ;
#390 = CC_DESIGN_DATE_AND_TIME_ASSIGNMENT ( #82, #205, ( #98 ) ) ;
#391 = VERTEX_POINT ( 'NONE', #57 ) ;
#392 = CIRCLE ( 'NONE', #221, 9.000000000000000000 ) ;
#393 = CARTESIAN_POINT ( 'NONE',  ( 0.000000000000000000, 0.000000000000000000, -5.000000000000000000 ) ) ;
#394 = ORIENTED_EDGE ( 'NONE', *, *, #165, .F. ) ;
#395 = LINE ( 'NONE', #152, #266 ) ;
#396 = FACE_OUTER_BOUND ( 'NONE', #210, .T. ) ;
#397 = CIRCLE ( 'NONE', #86, 11.00000000000000000 ) ;
#398 = PLANE ( 'NONE',  #97 ) ;
#399 = DESIGN_CONTEXT ( 'detailed design', #172, 'design' ) ;
#400 = CARTESIAN_POINT ( 'NONE',  ( 0.000000000000000000, 0.000000000000000000, -5.000000000000000000 ) ) ;
#401 = CARTESIAN_POINT ( 'NONE',  ( -11.00000000000000000, 1.347111479062088405E-15, -0.4999999999999968914 ) ) ;
#402 = ADVANCED_FACE ( 'NONE', ( #145 ), #118, .T. ) ;
#403 = VERTEX_POINT ( 'NONE', #206 ) ;
#404 = DIRECTION ( 'NONE',  ( 1.000000000000000000, 0.000000000000000000, 0.000000000000000000 ) ) ;
#405 = SHAPE_DEFINITION_REPRESENTATION ( #183, #2 ) ;
#406 = ORIENTED_EDGE ( 'NONE', *, *, #143, .F. ) ;
#407 = AXIS2_PLACEMENT_3D ( 'NONE', #21, #156, #218 ) ;
#408 = ADVANCED_FACE ( 'NONE', ( #34 ), #191, .F. ) ;
#409 = VERTEX_POINT ( 'NONE', #222 ) ;
ENDSEC;
END-ISO-10303-21;
