ISO-10303-21;
HEADER;
FILE_DESCRIPTION (( 'STEP AP203' ),
    '1' );
FILE_NAME ('729a.STEP',
    '2024-01-02T19:14:48',
    ( '' ),
    ( '' ),
    'SwSTEP 2.0',
    'SolidWorks 2019',
    '' );
FILE_SCHEMA (( 'CONFIG_CONTROL_DESIGN' ));
ENDSEC;

DATA;
#1 = APPROVAL ( #197, 'NEURÈENÝ' ) ;
#2 = FACE_OUTER_BOUND ( 'NONE', #23, .T. ) ;
#3 = DIRECTION ( 'NONE',  ( -0.000000000000000000, -0.000000000000000000, 1.000000000000000000 ) ) ;
#4 = AXIS2_PLACEMENT_3D ( 'NONE', #381, #128, #10 ) ;
#5 = CARTESIAN_POINT ( 'NONE',  ( 15.50000000000000000, 0.000000000000000000, -7.500000000000000000 ) ) ;
#6 = DIRECTION ( 'NONE',  ( 0.000000000000000000, 0.000000000000000000, -1.000000000000000000 ) ) ;
#7 = LINE ( 'NONE', #191, #218 ) ;
#8 = CALENDAR_DATE ( 2024, 2, 1 ) ;
#9 = VERTEX_POINT ( 'NONE', #315 ) ;
#10 = DIRECTION ( 'NONE',  ( -1.000000000000000000, 0.000000000000000000, -0.000000000000000000 ) ) ;
#11 = APPROVAL_PERSON_ORGANIZATION ( #226, #287, #323 ) ;
#12 = ORIENTED_EDGE ( 'NONE', *, *, #193, .T. ) ;
#13 = EDGE_CURVE ( 'NONE', #230, #208, #33, .T. ) ;
#14 = DIRECTION ( 'NONE',  ( 1.000000000000000000, 0.000000000000000000, 0.000000000000000000 ) ) ;
#15 = COORDINATED_UNIVERSAL_TIME_OFFSET ( 1, 0, .AHEAD. ) ;
#16 = AXIS2_PLACEMENT_3D ( 'NONE', #335, #50, #215 ) ;
#17 = CC_DESIGN_APPROVAL ( #1, ( #93 ) ) ;
#18 = AXIS2_PLACEMENT_3D ( 'NONE', #316, #95, #388 ) ;
#19 = CALENDAR_DATE ( 2024, 2, 1 ) ;
#20 = EDGE_CURVE ( 'NONE', #132, #341, #239, .T. ) ;
#21 = APPROVAL_STATUS ( 'not_yet_approved' ) ;
#22 = TOROIDAL_SURFACE ( 'NONE', #107, 16.00000000000000000, 0.5000000000000000000 ) ;
#23 = EDGE_LOOP ( 'NONE', ( #276, #198 ) ) ;
#24 = PRODUCT_DEFINITION ( 'NEZNÁMÝ', '', #93, #79 ) ;
#25 = CARTESIAN_POINT ( 'NONE',  ( -16.00000000000000000, 0.000000000000000000, -6.999999999999999112 ) ) ;
#26 = EDGE_LOOP ( 'NONE', ( #297, #150, #258, #181 ) ) ;
#27 = ORIENTED_EDGE ( 'NONE', *, *, #67, .T. ) ;
#28 = AXIS2_PLACEMENT_3D ( 'NONE', #382, #254, #39 ) ;
#29 = ORIENTED_EDGE ( 'NONE', *, *, #141, .F. ) ;
#30 = ADVANCED_FACE ( 'NONE', ( #100, #64 ), #223, .T. ) ;
#31 = PERSON_AND_ORGANIZATION ( #73, #59 ) ;
#32 = PRODUCT ( '729a', '729a', '', ( #94 ) ) ;
#33 = LINE ( 'NONE', #401, #143 ) ;
#34 = DIRECTION ( 'NONE',  ( -0.000000000000000000, -0.000000000000000000, 1.000000000000000000 ) ) ;
#35 = CIRCLE ( 'NONE', #231, 15.50000000000000000 ) ;
#36 = DIRECTION ( 'NONE',  ( 0.000000000000000000, 0.000000000000000000, -1.000000000000000000 ) ) ;
#37 = CARTESIAN_POINT ( 'NONE',  ( 18.50000000000000000, 0.000000000000000000, -6.999999999999999112 ) ) ;
#38 = CIRCLE ( 'NONE', #320, 16.00000000000000000 ) ;
#39 = DIRECTION ( 'NONE',  ( 1.000000000000000000, 0.000000000000000000, 0.000000000000000000 ) ) ;
#40 = CARTESIAN_POINT ( 'NONE',  ( 16.00000000000000000, 1.959434878635765131E-15, -7.500000000000000000 ) ) ;
#41 = DIRECTION ( 'NONE',  ( 0.000000000000000000, 0.000000000000000000, -1.000000000000000000 ) ) ;
#42 = DIRECTION ( 'NONE',  ( -1.224646799147353207E-16, 1.000000000000000000, 0.000000000000000000 ) ) ;
#43 = DATE_AND_TIME ( #364, #346 ) ;
#44 = EDGE_CURVE ( 'NONE', #359, #9, #172, .T. ) ;
#45 = VERTEX_POINT ( 'NONE', #37 ) ;
#46 = DIRECTION ( 'NONE',  ( -0.000000000000000000, -0.000000000000000000, 1.000000000000000000 ) ) ;
#47 = DATE_TIME_ROLE ( 'creation_date' ) ;
#48 = DIRECTION ( 'NONE',  ( -0.000000000000000000, -0.000000000000000000, 1.000000000000000000 ) ) ;
#49 = AXIS2_PLACEMENT_3D ( 'NONE', #228, #229, #357 ) ;
#50 = DIRECTION ( 'NONE',  ( 1.224646799147353207E-16, 1.000000000000000000, 0.000000000000000000 ) ) ;
#51 = ORIENTED_EDGE ( 'NONE', *, *, #137, .T. ) ;
#52 = CIRCLE ( 'NONE', #360, 0.5000000000000004441 ) ;
#53 = EDGE_CURVE ( 'NONE', #91, #313, #260, .T. ) ;
#54 = ORIENTED_EDGE ( 'NONE', *, *, #57, .T. ) ;
#55 = DIRECTION ( 'NONE',  ( 0.000000000000000000, 0.000000000000000000, -1.000000000000000000 ) ) ;
#56 = EDGE_LOOP ( 'NONE', ( #12, #89, #246, #311 ) ) ;
#57 = EDGE_CURVE ( 'NONE', #307, #313, #123, .T. ) ;
#58 = ORIENTED_EDGE ( 'NONE', *, *, #125, .T. ) ;
#59 = ORGANIZATION ( 'NEURÈENÝ', 'NEURÈENÝ', '' ) ;
#60 = APPROVAL_STATUS ( 'not_yet_approved' ) ;
#61 = AXIS2_PLACEMENT_3D ( 'NONE', #40, #42, #283 ) ;
#62 = ORIENTED_EDGE ( 'NONE', *, *, #272, .F. ) ;
#63 = APPLICATION_PROTOCOL_DEFINITION ( 'international standard', 'config_control_design', 1994, #80 ) ;
#64 = FACE_OUTER_BOUND ( 'NONE', #329, .T. ) ;
#65 = CARTESIAN_POINT ( 'NONE',  ( 0.000000000000000000, 0.000000000000000000, -7.500000000000000000 ) ) ;
#66 = DIRECTION ( 'NONE',  ( 0.000000000000000000, 0.000000000000000000, -1.000000000000000000 ) ) ;
#67 = EDGE_CURVE ( 'NONE', #409, #307, #209, .T. ) ;
#68 = AXIS2_PLACEMENT_3D ( 'NONE', #175, #145, #308 ) ;
#69 = CARTESIAN_POINT ( 'NONE',  ( 0.000000000000000000, 16.00000000000000000, -60.00000000000000000 ) ) ;
#70 = DIRECTION ( 'NONE',  ( -1.000000000000000000, 0.000000000000000000, 0.000000000000000000 ) ) ;
#71 = ORIENTED_EDGE ( 'NONE', *, *, #98, .F. ) ;
#72 = CARTESIAN_POINT ( 'NONE',  ( 0.000000000000000000, 0.000000000000000000, 0.000000000000000000 ) ) ;
#73 = PERSON ( 'NEURÈENÝ', 'NEURÈENÝ', 'NEURÈENÝ', ('NEURÈENÝ'), ('NEURÈENÝ'), ('NEURÈENÝ') ) ;
#74 = SHAPE_DEFINITION_REPRESENTATION ( #376, #268 ) ;
#75 = VERTEX_POINT ( 'NONE', #103 ) ;
#76 = DIRECTION ( 'NONE',  ( 0.000000000000000000, 0.000000000000000000, -1.000000000000000000 ) ) ;
#77 = EDGE_CURVE ( 'NONE', #313, #307, #232, .T. ) ;
#78 = EDGE_LOOP ( 'NONE', ( #186, #176, #404, #244 ) ) ;
#79 = DESIGN_CONTEXT ( 'detailed design', #80, 'design' ) ;
#80 = APPLICATION_CONTEXT ( 'configuration controlled 3d designs of mechanical parts and assemblies' ) ;
#81 = PERSON_AND_ORGANIZATION ( #73, #59 ) ;
#82 = CONICAL_SURFACE ( 'NONE', #252, 18.00000000000001421, 0.7853981633974447263 ) ;
#83 = DIRECTION ( 'NONE',  ( 1.000000000000000000, 0.000000000000000000, 0.000000000000000000 ) ) ;
#84 = DIRECTION ( 'NONE',  ( 0.7071067811865451302, 8.659560562354903276E-17, -0.7071067811865500152 ) ) ;
#85 = EDGE_CURVE ( 'NONE', #375, #359, #324, .T. ) ;
#86 = ORIENTED_EDGE ( 'NONE', *, *, #85, .F. ) ;
#87 = CYLINDRICAL_SURFACE ( 'NONE', #92, 16.00000000000000000 ) ;
#88 = APPLICATION_CONTEXT ( 'configuration controlled 3d designs of mechanical parts and assemblies' ) ;
#89 = ORIENTED_EDGE ( 'NONE', *, *, #53, .T. ) ;
#90 = ORIENTED_EDGE ( 'NONE', *, *, #210, .F. ) ;
#91 = VERTEX_POINT ( 'NONE', #5 ) ;
#92 = AXIS2_PLACEMENT_3D ( 'NONE', #211, #213, #149 ) ;
#93 = PRODUCT_DEFINITION_FORMATION_WITH_SPECIFIED_SOURCE ( 'LIBOVOLNÝ', '', #32, .NOT_KNOWN. ) ;
#94 = MECHANICAL_CONTEXT ( 'NONE', #88, 'mechanical' ) ;
#95 = DIRECTION ( 'NONE',  ( -0.000000000000000000, -0.000000000000000000, 1.000000000000000000 ) ) ;
#96 = DIRECTION ( 'NONE',  ( -1.000000000000000000, 0.000000000000000000, 0.000000000000000000 ) ) ;
#97 = DIRECTION ( 'NONE',  ( -1.000000000000000000, 0.000000000000000000, 0.000000000000000000 ) ) ;
#98 = EDGE_CURVE ( 'NONE', #9, #359, #38, .T. ) ;
#99 = FACE_OUTER_BOUND ( 'NONE', #78, .T. ) ;
#100 = FACE_BOUND ( 'NONE', #279, .T. ) ;
#101 =( GEOMETRIC_REPRESENTATION_CONTEXT ( 3 ) GLOBAL_UNCERTAINTY_ASSIGNED_CONTEXT ( ( #298 ) ) GLOBAL_UNIT_ASSIGNED_CONTEXT ( ( #289, #261, #384 ) ) REPRESENTATION_CONTEXT ( 'NONE', 'WORKASPACE' ) );
#102 = PERSON_AND_ORGANIZATION_ROLE ( 'design_owner' ) ;
#103 = CARTESIAN_POINT ( 'NONE',  ( -16.00000000000000000, 1.959434878635765131E-15, -60.00000000000000000 ) ) ;
#104 = CARTESIAN_POINT ( 'NONE',  ( 0.000000000000000000, 0.000000000000000000, -6.999999999999999112 ) ) ;
#105 = ORIENTED_EDGE ( 'NONE', *, *, #204, .F. ) ;
#106 = SECURITY_CLASSIFICATION_LEVEL ( 'unclassified' ) ;
#107 = AXIS2_PLACEMENT_3D ( 'NONE', #182, #270, #151 ) ;
#108 = CALENDAR_DATE ( 2024, 2, 1 ) ;
#109 = TOROIDAL_SURFACE ( 'NONE', #171, 16.00000000000000000, 0.5000000000000000000 ) ;
#110 = CARTESIAN_POINT ( 'NONE',  ( 0.000000000000000000, 0.000000000000000000, 0.000000000000000000 ) ) ;
#111 = DIRECTION ( 'NONE',  ( -0.000000000000000000, -0.000000000000000000, 1.000000000000000000 ) ) ;
#112 = CARTESIAN_POINT ( 'NONE',  ( 18.50000000000000000, 0.000000000000000000, -0.4999999999999865663 ) ) ;
#113 = EDGE_LOOP ( 'NONE', ( #212, #62 ) ) ;
#114 = CARTESIAN_POINT ( 'NONE',  ( 16.00000000000000000, 1.959434878635765131E-15, -6.999999999999999112 ) ) ;
#115 = ORIENTED_EDGE ( 'NONE', *, *, #393, .T. ) ;
#116 = CIRCLE ( 'NONE', #300, 18.00000000000001421 ) ;
#117 = ADVANCED_FACE ( 'NONE', ( #131 ), #262, .T. ) ;
#118 = CC_DESIGN_SECURITY_CLASSIFICATION ( #219, ( #93 ) ) ;
#119 = EDGE_LOOP ( 'NONE', ( #183, #105, #241, #292 ) ) ;
#120 = ORIENTED_EDGE ( 'NONE', *, *, #272, .T. ) ;
#121 = DIRECTION ( 'NONE',  ( -0.000000000000000000, -0.000000000000000000, 1.000000000000000000 ) ) ;
#122 = CIRCLE ( 'NONE', #177, 18.50000000000000000 ) ;
#123 = CIRCLE ( 'NONE', #361, 16.00000000000000000 ) ;
#124 = CARTESIAN_POINT ( 'NONE',  ( 0.000000000000000000, 0.000000000000000000, 0.000000000000000000 ) ) ;
#125 = EDGE_CURVE ( 'NONE', #230, #45, #371, .T. ) ;
#126 = CARTESIAN_POINT ( 'NONE',  ( 0.000000000000000000, 0.000000000000000000, -8.000000000000000000 ) ) ;
#127 = CARTESIAN_POINT ( 'NONE',  ( 16.00000000000000000, 0.000000000000000000, -8.000000000000000000 ) ) ;
#128 = DIRECTION ( 'NONE',  ( 0.000000000000000000, 0.000000000000000000, -1.000000000000000000 ) ) ;
#129 = ADVANCED_FACE ( 'NONE', ( #194 ), #386, .F. ) ;
#130 = APPROVAL_PERSON_ORGANIZATION ( #397, #302, #168 ) ;
#131 = FACE_OUTER_BOUND ( 'NONE', #113, .T. ) ;
#132 = VERTEX_POINT ( 'NONE', #322 ) ;
#133 = DIRECTION ( 'NONE',  ( 1.000000000000000000, 0.000000000000000000, 0.000000000000000000 ) ) ;
#134 = MANIFOLD_SOLID_BREP ( 'Zkosení1', #337 ) ;
#135 = CIRCLE ( 'NONE', #68, 18.00000000000001421 ) ;
#136 = CARTESIAN_POINT ( 'NONE',  ( -18.50000000000000000, 2.265596578422603396E-15, -0.4999999999999865663 ) ) ;
#137 = EDGE_CURVE ( 'NONE', #45, #341, #7, .T. ) ;
#138 = AXIS2_PLACEMENT_3D ( 'NONE', #69, #66, #348 ) ;
#139 = COORDINATED_UNIVERSAL_TIME_OFFSET ( 1, 0, .AHEAD. ) ;
#140 = CARTESIAN_POINT ( 'NONE',  ( 0.000000000000000000, 0.000000000000000000, -7.500000000000000000 ) ) ;
#141 = EDGE_CURVE ( 'NONE', #45, #230, #243, .T. ) ;
#142 = FACE_OUTER_BOUND ( 'NONE', #336, .T. ) ;
#143 = VECTOR ( 'NONE', #111, 1000.000000000000000 ) ;
#144 = AXIS2_PLACEMENT_3D ( 'NONE', #245, #178, #370 ) ;
#145 = DIRECTION ( 'NONE',  ( -0.000000000000000000, -0.000000000000000000, 1.000000000000000000 ) ) ;
#146 = ORIENTED_EDGE ( 'NONE', *, *, #141, .T. ) ;
#147 = CARTESIAN_POINT ( 'NONE',  ( 0.000000000000000000, 0.000000000000000000, -0.4999999999999865663 ) ) ;
#148 = ORIENTED_EDGE ( 'NONE', *, *, #77, .F. ) ;
#149 = DIRECTION ( 'NONE',  ( 1.000000000000000000, 0.000000000000000000, 0.000000000000000000 ) ) ;
#150 = ORIENTED_EDGE ( 'NONE', *, *, #20, .T. ) ;
#151 = DIRECTION ( 'NONE',  ( 1.000000000000000000, 0.000000000000000000, 0.000000000000000000 ) ) ;
#152 = ORIENTED_EDGE ( 'NONE', *, *, #247, .T. ) ;
#153 = DIRECTION ( 'NONE',  ( 1.000000000000000000, 0.000000000000000000, 0.000000000000000000 ) ) ;
#154 = LINE ( 'NONE', #281, #369 ) ;
#155 = ADVANCED_FACE ( 'NONE', ( #383 ), #327, .T. ) ;
#156 = DIRECTION ( 'NONE',  ( 1.000000000000000000, 0.000000000000000000, 0.000000000000000000 ) ) ;
#157 = DIRECTION ( 'NONE',  ( 1.000000000000000000, 0.000000000000000000, 0.000000000000000000 ) ) ;
#158 = AXIS2_PLACEMENT_3D ( 'NONE', #221, #76, #290 ) ;
#159 = AXIS2_PLACEMENT_3D ( 'NONE', #163, #165, #6 ) ;
#160 = FACE_OUTER_BOUND ( 'NONE', #205, .T. ) ;
#161 = DIRECTION ( 'NONE',  ( 1.000000000000000000, 0.000000000000000000, 0.000000000000000000 ) ) ;
#162 = DIRECTION ( 'NONE',  ( 0.000000000000000000, 0.000000000000000000, -1.000000000000000000 ) ) ;
#163 = CARTESIAN_POINT ( 'NONE',  ( -16.00000000000000000, 0.000000000000000000, -7.500000000000000000 ) ) ;
#164 = CARTESIAN_POINT ( 'NONE',  ( 16.00000000000000000, 0.000000000000000000, -60.00000000000000000 ) ) ;
#165 = DIRECTION ( 'NONE',  ( -0.000000000000000000, -1.000000000000000000, -0.000000000000000000 ) ) ;
#166 = DATE_AND_TIME ( #19, #167 ) ;
#167 = LOCAL_TIME ( 20, 14, 48.00000000000000000, #139 ) ;
#168 = APPROVAL_ROLE ( '' ) ;
#169 = COORDINATED_UNIVERSAL_TIME_OFFSET ( 1, 0, .AHEAD. ) ;
#170 = DATE_TIME_ROLE ( 'classification_date' ) ;
#171 = AXIS2_PLACEMENT_3D ( 'NONE', #347, #41, #70 ) ;
#172 = CIRCLE ( 'NONE', #387, 16.00000000000000000 ) ;
#173 = PERSON_AND_ORGANIZATION_ROLE ( 'creator' ) ;
#174 = ADVANCED_FACE ( 'NONE', ( #2 ), #385, .T. ) ;
#175 = CARTESIAN_POINT ( 'NONE',  ( 0.000000000000000000, 0.000000000000000000, 0.000000000000000000 ) ) ;
#176 = ORIENTED_EDGE ( 'NONE', *, *, #349, .T. ) ;
#177 = AXIS2_PLACEMENT_3D ( 'NONE', #147, #55, #333 ) ;
#178 = DIRECTION ( 'NONE',  ( -0.000000000000000000, -0.000000000000000000, 1.000000000000000000 ) ) ;
#179 = EDGE_LOOP ( 'NONE', ( #90, #120, #408, #71 ) ) ;
#180 = CC_DESIGN_PERSON_AND_ORGANIZATION_ASSIGNMENT ( #81, #392, ( #93 ) ) ;
#181 = ORIENTED_EDGE ( 'NONE', *, *, #187, .F. ) ;
#182 = CARTESIAN_POINT ( 'NONE',  ( 0.000000000000000000, 0.000000000000000000, -7.500000000000000000 ) ) ;
#183 = ORIENTED_EDGE ( 'NONE', *, *, #20, .F. ) ;
#184 = AXIS2_PLACEMENT_3D ( 'NONE', #351, #257, #156 ) ;
#185 = DIRECTION ( 'NONE',  ( 1.000000000000000000, 0.000000000000000000, 0.000000000000000000 ) ) ;
#186 = ORIENTED_EDGE ( 'NONE', *, *, #193, .F. ) ;
#187 = EDGE_CURVE ( 'NONE', #274, #208, #154, .T. ) ;
#188 = DATE_AND_TIME ( #8, #344 ) ;
#189 = DIRECTION ( 'NONE',  ( -0.000000000000000000, -0.000000000000000000, 1.000000000000000000 ) ) ;
#190 = FACE_OUTER_BOUND ( 'NONE', #26, .T. ) ;
#191 = CARTESIAN_POINT ( 'NONE',  ( 18.50000000000000000, 0.000000000000000000, 0.000000000000000000 ) ) ;
#192 = CIRCLE ( 'NONE', #144, 16.00000000000000000 ) ;
#193 = EDGE_CURVE ( 'NONE', #409, #91, #265, .T. ) ;
#194 = FACE_OUTER_BOUND ( 'NONE', #343, .T. ) ;
#195 = CARTESIAN_POINT ( 'NONE',  ( -15.50000000000000000, 1.928818708657081344E-15, -7.500000000000000000 ) ) ;
#196 = CARTESIAN_POINT ( 'NONE',  ( 0.000000000000000000, 0.000000000000000000, -6.999999999999999112 ) ) ;
#197 = APPROVAL_STATUS ( 'not_yet_approved' ) ;
#198 = ORIENTED_EDGE ( 'NONE', *, *, #277, .T. ) ;
#199 = DIRECTION ( 'NONE',  ( -0.000000000000000000, -0.000000000000000000, 1.000000000000000000 ) ) ;
#200 = ORIENTED_EDGE ( 'NONE', *, *, #44, .F. ) ;
#201 = PERSON_AND_ORGANIZATION ( #73, #59 ) ;
#202 = DATE_AND_TIME ( #108, #306 ) ;
#203 = AXIS2_PLACEMENT_3D ( 'NONE', #72, #199, #318 ) ;
#204 = EDGE_CURVE ( 'NONE', #274, #132, #116, .T. ) ;
#205 = EDGE_LOOP ( 'NONE', ( #146, #338, #368, #390 ) ) ;
#206 = DIRECTION ( 'NONE',  ( 1.000000000000000000, 0.000000000000000000, 0.000000000000000000 ) ) ;
#207 = VECTOR ( 'NONE', #48, 1000.000000000000000 ) ;
#208 = VERTEX_POINT ( 'NONE', #136 ) ;
#209 = CIRCLE ( 'NONE', #159, 0.5000000000000004441 ) ;
#210 = EDGE_CURVE ( 'NONE', #75, #9, #363, .T. ) ;
#211 = CARTESIAN_POINT ( 'NONE',  ( 0.000000000000000000, 0.000000000000000000, 0.000000000000000000 ) ) ;
#212 = ORIENTED_EDGE ( 'NONE', *, *, #393, .F. ) ;
#213 = DIRECTION ( 'NONE',  ( -0.000000000000000000, -0.000000000000000000, 1.000000000000000000 ) ) ;
#214 = ORIENTED_EDGE ( 'NONE', *, *, #13, .F. ) ;
#215 = DIRECTION ( 'NONE',  ( -1.000000000000000000, 1.224646799147349509E-16, 0.000000000000000000 ) ) ;
#216 = CC_DESIGN_DATE_AND_TIME_ASSIGNMENT ( #202, #47, ( #24 ) ) ;
#217 = ORIENTED_EDGE ( 'NONE', *, *, #210, .T. ) ;
#218 = VECTOR ( 'NONE', #259, 1000.000000000000000 ) ;
#219 = SECURITY_CLASSIFICATION ( '', '', #106 ) ;
#220 = DIRECTION ( 'NONE',  ( 1.000000000000000000, 0.000000000000000000, 0.000000000000000000 ) ) ;
#221 = CARTESIAN_POINT ( 'NONE',  ( 0.000000000000000000, 0.000000000000000000, -7.500000000000000000 ) ) ;
#222 = CARTESIAN_POINT ( 'NONE',  ( 0.000000000000000000, 0.000000000000000000, 0.000000000000000000 ) ) ;
#223 = PLANE ( 'NONE',  #4 ) ;
#224 = AXIS2_PLACEMENT_3D ( 'NONE', #124, #354, #185 ) ;
#225 = PRODUCT_RELATED_PRODUCT_CATEGORY ( 'detail', '', ( #32 ) ) ;
#226 = PERSON_AND_ORGANIZATION ( #73, #59 ) ;
#227 = ORIENTED_EDGE ( 'NONE', *, *, #77, .T. ) ;
#228 = CARTESIAN_POINT ( 'NONE',  ( 0.000000000000000000, 0.000000000000000000, 0.000000000000000000 ) ) ;
#229 = DIRECTION ( 'NONE',  ( 0.000000000000000000, -0.000000000000000000, 1.000000000000000000 ) ) ;
#230 = VERTEX_POINT ( 'NONE', #310 ) ;
#231 = AXIS2_PLACEMENT_3D ( 'NONE', #340, #342, #206 ) ;
#232 = CIRCLE ( 'NONE', #395, 16.00000000000000000 ) ;
#233 = CC_DESIGN_APPROVAL ( #302, ( #219 ) ) ;
#234 = ADVANCED_FACE ( 'NONE', ( #238 ), #379, .T. ) ;
#235 = DATE_AND_TIME ( #299, #285 ) ;
#236 = DIRECTION ( 'NONE',  ( -0.7071067811865451302, 0.000000000000000000, -0.7071067811865500152 ) ) ;
#237 = AXIS2_PLACEMENT_3D ( 'NONE', #282, #36, #220 ) ;
#238 = FACE_OUTER_BOUND ( 'NONE', #119, .T. ) ;
#239 = LINE ( 'NONE', #367, #378 ) ;
#240 = CARTESIAN_POINT ( 'NONE',  ( -18.00000000000001421, 0.000000000000000000, 0.000000000000000000 ) ) ;
#241 = ORIENTED_EDGE ( 'NONE', *, *, #187, .T. ) ;
#242 = FACE_OUTER_BOUND ( 'NONE', #179, .T. ) ;
#243 = CIRCLE ( 'NONE', #319, 18.50000000000000000 ) ;
#244 = ORIENTED_EDGE ( 'NONE', *, *, #331, .F. ) ;
#245 = CARTESIAN_POINT ( 'NONE',  ( 0.000000000000000000, 0.000000000000000000, -60.00000000000000000 ) ) ;
#246 = ORIENTED_EDGE ( 'NONE', *, *, #57, .F. ) ;
#247 = EDGE_CURVE ( 'NONE', #91, #409, #35, .T. ) ;
#248 = DIRECTION ( 'NONE',  ( 0.000000000000000000, 0.000000000000000000, -1.000000000000000000 ) ) ;
#249 = ORIENTED_EDGE ( 'NONE', *, *, #349, .F. ) ;
#250 = APPLICATION_PROTOCOL_DEFINITION ( 'international standard', 'config_control_design', 1994, #88 ) ;
#251 = CARTESIAN_POINT ( 'NONE',  ( 0.000000000000000000, 0.000000000000000000, -6.999999999999999112 ) ) ;
#252 = AXIS2_PLACEMENT_3D ( 'NONE', #222, #162, #96 ) ;
#253 = DIRECTION ( 'NONE',  ( 1.000000000000000000, 0.000000000000000000, 0.000000000000000000 ) ) ;
#254 = DIRECTION ( 'NONE',  ( -0.000000000000000000, -0.000000000000000000, 1.000000000000000000 ) ) ;
#255 = CARTESIAN_POINT ( 'NONE',  ( 16.00000000000000000, 0.000000000000000000, 0.000000000000000000 ) ) ;
#256 = EDGE_CURVE ( 'NONE', #208, #341, #122, .T. ) ;
#257 = DIRECTION ( 'NONE',  ( 0.000000000000000000, 0.000000000000000000, 1.000000000000000000 ) ) ;
#258 = ORIENTED_EDGE ( 'NONE', *, *, #256, .F. ) ;
#259 = DIRECTION ( 'NONE',  ( -0.000000000000000000, -0.000000000000000000, 1.000000000000000000 ) ) ;
#260 = CIRCLE ( 'NONE', #61, 0.5000000000000004441 ) ;
#261 =( NAMED_UNIT ( * ) PLANE_ANGLE_UNIT ( ) SI_UNIT ( $, .RADIAN. ) );
#262 = PLANE ( 'NONE',  #138 ) ;
#263 = ORIENTED_EDGE ( 'NONE', *, *, #44, .T. ) ;
#264 = CARTESIAN_POINT ( 'NONE',  ( 0.000000000000000000, 0.000000000000000000, 0.000000000000000000 ) ) ;
#265 = CIRCLE ( 'NONE', #394, 15.50000000000000000 ) ;
#266 = APPROVAL_PERSON_ORGANIZATION ( #301, #1, #358 ) ;
#267 = PERSON_AND_ORGANIZATION_ROLE ( 'classification_officer' ) ;
#268 = ADVANCED_BREP_SHAPE_REPRESENTATION ( '729a', ( #134, #184 ), #101 ) ;
#269 = TOROIDAL_SURFACE ( 'NONE', #294, 16.00000000000000000, 0.5000000000000000000 ) ;
#270 = DIRECTION ( 'NONE',  ( -0.000000000000000000, -0.000000000000000000, 1.000000000000000000 ) ) ;
#271 = ORIENTED_EDGE ( 'NONE', *, *, #125, .F. ) ;
#272 = EDGE_CURVE ( 'NONE', #75, #375, #192, .T. ) ;
#273 = CARTESIAN_POINT ( 'NONE',  ( 0.000000000000000000, 0.000000000000000000, 0.000000000000000000 ) ) ;
#274 = VERTEX_POINT ( 'NONE', #240 ) ;
#275 = ORIENTED_EDGE ( 'NONE', *, *, #53, .F. ) ;
#276 = ORIENTED_EDGE ( 'NONE', *, *, #204, .T. ) ;
#277 = EDGE_CURVE ( 'NONE', #132, #274, #135, .T. ) ;
#278 = CYLINDRICAL_SURFACE ( 'NONE', #328, 18.50000000000000000 ) ;
#279 = EDGE_LOOP ( 'NONE', ( #54, #227 ) ) ;
#280 = FACE_OUTER_BOUND ( 'NONE', #56, .T. ) ;
#281 = CARTESIAN_POINT ( 'NONE',  ( -18.00000000000001421, 0.000000000000000000, 0.000000000000000000 ) ) ;
#282 = CARTESIAN_POINT ( 'NONE',  ( 0.000000000000000000, 0.000000000000000000, -0.4999999999999865663 ) ) ;
#283 = DIRECTION ( 'NONE',  ( -1.000000000000000000, -1.224646799147349509E-16, 0.000000000000000000 ) ) ;
#284 = CIRCLE ( 'NONE', #16, 0.5000000000000004441 ) ;
#285 = LOCAL_TIME ( 20, 14, 48.00000000000000000, #169 ) ;
#286 = VECTOR ( 'NONE', #356, 1000.000000000000000 ) ;
#287 = APPROVAL ( #60, 'NEURÈENÝ' ) ;
#288 = DIRECTION ( 'NONE',  ( -0.000000000000000000, -0.000000000000000000, 1.000000000000000000 ) ) ;
#289 =( LENGTH_UNIT ( ) NAMED_UNIT ( * ) SI_UNIT ( .MILLI., .METRE. ) );
#290 = DIRECTION ( 'NONE',  ( -1.000000000000000000, 0.000000000000000000, 0.000000000000000000 ) ) ;
#291 = COORDINATED_UNIVERSAL_TIME_OFFSET ( 1, 0, .AHEAD. ) ;
#292 = ORIENTED_EDGE ( 'NONE', *, *, #355, .F. ) ;
#293 = CARTESIAN_POINT ( 'NONE',  ( 0.000000000000000000, 0.000000000000000000, -8.000000000000000000 ) ) ;
#294 = AXIS2_PLACEMENT_3D ( 'NONE', #65, #3, #153 ) ;
#295 = CC_DESIGN_PERSON_AND_ORGANIZATION_ASSIGNMENT ( #321, #102, ( #32 ) ) ;
#296 = PERSON_AND_ORGANIZATION_ROLE ( 'creator' ) ;
#297 = ORIENTED_EDGE ( 'NONE', *, *, #277, .F. ) ;
#298 = UNCERTAINTY_MEASURE_WITH_UNIT (LENGTH_MEASURE( 1.000000000000000082E-05 ), #289, 'distance_accuracy_value', 'NONE');
#299 = CALENDAR_DATE ( 2024, 2, 1 ) ;
#300 = AXIS2_PLACEMENT_3D ( 'NONE', #264, #391, #14 ) ;
#301 = PERSON_AND_ORGANIZATION ( #73, #59 ) ;
#302 = APPROVAL ( #21, 'NEURÈENÝ' ) ;
#303 = DIRECTION ( 'NONE',  ( -1.000000000000000000, 0.000000000000000000, 0.000000000000000000 ) ) ;
#304 = CC_DESIGN_DATE_AND_TIME_ASSIGNMENT ( #43, #170, ( #219 ) ) ;
#305 = FACE_OUTER_BOUND ( 'NONE', #309, .T. ) ;
#306 = LOCAL_TIME ( 20, 14, 48.00000000000000000, #15 ) ;
#307 = VERTEX_POINT ( 'NONE', #25 ) ;
#308 = DIRECTION ( 'NONE',  ( 1.000000000000000000, 0.000000000000000000, 0.000000000000000000 ) ) ;
#309 = EDGE_LOOP ( 'NONE', ( #214, #58, #51, #403 ) ) ;
#310 = CARTESIAN_POINT ( 'NONE',  ( -18.50000000000000000, 2.265596578422603396E-15, -6.999999999999999112 ) ) ;
#311 = ORIENTED_EDGE ( 'NONE', *, *, #67, .F. ) ;
#312 = CIRCLE ( 'NONE', #28, 16.00000000000000000 ) ;
#313 = VERTEX_POINT ( 'NONE', #114 ) ;
#314 = APPROVAL_DATE_TIME ( #188, #287 ) ;
#315 = CARTESIAN_POINT ( 'NONE',  ( -16.00000000000000000, 1.959434878635765131E-15, -8.000000000000000000 ) ) ;
#316 = CARTESIAN_POINT ( 'NONE',  ( 0.000000000000000000, 0.000000000000000000, -6.999999999999999112 ) ) ;
#317 = ADVANCED_FACE ( 'NONE', ( #242 ), #87, .T. ) ;
#318 = DIRECTION ( 'NONE',  ( 1.000000000000000000, 0.000000000000000000, 0.000000000000000000 ) ) ;
#319 = AXIS2_PLACEMENT_3D ( 'NONE', #104, #34, #253 ) ;
#320 = AXIS2_PLACEMENT_3D ( 'NONE', #126, #189, #157 ) ;
#321 = PERSON_AND_ORGANIZATION ( #73, #59 ) ;
#322 = CARTESIAN_POINT ( 'NONE',  ( 18.00000000000001421, 2.234980408443920793E-15, 0.000000000000000000 ) ) ;
#323 = APPROVAL_ROLE ( '' ) ;
#324 = LINE ( 'NONE', #255, #286 ) ;
#325 = ADVANCED_FACE ( 'NONE', ( #142 ), #22, .F. ) ;
#326 = PERSON_AND_ORGANIZATION ( #73, #59 ) ;
#327 = CYLINDRICAL_SURFACE ( 'NONE', #203, 16.00000000000000000 ) ;
#328 = AXIS2_PLACEMENT_3D ( 'NONE', #110, #366, #83 ) ;
#329 = EDGE_LOOP ( 'NONE', ( #29, #271 ) ) ;
#330 = APPROVAL_DATE_TIME ( #235, #1 ) ;
#331 = EDGE_CURVE ( 'NONE', #91, #359, #52, .T. ) ;
#332 = CARTESIAN_POINT ( 'NONE',  ( -16.00000000000000000, 1.959434878635765131E-15, 0.000000000000000000 ) ) ;
#333 = DIRECTION ( 'NONE',  ( 1.000000000000000000, 0.000000000000000000, 0.000000000000000000 ) ) ;
#334 = CC_DESIGN_PERSON_AND_ORGANIZATION_ASSIGNMENT ( #326, #296, ( #93 ) ) ;
#335 = CARTESIAN_POINT ( 'NONE',  ( -16.00000000000000000, 1.959434878635765131E-15, -7.500000000000000000 ) ) ;
#336 = EDGE_LOOP ( 'NONE', ( #249, #374, #345, #263 ) ) ;
#337 = CLOSED_SHELL ( 'NONE', ( #365, #398, #362, #155, #405, #117, #174, #339, #30, #317, #325, #129, #234 ) ) ;
#338 = ORIENTED_EDGE ( 'NONE', *, *, #13, .T. ) ;
#339 = ADVANCED_FACE ( 'NONE', ( #305 ), #278, .T. ) ;
#340 = CARTESIAN_POINT ( 'NONE',  ( 0.000000000000000000, 0.000000000000000000, -7.500000000000000000 ) ) ;
#341 = VERTEX_POINT ( 'NONE', #112 ) ;
#342 = DIRECTION ( 'NONE',  ( -0.000000000000000000, -0.000000000000000000, 1.000000000000000000 ) ) ;
#343 = EDGE_LOOP ( 'NONE', ( #275, #152, #27, #148 ) ) ;
#344 = LOCAL_TIME ( 20, 14, 48.00000000000000000, #291 ) ;
#345 = ORIENTED_EDGE ( 'NONE', *, *, #331, .T. ) ;
#346 = LOCAL_TIME ( 20, 14, 48.00000000000000000, #389 ) ;
#347 = CARTESIAN_POINT ( 'NONE',  ( 0.000000000000000000, 0.000000000000000000, -7.500000000000000000 ) ) ;
#348 = DIRECTION ( 'NONE',  ( -1.000000000000000000, 0.000000000000000000, -0.000000000000000000 ) ) ;
#349 = EDGE_CURVE ( 'NONE', #409, #9, #284, .T. ) ;
#350 = DIRECTION ( 'NONE',  ( -1.000000000000000000, 0.000000000000000000, 0.000000000000000000 ) ) ;
#351 = CARTESIAN_POINT ( 'NONE',  ( 0.000000000000000000, 0.000000000000000000, 0.000000000000000000 ) ) ;
#352 = DIRECTION ( 'NONE',  ( -0.000000000000000000, -0.000000000000000000, 1.000000000000000000 ) ) ;
#353 = CIRCLE ( 'NONE', #237, 18.50000000000000000 ) ;
#354 = DIRECTION ( 'NONE',  ( -0.000000000000000000, -0.000000000000000000, 1.000000000000000000 ) ) ;
#355 = EDGE_CURVE ( 'NONE', #341, #208, #353, .T. ) ;
#356 = DIRECTION ( 'NONE',  ( -0.000000000000000000, -0.000000000000000000, 1.000000000000000000 ) ) ;
#357 = DIRECTION ( 'NONE',  ( 1.000000000000000000, 0.000000000000000000, 0.000000000000000000 ) ) ;
#358 = APPROVAL_ROLE ( '' ) ;
#359 = VERTEX_POINT ( 'NONE', #127 ) ;
#360 = AXIS2_PLACEMENT_3D ( 'NONE', #407, #402, #400 ) ;
#361 = AXIS2_PLACEMENT_3D ( 'NONE', #196, #288, #350 ) ;
#362 = ADVANCED_FACE ( 'NONE', ( #99 ), #269, .F. ) ;
#363 = LINE ( 'NONE', #332, #207 ) ;
#364 = CALENDAR_DATE ( 2024, 2, 1 ) ;
#365 = ADVANCED_FACE ( 'NONE', ( #190 ), #82, .T. ) ;
#366 = DIRECTION ( 'NONE',  ( -0.000000000000000000, -0.000000000000000000, 1.000000000000000000 ) ) ;
#367 = CARTESIAN_POINT ( 'NONE',  ( 18.00000000000001421, 2.204364238465237794E-15, 0.000000000000000000 ) ) ;
#368 = ORIENTED_EDGE ( 'NONE', *, *, #256, .T. ) ;
#369 = VECTOR ( 'NONE', #236, 1000.000000000000114 ) ;
#370 = DIRECTION ( 'NONE',  ( 1.000000000000000000, 0.000000000000000000, 0.000000000000000000 ) ) ;
#371 = CIRCLE ( 'NONE', #18, 18.50000000000000000 ) ;
#372 = EDGE_LOOP ( 'NONE', ( #115, #217, #200, #86 ) ) ;
#373 = CC_DESIGN_PERSON_AND_ORGANIZATION_ASSIGNMENT ( #31, #173, ( #24 ) ) ;
#374 = ORIENTED_EDGE ( 'NONE', *, *, #247, .F. ) ;
#375 = VERTEX_POINT ( 'NONE', #164 ) ;
#376 = PRODUCT_DEFINITION_SHAPE ( 'NONE', 'NONE',  #24 ) ;
#377 = CYLINDRICAL_SURFACE ( 'NONE', #224, 18.50000000000000000 ) ;
#378 = VECTOR ( 'NONE', #84, 1000.000000000000114 ) ;
#379 = CONICAL_SURFACE ( 'NONE', #406, 18.00000000000001421, 0.7853981633974447263 ) ;
#380 = CC_DESIGN_PERSON_AND_ORGANIZATION_ASSIGNMENT ( #201, #267, ( #219 ) ) ;
#381 = CARTESIAN_POINT ( 'NONE',  ( 0.000000000000000000, 18.50000000000000000, -6.999999999999999112 ) ) ;
#382 = CARTESIAN_POINT ( 'NONE',  ( 0.000000000000000000, 0.000000000000000000, -60.00000000000000000 ) ) ;
#383 = FACE_OUTER_BOUND ( 'NONE', #372, .T. ) ;
#384 =( NAMED_UNIT ( * ) SI_UNIT ( $, .STERADIAN. ) SOLID_ANGLE_UNIT ( ) );
#385 = PLANE ( 'NONE',  #49 ) ;
#386 = TOROIDAL_SURFACE ( 'NONE', #158, 16.00000000000000000, 0.5000000000000000000 ) ;
#387 = AXIS2_PLACEMENT_3D ( 'NONE', #293, #121, #161 ) ;
#388 = DIRECTION ( 'NONE',  ( 1.000000000000000000, 0.000000000000000000, 0.000000000000000000 ) ) ;
#389 = COORDINATED_UNIVERSAL_TIME_OFFSET ( 1, 0, .AHEAD. ) ;
#390 = ORIENTED_EDGE ( 'NONE', *, *, #137, .F. ) ;
#391 = DIRECTION ( 'NONE',  ( -0.000000000000000000, -0.000000000000000000, 1.000000000000000000 ) ) ;
#392 = PERSON_AND_ORGANIZATION_ROLE ( 'design_supplier' ) ;
#393 = EDGE_CURVE ( 'NONE', #375, #75, #312, .T. ) ;
#394 = AXIS2_PLACEMENT_3D ( 'NONE', #140, #46, #133 ) ;
#395 = AXIS2_PLACEMENT_3D ( 'NONE', #251, #352, #97 ) ;
#396 = APPROVAL_DATE_TIME ( #166, #302 ) ;
#397 = PERSON_AND_ORGANIZATION ( #73, #59 ) ;
#398 = ADVANCED_FACE ( 'NONE', ( #280 ), #109, .F. ) ;
#399 = CC_DESIGN_APPROVAL ( #287, ( #24 ) ) ;
#400 = DIRECTION ( 'NONE',  ( 0.000000000000000000, 0.000000000000000000, -1.000000000000000000 ) ) ;
#401 = CARTESIAN_POINT ( 'NONE',  ( -18.50000000000000000, 2.265596578422603396E-15, 0.000000000000000000 ) ) ;
#402 = DIRECTION ( 'NONE',  ( 0.000000000000000000, -1.000000000000000000, 0.000000000000000000 ) ) ;
#403 = ORIENTED_EDGE ( 'NONE', *, *, #355, .T. ) ;
#404 = ORIENTED_EDGE ( 'NONE', *, *, #98, .T. ) ;
#405 = ADVANCED_FACE ( 'NONE', ( #160 ), #377, .T. ) ;
#406 = AXIS2_PLACEMENT_3D ( 'NONE', #273, #248, #303 ) ;
#407 = CARTESIAN_POINT ( 'NONE',  ( 16.00000000000000000, 0.000000000000000000, -7.500000000000000000 ) ) ;
#408 = ORIENTED_EDGE ( 'NONE', *, *, #85, .T. ) ;
#409 = VERTEX_POINT ( 'NONE', #195 ) ;
ENDSEC;
END-ISO-10303-21;
