ISO-10303-21;
HEADER;
FILE_DESCRIPTION (( 'STEP AP203' ),
    '1' );
FILE_NAME ('4c9e.STEP',
    '2024-01-02T22:02:07',
    ( '' ),
    ( '' ),
    'SwSTEP 2.0',
    'SolidWorks 2019',
    '' );
FILE_SCHEMA (( 'CONFIG_CONTROL_DESIGN' ));
ENDSEC;

DATA;
#1 = EDGE_LOOP ( 'NONE', ( #381, #248 ) ) ;
#2 = AXIS2_PLACEMENT_3D ( 'NONE', #134, #280, #318 ) ;
#3 = FACE_OUTER_BOUND ( 'NONE', #344, .T. ) ;
#4 = LINE ( 'NONE', #379, #161 ) ;
#5 = DIRECTION ( 'NONE',  ( 0.000000000000000000, 0.000000000000000000, -1.000000000000000000 ) ) ;
#6 = DIRECTION ( 'NONE',  ( -0.000000000000000000, -0.000000000000000000, 1.000000000000000000 ) ) ;
#7 = CARTESIAN_POINT ( 'NONE',  ( 0.000000000000000000, 0.000000000000000000, -5.500000000000000000 ) ) ;
#8 = UNCERTAINTY_MEASURE_WITH_UNIT (LENGTH_MEASURE( 1.000000000000000082E-05 ), #219, 'distance_accuracy_value', 'NONE');
#9 = PERSON_AND_ORGANIZATION ( #244, #213 ) ;
#10 = AXIS2_PLACEMENT_3D ( 'NONE', #38, #165, #406 ) ;
#11 = DIRECTION ( 'NONE',  ( 1.000000000000000000, 0.000000000000000000, 0.000000000000000000 ) ) ;
#12 = DIRECTION ( 'NONE',  ( 0.000000000000000000, 0.000000000000000000, -1.000000000000000000 ) ) ;
#13 = ADVANCED_FACE ( 'NONE', ( #42 ), #187, .F. ) ;
#14 = AXIS2_PLACEMENT_3D ( 'NONE', #249, #68, #222 ) ;
#15 = CARTESIAN_POINT ( 'NONE',  ( 0.000000000000000000, 0.000000000000000000, 0.000000000000000000 ) ) ;
#16 = CARTESIAN_POINT ( 'NONE',  ( 0.000000000000000000, 0.000000000000000000, -5.500000000000000000 ) ) ;
#17 = DIRECTION ( 'NONE',  ( 1.000000000000000000, 0.000000000000000000, 0.000000000000000000 ) ) ;
#18 = TOROIDAL_SURFACE ( 'NONE', #162, 9.000000000000000000, 0.5000000000000000000 ) ;
#19 = APPROVAL ( #172, 'NEURÈENÝ' ) ;
#20 = CARTESIAN_POINT ( 'NONE',  ( 0.000000000000000000, 0.000000000000000000, 0.000000000000000000 ) ) ;
#21 = DIRECTION ( 'NONE',  ( 0.7071067811865474617, 8.659560562354932858E-17, -0.7071067811865474617 ) ) ;
#22 = ORIENTED_EDGE ( 'NONE', *, *, #89, .T. ) ;
#23 = DIRECTION ( 'NONE',  ( -0.000000000000000000, -0.000000000000000000, 1.000000000000000000 ) ) ;
#24 = AXIS2_PLACEMENT_3D ( 'NONE', #16, #367, #215 ) ;
#25 = ORIENTED_EDGE ( 'NONE', *, *, #289, .F. ) ;
#26 = APPROVAL_PERSON_ORGANIZATION ( #145, #267, #325 ) ;
#27 = DIRECTION ( 'NONE',  ( 0.000000000000000000, 0.000000000000000000, -1.000000000000000000 ) ) ;
#28 = EDGE_CURVE ( 'NONE', #307, #276, #400, .T. ) ;
#29 = CYLINDRICAL_SURFACE ( 'NONE', #2, 11.00000000000000000 ) ;
#30 = ORIENTED_EDGE ( 'NONE', *, *, #49, .F. ) ;
#31 = CC_DESIGN_PERSON_AND_ORGANIZATION_ASSIGNMENT ( #41, #114, ( #146 ) ) ;
#32 = CARTESIAN_POINT ( 'NONE',  ( 9.000000000000000000, 0.000000000000000000, -25.00000000000000000 ) ) ;
#33 = EDGE_CURVE ( 'NONE', #307, #69, #335, .T. ) ;
#34 = ORIENTED_EDGE ( 'NONE', *, *, #53, .T. ) ;
#35 = AXIS2_PLACEMENT_3D ( 'NONE', #184, #23, #301 ) ;
#36 = DIRECTION ( 'NONE',  ( 1.000000000000000000, 0.000000000000000000, 0.000000000000000000 ) ) ;
#37 = EDGE_LOOP ( 'NONE', ( #366, #129 ) ) ;
#38 = CARTESIAN_POINT ( 'NONE',  ( 0.000000000000000000, 0.000000000000000000, -5.000000000000000000 ) ) ;
#39 = EDGE_CURVE ( 'NONE', #370, #276, #4, .T. ) ;
#40 = ORIENTED_EDGE ( 'NONE', *, *, #108, .F. ) ;
#41 = PERSON_AND_ORGANIZATION ( #244, #213 ) ;
#42 = FACE_OUTER_BOUND ( 'NONE', #158, .T. ) ;
#43 = AXIS2_PLACEMENT_3D ( 'NONE', #7, #109, #11 ) ;
#44 =( NAMED_UNIT ( * ) SI_UNIT ( $, .STERADIAN. ) SOLID_ANGLE_UNIT ( ) );
#45 = CIRCLE ( 'NONE', #211, 9.000000000000000000 ) ;
#46 = ORIENTED_EDGE ( 'NONE', *, *, #409, .T. ) ;
#47 = COORDINATED_UNIVERSAL_TIME_OFFSET ( 1, 0, .AHEAD. ) ;
#48 = APPROVAL ( #214, 'NEURÈENÝ' ) ;
#49 = EDGE_CURVE ( 'NONE', #125, #135, #394, .T. ) ;
#50 = COORDINATED_UNIVERSAL_TIME_OFFSET ( 1, 0, .AHEAD. ) ;
#51 = AXIS2_PLACEMENT_3D ( 'NONE', #332, #90, #119 ) ;
#52 = ORIENTED_EDGE ( 'NONE', *, *, #251, .T. ) ;
#53 = EDGE_CURVE ( 'NONE', #95, #319, #79, .T. ) ;
#54 = SHAPE_DEFINITION_REPRESENTATION ( #360, #229 ) ;
#55 = DIRECTION ( 'NONE',  ( -1.000000000000000000, -1.224646799147353454E-16, 0.000000000000000000 ) ) ;
#56 = DIRECTION ( 'NONE',  ( 1.000000000000000000, 0.000000000000000000, 0.000000000000000000 ) ) ;
#57 = AXIS2_PLACEMENT_3D ( 'NONE', #181, #274, #226 ) ;
#58 = EDGE_CURVE ( 'NONE', #64, #375, #328, .T. ) ;
#59 = LINE ( 'NONE', #399, #220 ) ;
#60 = ORIENTED_EDGE ( 'NONE', *, *, #108, .T. ) ;
#61 = FACE_OUTER_BOUND ( 'NONE', #185, .T. ) ;
#62 = DIRECTION ( 'NONE',  ( -0.000000000000000000, -0.000000000000000000, 1.000000000000000000 ) ) ;
#63 = EDGE_CURVE ( 'NONE', #99, #223, #308, .T. ) ;
#64 = VERTEX_POINT ( 'NONE', #112 ) ;
#65 = CIRCLE ( 'NONE', #237, 9.000000000000000000 ) ;
#66 = CARTESIAN_POINT ( 'NONE',  ( 0.000000000000000000, 0.000000000000000000, -5.000000000000000000 ) ) ;
#67 = ORIENTED_EDGE ( 'NONE', *, *, #132, .F. ) ;
#68 = DIRECTION ( 'NONE',  ( -0.000000000000000000, -0.000000000000000000, 1.000000000000000000 ) ) ;
#69 = VERTEX_POINT ( 'NONE', #234 ) ;
#70 = PLANE ( 'NONE',  #277 ) ;
#71 = DIRECTION ( 'NONE',  ( 1.000000000000000000, 0.000000000000000000, 0.000000000000000000 ) ) ;
#72 = AXIS2_PLACEMENT_3D ( 'NONE', #86, #149, #275 ) ;
#73 = DIRECTION ( 'NONE',  ( 0.000000000000000000, -0.000000000000000000, 1.000000000000000000 ) ) ;
#74 = ORIENTED_EDGE ( 'NONE', *, *, #231, .F. ) ;
#75 = PERSON_AND_ORGANIZATION ( #244, #213 ) ;
#76 = ADVANCED_FACE ( 'NONE', ( #225 ), #205, .F. ) ;
#77 = ORIENTED_EDGE ( 'NONE', *, *, #261, .F. ) ;
#78 = CALENDAR_DATE ( 2024, 2, 1 ) ;
#79 = LINE ( 'NONE', #200, #176 ) ;
#80 = DATE_AND_TIME ( #78, #195 ) ;
#81 = CIRCLE ( 'NONE', #206, 0.5000000000000004441 ) ;
#82 = APPLICATION_PROTOCOL_DEFINITION ( 'international standard', 'config_control_design', 1994, #387 ) ;
#83 = APPLICATION_PROTOCOL_DEFINITION ( 'international standard', 'config_control_design', 1994, #331 ) ;
#84 = EDGE_LOOP ( 'NONE', ( #373, #351 ) ) ;
#85 = APPROVAL_PERSON_ORGANIZATION ( #174, #48, #87 ) ;
#86 = CARTESIAN_POINT ( 'NONE',  ( -9.000000000000000000, 1.102182119232617714E-15, -5.500000000000000000 ) ) ;
#87 = APPROVAL_ROLE ( '' ) ;
#88 = CARTESIAN_POINT ( 'NONE',  ( 0.000000000000000000, 0.000000000000000000, -25.00000000000000000 ) ) ;
#89 = EDGE_CURVE ( 'NONE', #135, #223, #59, .T. ) ;
#90 = DIRECTION ( 'NONE',  ( 0.000000000000000000, 0.000000000000000000, -1.000000000000000000 ) ) ;
#91 = CC_DESIGN_APPROVAL ( #267, ( #128 ) ) ;
#92 = ORIENTED_EDGE ( 'NONE', *, *, #261, .T. ) ;
#93 = DIRECTION ( 'NONE',  ( -0.000000000000000000, -0.000000000000000000, 1.000000000000000000 ) ) ;
#94 = DIRECTION ( 'NONE',  ( -1.224646799147353207E-16, 1.000000000000000000, 0.000000000000000000 ) ) ;
#95 = VERTEX_POINT ( 'NONE', #122 ) ;
#96 = CONICAL_SURFACE ( 'NONE', #51, 10.50000000000000178, 0.7853981633974482790 ) ;
#97 = DIRECTION ( 'NONE',  ( 0.000000000000000000, 0.000000000000000000, -1.000000000000000000 ) ) ;
#98 = CC_DESIGN_DATE_AND_TIME_ASSIGNMENT ( #204, #290, ( #128 ) ) ;
#99 = VERTEX_POINT ( 'NONE', #273 ) ;
#100 = CARTESIAN_POINT ( 'NONE',  ( 0.000000000000000000, 0.000000000000000000, -0.4999999999999970024 ) ) ;
#101 = CARTESIAN_POINT ( 'NONE',  ( 0.000000000000000000, 0.000000000000000000, -0.4999999999999970024 ) ) ;
#102 = DIRECTION ( 'NONE',  ( -1.000000000000000000, 0.000000000000000000, 0.000000000000000000 ) ) ;
#103 = EDGE_LOOP ( 'NONE', ( #314, #46, #292, #74 ) ) ;
#104 = AXIS2_PLACEMENT_3D ( 'NONE', #142, #166, #133 ) ;
#105 = CIRCLE ( 'NONE', #388, 9.000000000000000000 ) ;
#106 = CARTESIAN_POINT ( 'NONE',  ( 9.000000000000000000, 0.000000000000000000, -6.000000000000000000 ) ) ;
#107 = VERTEX_POINT ( 'NONE', #339 ) ;
#108 = EDGE_CURVE ( 'NONE', #64, #99, #153, .T. ) ;
#109 = DIRECTION ( 'NONE',  ( -0.000000000000000000, -0.000000000000000000, 1.000000000000000000 ) ) ;
#110 = PERSON_AND_ORGANIZATION_ROLE ( 'creator' ) ;
#111 = CC_DESIGN_PERSON_AND_ORGANIZATION_ASSIGNMENT ( #391, #353, ( #146 ) ) ;
#112 = CARTESIAN_POINT ( 'NONE',  ( -11.00000000000000000, 1.347111479062088405E-15, -5.000000000000000000 ) ) ;
#113 = CIRCLE ( 'NONE', #10, 11.00000000000000000 ) ;
#114 = PERSON_AND_ORGANIZATION_ROLE ( 'design_supplier' ) ;
#115 = AXIS2_PLACEMENT_3D ( 'NONE', #260, #352, #288 ) ;
#116 = FACE_BOUND ( 'NONE', #37, .T. ) ;
#117 = AXIS2_PLACEMENT_3D ( 'NONE', #131, #254, #102 ) ;
#118 = FACE_OUTER_BOUND ( 'NONE', #103, .T. ) ;
#119 = DIRECTION ( 'NONE',  ( -1.000000000000000000, 0.000000000000000000, 0.000000000000000000 ) ) ;
#120 = PRODUCT_RELATED_PRODUCT_CATEGORY ( 'detail', '', ( #371 ) ) ;
#121 = DATE_AND_TIME ( #305, #309 ) ;
#122 = CARTESIAN_POINT ( 'NONE',  ( -9.000000000000000000, 1.102182119232617714E-15, -25.00000000000000000 ) ) ;
#123 = ORIENTED_EDGE ( 'NONE', *, *, #171, .T. ) ;
#124 = DIRECTION ( 'NONE',  ( -0.000000000000000000, -0.000000000000000000, 1.000000000000000000 ) ) ;
#125 = VERTEX_POINT ( 'NONE', #306 ) ;
#126 = CARTESIAN_POINT ( 'NONE',  ( 0.000000000000000000, 0.000000000000000000, -25.00000000000000000 ) ) ;
#127 = FACE_OUTER_BOUND ( 'NONE', #192, .T. ) ;
#128 = PRODUCT_DEFINITION ( 'NEZNÁMÝ', '', #146, #382 ) ;
#129 = ORIENTED_EDGE ( 'NONE', *, *, #293, .T. ) ;
#130 = CIRCLE ( 'NONE', #354, 9.000000000000000000 ) ;
#131 = CARTESIAN_POINT ( 'NONE',  ( 0.000000000000000000, 0.000000000000000000, 0.000000000000000000 ) ) ;
#132 = EDGE_CURVE ( 'NONE', #370, #95, #138, .T. ) ;
#133 = DIRECTION ( 'NONE',  ( 0.000000000000000000, 0.000000000000000000, -1.000000000000000000 ) ) ;
#134 = CARTESIAN_POINT ( 'NONE',  ( 0.000000000000000000, 0.000000000000000000, 0.000000000000000000 ) ) ;
#135 = VERTEX_POINT ( 'NONE', #212 ) ;
#136 = DIRECTION ( 'NONE',  ( -0.000000000000000000, -1.000000000000000000, -0.000000000000000000 ) ) ;
#137 = ORIENTED_EDGE ( 'NONE', *, *, #151, .F. ) ;
#138 = CIRCLE ( 'NONE', #357, 9.000000000000000000 ) ;
#139 = CC_DESIGN_APPROVAL ( #48, ( #259 ) ) ;
#140 = ADVANCED_FACE ( 'NONE', ( #61 ), #362, .T. ) ;
#141 = CALENDAR_DATE ( 2024, 2, 1 ) ;
#142 = CARTESIAN_POINT ( 'NONE',  ( 9.000000000000000000, 0.000000000000000000, -5.500000000000000000 ) ) ;
#143 = APPROVAL_DATE_TIME ( #148, #267 ) ;
#144 = DIRECTION ( 'NONE',  ( 1.000000000000000000, 0.000000000000000000, 0.000000000000000000 ) ) ;
#145 = PERSON_AND_ORGANIZATION ( #244, #213 ) ;
#146 = PRODUCT_DEFINITION_FORMATION_WITH_SPECIFIED_SOURCE ( 'LIBOVOLNÝ', '', #371, .NOT_KNOWN. ) ;
#147 = ADVANCED_FACE ( 'NONE', ( #397 ), #403, .T. ) ;
#148 = DATE_AND_TIME ( #266, #177 ) ;
#149 = DIRECTION ( 'NONE',  ( 1.224646799147353207E-16, 1.000000000000000000, 0.000000000000000000 ) ) ;
#150 = CARTESIAN_POINT ( 'NONE',  ( -10.50000000000000178, 0.000000000000000000, 0.000000000000000000 ) ) ;
#151 = EDGE_CURVE ( 'NONE', #135, #125, #268, .T. ) ;
#152 = LINE ( 'NONE', #243, #342 ) ;
#153 = LINE ( 'NONE', #278, #258 ) ;
#154 = AXIS2_PLACEMENT_3D ( 'NONE', #295, #253, #71 ) ;
#155 = EDGE_CURVE ( 'NONE', #307, #107, #81, .T. ) ;
#156 = DIRECTION ( 'NONE',  ( -1.000000000000000000, 0.000000000000000000, 0.000000000000000000 ) ) ;
#157 = ORIENTED_EDGE ( 'NONE', *, *, #167, .T. ) ;
#158 = EDGE_LOOP ( 'NONE', ( #346, #363, #349, #401 ) ) ;
#159 = FACE_OUTER_BOUND ( 'NONE', #279, .T. ) ;
#160 = EDGE_CURVE ( 'NONE', #125, #99, #337, .T. ) ;
#161 = VECTOR ( 'NONE', #330, 1000.000000000000000 ) ;
#162 = AXIS2_PLACEMENT_3D ( 'NONE', #193, #230, #343 ) ;
#163 = PLANE ( 'NONE',  #296 ) ;
#164 = ADVANCED_FACE ( 'NONE', ( #208 ), #96, .T. ) ;
#165 = DIRECTION ( 'NONE',  ( -0.000000000000000000, -0.000000000000000000, 1.000000000000000000 ) ) ;
#166 = DIRECTION ( 'NONE',  ( 0.000000000000000000, -1.000000000000000000, 0.000000000000000000 ) ) ;
#167 = EDGE_CURVE ( 'NONE', #375, #223, #152, .T. ) ;
#168 = SECURITY_CLASSIFICATION_LEVEL ( 'unclassified' ) ;
#169 = CARTESIAN_POINT ( 'NONE',  ( 0.000000000000000000, 0.000000000000000000, 0.000000000000000000 ) ) ;
#170 = ADVANCED_FACE ( 'NONE', ( #116, #217 ), #240, .T. ) ;
#171 = EDGE_CURVE ( 'NONE', #69, #319, #300, .T. ) ;
#172 = APPROVAL_STATUS ( 'not_yet_approved' ) ;
#173 = ORIENTED_EDGE ( 'NONE', *, *, #286, .F. ) ;
#174 = PERSON_AND_ORGANIZATION ( #244, #213 ) ;
#175 = PERSON_AND_ORGANIZATION ( #244, #213 ) ;
#176 = VECTOR ( 'NONE', #323, 1000.000000000000000 ) ;
#177 = LOCAL_TIME ( 23, 2, 7.000000000000000000, #324 ) ;
#178 = DIRECTION ( 'NONE',  ( 1.000000000000000000, 0.000000000000000000, 0.000000000000000000 ) ) ;
#179 = CARTESIAN_POINT ( 'NONE',  ( 0.000000000000000000, 0.000000000000000000, -6.000000000000000000 ) ) ;
#180 = CC_DESIGN_PERSON_AND_ORGANIZATION_ASSIGNMENT ( #383, #110, ( #128 ) ) ;
#181 = CARTESIAN_POINT ( 'NONE',  ( 0.000000000000000000, 0.000000000000000000, -5.500000000000000000 ) ) ;
#182 = DIRECTION ( 'NONE',  ( 1.000000000000000000, 0.000000000000000000, 0.000000000000000000 ) ) ;
#183 = ORIENTED_EDGE ( 'NONE', *, *, #160, .F. ) ;
#184 = CARTESIAN_POINT ( 'NONE',  ( 0.000000000000000000, 0.000000000000000000, 0.000000000000000000 ) ) ;
#185 = EDGE_LOOP ( 'NONE', ( #338, #60, #340, #207 ) ) ;
#186 = FACE_OUTER_BOUND ( 'NONE', #255, .T. ) ;
#187 = TOROIDAL_SURFACE ( 'NONE', #43, 9.000000000000000000, 0.5000000000000000000 ) ;
#188 = AXIS2_PLACEMENT_3D ( 'NONE', #271, #341, #298 ) ;
#189 = CARTESIAN_POINT ( 'NONE',  ( -9.000000000000000000, 0.000000000000000000, -4.999999999999999112 ) ) ;
#190 = EDGE_LOOP ( 'NONE', ( #407, #199, #218, #216 ) ) ;
#191 = CARTESIAN_POINT ( 'NONE',  ( -9.000000000000000000, 1.102182119232617714E-15, -6.000000000000000000 ) ) ;
#192 = EDGE_LOOP ( 'NONE', ( #384, #123, #246, #198 ) ) ;
#193 = CARTESIAN_POINT ( 'NONE',  ( 0.000000000000000000, 0.000000000000000000, -5.500000000000000000 ) ) ;
#194 = CLOSED_SHELL ( 'NONE', ( #164, #333, #270, #147, #140, #327, #303, #380, #170, #241, #13, #76, #392 ) ) ;
#195 = LOCAL_TIME ( 23, 2, 7.000000000000000000, #262 ) ;
#196 = ORIENTED_EDGE ( 'NONE', *, *, #132, .T. ) ;
#197 = DIRECTION ( 'NONE',  ( -1.000000000000000000, 0.000000000000000000, -0.000000000000000000 ) ) ;
#198 = ORIENTED_EDGE ( 'NONE', *, *, #28, .F. ) ;
#199 = ORIENTED_EDGE ( 'NONE', *, *, #33, .T. ) ;
#200 = CARTESIAN_POINT ( 'NONE',  ( -9.000000000000000000, 1.102182119232617714E-15, 0.000000000000000000 ) ) ;
#201 = AXIS2_PLACEMENT_3D ( 'NONE', #361, #334, #56 ) ;
#202 = DATE_TIME_ROLE ( 'classification_date' ) ;
#203 = APPROVAL_STATUS ( 'not_yet_approved' ) ;
#204 = DATE_AND_TIME ( #389, #316 ) ;
#205 = TOROIDAL_SURFACE ( 'NONE', #24, 9.000000000000000000, 0.5000000000000000000 ) ;
#206 = AXIS2_PLACEMENT_3D ( 'NONE', #398, #94, #55 ) ;
#207 = ORIENTED_EDGE ( 'NONE', *, *, #167, .F. ) ;
#208 = FACE_OUTER_BOUND ( 'NONE', #265, .T. ) ;
#209 = APPROVAL_DATE_TIME ( #121, #48 ) ;
#210 = DIRECTION ( 'NONE',  ( -0.000000000000000000, -0.000000000000000000, 1.000000000000000000 ) ) ;
#211 = AXIS2_PLACEMENT_3D ( 'NONE', #66, #345, #369 ) ;
#212 = CARTESIAN_POINT ( 'NONE',  ( 10.50000000000000178, 1.316495309083404815E-15, 0.000000000000000000 ) ) ;
#213 = ORGANIZATION ( 'NEURÈENÝ', 'NEURÈENÝ', '' ) ;
#214 = APPROVAL_STATUS ( 'not_yet_approved' ) ;
#215 = DIRECTION ( 'NONE',  ( -1.000000000000000000, 0.000000000000000000, 0.000000000000000000 ) ) ;
#216 = ORIENTED_EDGE ( 'NONE', *, *, #293, .F. ) ;
#217 = FACE_OUTER_BOUND ( 'NONE', #84, .T. ) ;
#218 = ORIENTED_EDGE ( 'NONE', *, *, #256, .T. ) ;
#219 =( LENGTH_UNIT ( ) NAMED_UNIT ( * ) SI_UNIT ( .MILLI., .METRE. ) );
#220 = VECTOR ( 'NONE', #21, 1000.000000000000114 ) ;
#221 = CIRCLE ( 'NONE', #57, 8.499999999999998224 ) ;
#222 = DIRECTION ( 'NONE',  ( 1.000000000000000000, 0.000000000000000000, 0.000000000000000000 ) ) ;
#223 = VERTEX_POINT ( 'NONE', #359 ) ;
#224 = DIRECTION ( 'NONE',  ( -0.000000000000000000, -0.000000000000000000, 1.000000000000000000 ) ) ;
#225 = FACE_OUTER_BOUND ( 'NONE', #190, .T. ) ;
#226 = DIRECTION ( 'NONE',  ( 1.000000000000000000, 0.000000000000000000, 0.000000000000000000 ) ) ;
#227 = CIRCLE ( 'NONE', #14, 9.000000000000000000 ) ;
#228 = ORIENTED_EDGE ( 'NONE', *, *, #409, .F. ) ;
#229 = ADVANCED_BREP_SHAPE_REPRESENTATION ( '4c9e', ( #376, #336 ), #329 ) ;
#230 = DIRECTION ( 'NONE',  ( -0.000000000000000000, -0.000000000000000000, 1.000000000000000000 ) ) ;
#231 = EDGE_CURVE ( 'NONE', #319, #276, #105, .T. ) ;
#232 = PERSON_AND_ORGANIZATION_ROLE ( 'classification_officer' ) ;
#233 = ORIENTED_EDGE ( 'NONE', *, *, #58, .T. ) ;
#234 = CARTESIAN_POINT ( 'NONE',  ( -8.499999999999998224, 1.071565949253933927E-15, -5.500000000000000000 ) ) ;
#235 = CONICAL_SURFACE ( 'NONE', #117, 10.50000000000000178, 0.7853981633974482790 ) ;
#236 = CC_DESIGN_PERSON_AND_ORGANIZATION_ASSIGNMENT ( #175, #294, ( #371 ) ) ;
#237 = AXIS2_PLACEMENT_3D ( 'NONE', #126, #6, #247 ) ;
#238 = DIRECTION ( 'NONE',  ( 1.000000000000000000, 0.000000000000000000, 0.000000000000000000 ) ) ;
#239 = CYLINDRICAL_SURFACE ( 'NONE', #201, 9.000000000000000000 ) ;
#240 = PLANE ( 'NONE',  #188 ) ;
#241 = ADVANCED_FACE ( 'NONE', ( #118 ), #239, .T. ) ;
#242 = CC_DESIGN_APPROVAL ( #19, ( #146 ) ) ;
#243 = CARTESIAN_POINT ( 'NONE',  ( 11.00000000000000000, 0.000000000000000000, 0.000000000000000000 ) ) ;
#244 = PERSON ( 'NEURÈENÝ', 'NEURÈENÝ', 'NEURÈENÝ', ('NEURÈENÝ'), ('NEURÈENÝ'), ('NEURÈENÝ') ) ;
#245 = CARTESIAN_POINT ( 'NONE',  ( 0.000000000000000000, 0.000000000000000000, 0.000000000000000000 ) ) ;
#246 = ORIENTED_EDGE ( 'NONE', *, *, #231, .T. ) ;
#247 = DIRECTION ( 'NONE',  ( 1.000000000000000000, 0.000000000000000000, 0.000000000000000000 ) ) ;
#248 = ORIENTED_EDGE ( 'NONE', *, *, #151, .T. ) ;
#249 = CARTESIAN_POINT ( 'NONE',  ( 0.000000000000000000, 0.000000000000000000, -6.000000000000000000 ) ) ;
#250 = AXIS2_PLACEMENT_3D ( 'NONE', #20, #393, #365 ) ;
#251 = EDGE_CURVE ( 'NONE', #69, #307, #221, .T. ) ;
#252 = ORIENTED_EDGE ( 'NONE', *, *, #39, .F. ) ;
#253 = DIRECTION ( 'NONE',  ( -0.000000000000000000, -0.000000000000000000, 1.000000000000000000 ) ) ;
#254 = DIRECTION ( 'NONE',  ( 0.000000000000000000, 0.000000000000000000, -1.000000000000000000 ) ) ;
#255 = EDGE_LOOP ( 'NONE', ( #67, #228 ) ) ;
#256 = EDGE_CURVE ( 'NONE', #69, #304, #386, .T. ) ;
#257 = DIRECTION ( 'NONE',  ( 1.000000000000000000, 0.000000000000000000, 0.000000000000000000 ) ) ;
#258 = VECTOR ( 'NONE', #210, 1000.000000000000000 ) ;
#259 = SECURITY_CLASSIFICATION ( '', '', #168 ) ;
#260 = CARTESIAN_POINT ( 'NONE',  ( 0.000000000000000000, 0.000000000000000000, -5.500000000000000000 ) ) ;
#261 = EDGE_CURVE ( 'NONE', #223, #99, #283, .T. ) ;
#262 = COORDINATED_UNIVERSAL_TIME_OFFSET ( 1, 0, .AHEAD. ) ;
#263 = DIRECTION ( 'NONE',  ( -0.000000000000000000, -0.000000000000000000, 1.000000000000000000 ) ) ;
#264 = APPROVAL_DATE_TIME ( #297, #19 ) ;
#265 = EDGE_LOOP ( 'NONE', ( #137, #22, #317, #183 ) ) ;
#266 = CALENDAR_DATE ( 2024, 2, 1 ) ;
#267 = APPROVAL ( #203, 'NEURÈENÝ' ) ;
#268 = CIRCLE ( 'NONE', #322, 10.50000000000000178 ) ;
#269 = DIRECTION ( 'NONE',  ( 1.000000000000000000, 0.000000000000000000, 0.000000000000000000 ) ) ;
#270 = ADVANCED_FACE ( 'NONE', ( #127 ), #18, .F. ) ;
#271 = CARTESIAN_POINT ( 'NONE',  ( 0.000000000000000000, 11.00000000000000000, -5.000000000000000000 ) ) ;
#272 = VECTOR ( 'NONE', #302, 1000.000000000000114 ) ;
#273 = CARTESIAN_POINT ( 'NONE',  ( -11.00000000000000000, 1.347111479062088405E-15, -0.4999999999999970024 ) ) ;
#274 = DIRECTION ( 'NONE',  ( -0.000000000000000000, -0.000000000000000000, 1.000000000000000000 ) ) ;
#275 = DIRECTION ( 'NONE',  ( -1.000000000000000000, 1.224646799147353454E-16, 0.000000000000000000 ) ) ;
#276 = VERTEX_POINT ( 'NONE', #106 ) ;
#277 = AXIS2_PLACEMENT_3D ( 'NONE', #315, #73, #36 ) ;
#278 = CARTESIAN_POINT ( 'NONE',  ( -11.00000000000000000, 1.347111479062088405E-15, 0.000000000000000000 ) ) ;
#279 = EDGE_LOOP ( 'NONE', ( #52, #356, #173, #320 ) ) ;
#280 = DIRECTION ( 'NONE',  ( -0.000000000000000000, -0.000000000000000000, 1.000000000000000000 ) ) ;
#281 = ORIENTED_EDGE ( 'NONE', *, *, #89, .F. ) ;
#282 = CARTESIAN_POINT ( 'NONE',  ( 11.00000000000000000, 0.000000000000000000, -5.000000000000000000 ) ) ;
#283 = CIRCLE ( 'NONE', #358, 11.00000000000000000 ) ;
#284 = CARTESIAN_POINT ( 'NONE',  ( 0.000000000000000000, 9.000000000000000000, -25.00000000000000000 ) ) ;
#285 = EDGE_LOOP ( 'NONE', ( #196, #34, #25, #252 ) ) ;
#286 = EDGE_CURVE ( 'NONE', #304, #107, #130, .T. ) ;
#287 = CARTESIAN_POINT ( 'NONE',  ( 0.000000000000000000, 0.000000000000000000, -5.000000000000000000 ) ) ;
#288 = DIRECTION ( 'NONE',  ( 1.000000000000000000, 0.000000000000000000, 0.000000000000000000 ) ) ;
#289 = EDGE_CURVE ( 'NONE', #276, #319, #227, .T. ) ;
#290 = DATE_TIME_ROLE ( 'creation_date' ) ;
#291 = AXIS2_PLACEMENT_3D ( 'NONE', #313, #311, #156 ) ;
#292 = ORIENTED_EDGE ( 'NONE', *, *, #39, .T. ) ;
#293 = EDGE_CURVE ( 'NONE', #107, #304, #45, .T. ) ;
#294 = PERSON_AND_ORGANIZATION_ROLE ( 'design_owner' ) ;
#295 = CARTESIAN_POINT ( 'NONE',  ( 0.000000000000000000, 0.000000000000000000, -5.000000000000000000 ) ) ;
#296 = AXIS2_PLACEMENT_3D ( 'NONE', #284, #27, #197 ) ;
#297 = DATE_AND_TIME ( #141, #378 ) ;
#298 = DIRECTION ( 'NONE',  ( -1.000000000000000000, 0.000000000000000000, -0.000000000000000000 ) ) ;
#299 = DIRECTION ( 'NONE',  ( -0.000000000000000000, -0.000000000000000000, 1.000000000000000000 ) ) ;
#300 = CIRCLE ( 'NONE', #72, 0.5000000000000004441 ) ;
#301 = DIRECTION ( 'NONE',  ( 1.000000000000000000, 0.000000000000000000, 0.000000000000000000 ) ) ;
#302 = DIRECTION ( 'NONE',  ( -0.7071067811865474617, 0.000000000000000000, -0.7071067811865474617 ) ) ;
#303 = ADVANCED_FACE ( 'NONE', ( #372 ), #70, .T. ) ;
#304 = VERTEX_POINT ( 'NONE', #189 ) ;
#305 = CALENDAR_DATE ( 2024, 2, 1 ) ;
#306 = CARTESIAN_POINT ( 'NONE',  ( -10.50000000000000178, 0.000000000000000000, 0.000000000000000000 ) ) ;
#307 = VERTEX_POINT ( 'NONE', #310 ) ;
#308 = CIRCLE ( 'NONE', #377, 11.00000000000000000 ) ;
#309 = LOCAL_TIME ( 23, 2, 7.000000000000000000, #396 ) ;
#310 = CARTESIAN_POINT ( 'NONE',  ( 8.499999999999998224, 0.000000000000000000, -5.500000000000000000 ) ) ;
#311 = DIRECTION ( 'NONE',  ( 0.000000000000000000, 0.000000000000000000, -1.000000000000000000 ) ) ;
#312 = EDGE_LOOP ( 'NONE', ( #40, #233, #157, #92 ) ) ;
#313 = CARTESIAN_POINT ( 'NONE',  ( 0.000000000000000000, 0.000000000000000000, -5.500000000000000000 ) ) ;
#314 = ORIENTED_EDGE ( 'NONE', *, *, #53, .F. ) ;
#315 = CARTESIAN_POINT ( 'NONE',  ( 0.000000000000000000, 0.000000000000000000, 0.000000000000000000 ) ) ;
#316 = LOCAL_TIME ( 23, 2, 7.000000000000000000, #47 ) ;
#317 = ORIENTED_EDGE ( 'NONE', *, *, #63, .F. ) ;
#318 = DIRECTION ( 'NONE',  ( 1.000000000000000000, 0.000000000000000000, 0.000000000000000000 ) ) ;
#319 = VERTEX_POINT ( 'NONE', #191 ) ;
#320 = ORIENTED_EDGE ( 'NONE', *, *, #256, .F. ) ;
#321 = APPROVAL_ROLE ( '' ) ;
#322 = AXIS2_PLACEMENT_3D ( 'NONE', #245, #62, #238 ) ;
#323 = DIRECTION ( 'NONE',  ( -0.000000000000000000, -0.000000000000000000, 1.000000000000000000 ) ) ;
#324 = COORDINATED_UNIVERSAL_TIME_OFFSET ( 1, 0, .AHEAD. ) ;
#325 = APPROVAL_ROLE ( '' ) ;
#326 = MECHANICAL_CONTEXT ( 'NONE', #387, 'mechanical' ) ;
#327 = ADVANCED_FACE ( 'NONE', ( #186 ), #163, .T. ) ;
#328 = CIRCLE ( 'NONE', #154, 11.00000000000000000 ) ;
#329 =( GEOMETRIC_REPRESENTATION_CONTEXT ( 3 ) GLOBAL_UNCERTAINTY_ASSIGNED_CONTEXT ( ( #8 ) ) GLOBAL_UNIT_ASSIGNED_CONTEXT ( ( #219, #408, #44 ) ) REPRESENTATION_CONTEXT ( 'NONE', 'WORKASPACE' ) );
#330 = DIRECTION ( 'NONE',  ( -0.000000000000000000, -0.000000000000000000, 1.000000000000000000 ) ) ;
#331 = APPLICATION_CONTEXT ( 'configuration controlled 3d designs of mechanical parts and assemblies' ) ;
#332 = CARTESIAN_POINT ( 'NONE',  ( 0.000000000000000000, 0.000000000000000000, 0.000000000000000000 ) ) ;
#333 = ADVANCED_FACE ( 'NONE', ( #159 ), #348, .F. ) ;
#334 = DIRECTION ( 'NONE',  ( -0.000000000000000000, -0.000000000000000000, 1.000000000000000000 ) ) ;
#335 = CIRCLE ( 'NONE', #115, 8.499999999999998224 ) ;
#336 = AXIS2_PLACEMENT_3D ( 'NONE', #15, #355, #269 ) ;
#337 = LINE ( 'NONE', #150, #272 ) ;
#338 = ORIENTED_EDGE ( 'NONE', *, *, #405, .T. ) ;
#339 = CARTESIAN_POINT ( 'NONE',  ( 9.000000000000000000, 1.102182119232617714E-15, -4.999999999999999112 ) ) ;
#340 = ORIENTED_EDGE ( 'NONE', *, *, #63, .T. ) ;
#341 = DIRECTION ( 'NONE',  ( 0.000000000000000000, 0.000000000000000000, -1.000000000000000000 ) ) ;
#342 = VECTOR ( 'NONE', #124, 1000.000000000000000 ) ;
#343 = DIRECTION ( 'NONE',  ( 1.000000000000000000, 0.000000000000000000, 0.000000000000000000 ) ) ;
#344 = EDGE_LOOP ( 'NONE', ( #281, #30, #404, #77 ) ) ;
#345 = DIRECTION ( 'NONE',  ( -0.000000000000000000, -0.000000000000000000, 1.000000000000000000 ) ) ;
#346 = ORIENTED_EDGE ( 'NONE', *, *, #171, .F. ) ;
#347 = DIRECTION ( 'NONE',  ( -1.000000000000000000, 0.000000000000000000, 0.000000000000000000 ) ) ;
#348 = TOROIDAL_SURFACE ( 'NONE', #291, 9.000000000000000000, 0.5000000000000000000 ) ;
#349 = ORIENTED_EDGE ( 'NONE', *, *, #28, .T. ) ;
#350 = CARTESIAN_POINT ( 'NONE',  ( -9.000000000000000000, 0.000000000000000000, -5.500000000000000000 ) ) ;
#351 = ORIENTED_EDGE ( 'NONE', *, *, #58, .F. ) ;
#352 = DIRECTION ( 'NONE',  ( -0.000000000000000000, -0.000000000000000000, 1.000000000000000000 ) ) ;
#353 = PERSON_AND_ORGANIZATION_ROLE ( 'creator' ) ;
#354 = AXIS2_PLACEMENT_3D ( 'NONE', #287, #224, #347 ) ;
#355 = DIRECTION ( 'NONE',  ( 0.000000000000000000, 0.000000000000000000, 1.000000000000000000 ) ) ;
#356 = ORIENTED_EDGE ( 'NONE', *, *, #155, .T. ) ;
#357 = AXIS2_PLACEMENT_3D ( 'NONE', #88, #93, #182 ) ;
#358 = AXIS2_PLACEMENT_3D ( 'NONE', #100, #5, #257 ) ;
#359 = CARTESIAN_POINT ( 'NONE',  ( 11.00000000000000000, 0.000000000000000000, -0.4999999999999970024 ) ) ;
#360 = PRODUCT_DEFINITION_SHAPE ( 'NONE', 'NONE',  #128 ) ;
#361 = CARTESIAN_POINT ( 'NONE',  ( 0.000000000000000000, 0.000000000000000000, 0.000000000000000000 ) ) ;
#362 = CYLINDRICAL_SURFACE ( 'NONE', #35, 11.00000000000000000 ) ;
#363 = ORIENTED_EDGE ( 'NONE', *, *, #33, .F. ) ;
#364 = APPROVAL_PERSON_ORGANIZATION ( #75, #19, #321 ) ;
#365 = DIRECTION ( 'NONE',  ( 1.000000000000000000, 0.000000000000000000, 0.000000000000000000 ) ) ;
#366 = ORIENTED_EDGE ( 'NONE', *, *, #286, .T. ) ;
#367 = DIRECTION ( 'NONE',  ( 0.000000000000000000, 0.000000000000000000, -1.000000000000000000 ) ) ;
#368 = CC_DESIGN_DATE_AND_TIME_ASSIGNMENT ( #80, #202, ( #259 ) ) ;
#369 = DIRECTION ( 'NONE',  ( -1.000000000000000000, 0.000000000000000000, 0.000000000000000000 ) ) ;
#370 = VERTEX_POINT ( 'NONE', #32 ) ;
#371 = PRODUCT ( '4c9e', '4c9e', '', ( #326 ) ) ;
#372 = FACE_OUTER_BOUND ( 'NONE', #1, .T. ) ;
#373 = ORIENTED_EDGE ( 'NONE', *, *, #405, .F. ) ;
#374 = FACE_OUTER_BOUND ( 'NONE', #312, .T. ) ;
#375 = VERTEX_POINT ( 'NONE', #282 ) ;
#376 = MANIFOLD_SOLID_BREP ( 'Zkosení1', #194 ) ;
#377 = AXIS2_PLACEMENT_3D ( 'NONE', #101, #12, #144 ) ;
#378 = LOCAL_TIME ( 23, 2, 7.000000000000000000, #50 ) ;
#379 = CARTESIAN_POINT ( 'NONE',  ( 9.000000000000000000, 0.000000000000000000, 0.000000000000000000 ) ) ;
#380 = ADVANCED_FACE ( 'NONE', ( #374 ), #29, .T. ) ;
#381 = ORIENTED_EDGE ( 'NONE', *, *, #49, .T. ) ;
#382 = DESIGN_CONTEXT ( 'detailed design', #331, 'design' ) ;
#383 = PERSON_AND_ORGANIZATION ( #244, #213 ) ;
#384 = ORIENTED_EDGE ( 'NONE', *, *, #251, .F. ) ;
#385 = AXIS2_PLACEMENT_3D ( 'NONE', #169, #263, #178 ) ;
#386 = CIRCLE ( 'NONE', #402, 0.5000000000000004441 ) ;
#387 = APPLICATION_CONTEXT ( 'configuration controlled 3d designs of mechanical parts and assemblies' ) ;
#388 = AXIS2_PLACEMENT_3D ( 'NONE', #179, #299, #17 ) ;
#389 = CALENDAR_DATE ( 2024, 2, 1 ) ;
#390 = CC_DESIGN_PERSON_AND_ORGANIZATION_ASSIGNMENT ( #9, #232, ( #259 ) ) ;
#391 = PERSON_AND_ORGANIZATION ( #244, #213 ) ;
#392 = ADVANCED_FACE ( 'NONE', ( #3 ), #235, .T. ) ;
#393 = DIRECTION ( 'NONE',  ( -0.000000000000000000, -0.000000000000000000, 1.000000000000000000 ) ) ;
#394 = CIRCLE ( 'NONE', #385, 10.50000000000000178 ) ;
#395 = CC_DESIGN_SECURITY_CLASSIFICATION ( #259, ( #146 ) ) ;
#396 = COORDINATED_UNIVERSAL_TIME_OFFSET ( 1, 0, .AHEAD. ) ;
#397 = FACE_OUTER_BOUND ( 'NONE', #285, .T. ) ;
#398 = CARTESIAN_POINT ( 'NONE',  ( 9.000000000000000000, 1.102182119232617714E-15, -5.500000000000000000 ) ) ;
#399 = CARTESIAN_POINT ( 'NONE',  ( 10.50000000000000178, 1.285879139104721028E-15, 0.000000000000000000 ) ) ;
#400 = CIRCLE ( 'NONE', #104, 0.5000000000000004441 ) ;
#401 = ORIENTED_EDGE ( 'NONE', *, *, #289, .T. ) ;
#402 = AXIS2_PLACEMENT_3D ( 'NONE', #350, #136, #97 ) ;
#403 = CYLINDRICAL_SURFACE ( 'NONE', #250, 9.000000000000000000 ) ;
#404 = ORIENTED_EDGE ( 'NONE', *, *, #160, .T. ) ;
#405 = EDGE_CURVE ( 'NONE', #375, #64, #113, .T. ) ;
#406 = DIRECTION ( 'NONE',  ( 1.000000000000000000, 0.000000000000000000, 0.000000000000000000 ) ) ;
#407 = ORIENTED_EDGE ( 'NONE', *, *, #155, .F. ) ;
#408 =( NAMED_UNIT ( * ) PLANE_ANGLE_UNIT ( ) SI_UNIT ( $, .RADIAN. ) );
#409 = EDGE_CURVE ( 'NONE', #95, #370, #65, .T. ) ;
ENDSEC;
END-ISO-10303-21;
