ISO-10303-21;
HEADER;
FILE_DESCRIPTION (( 'STEP AP203' ),
    '1' );
FILE_NAME ('3367.STEP',
    '2022-06-20T09:46:12',
    ( '' ),
    ( '' ),
    'SwSTEP 2.0',
    'SolidWorks 2019',
    '' );
FILE_SCHEMA (( 'CONFIG_CONTROL_DESIGN' ));
ENDSEC;

DATA;
#1 = ORIENTED_EDGE ( 'NONE', *, *, #34, .F. ) ;
#2 = DATE_AND_TIME ( #266, #18 ) ;
#3 = CC_DESIGN_APPROVAL ( #104, ( #270 ) ) ;
#4 = ORIENTED_EDGE ( 'NONE', *, *, #68, .T. ) ;
#5 = ORIENTED_EDGE ( 'NONE', *, *, #48, .T. ) ;
#6 = CARTESIAN_POINT ( 'NONE',  ( 7.000000000000000000, 8.572527594031473190E-16, 0.000000000000000000 ) ) ;
#7 = VECTOR ( 'NONE', #36, 1000.000000000000000 ) ;
#8 = DIRECTION ( 'NONE',  ( 0.000000000000000000, 0.000000000000000000, 1.000000000000000000 ) ) ;
#9 = DIRECTION ( 'NONE',  ( 1.000000000000000000, 0.000000000000000000, 0.000000000000000000 ) ) ;
#10 = APPROVAL ( #137, 'NEURÈENÝ' ) ;
#11 = CLOSED_SHELL ( 'NONE', ( #120, #128, #158, #213, #230, #248, #145, #116, #286 ) ) ;
#12 = ORIENTED_EDGE ( 'NONE', *, *, #13, .T. ) ;
#13 = EDGE_CURVE ( 'NONE', #39, #81, #122, .T. ) ;
#14 = FACE_OUTER_BOUND ( 'NONE', #41, .T. ) ;
#15 = LOCAL_TIME ( 11, 46, 12.00000000000000000, #65 ) ;
#16 = CARTESIAN_POINT ( 'NONE',  ( -7.000000000000000000, 0.000000000000000000, 0.000000000000000000 ) ) ;
#17 = EDGE_LOOP ( 'NONE', ( #284, #180, #52, #21 ) ) ;
#18 = LOCAL_TIME ( 11, 46, 12.00000000000000000, #178 ) ;
#19 = PERSON_AND_ORGANIZATION ( #123, #79 ) ;
#20 = CIRCLE ( 'NONE', #136, 4.099999999999999645 ) ;
#21 = ORIENTED_EDGE ( 'NONE', *, *, #179, .T. ) ;
#22 = ORIENTED_EDGE ( 'NONE', *, *, #43, .F. ) ;
#23 = PRODUCT_RELATED_PRODUCT_CATEGORY ( 'detail', '', ( #117 ) ) ;
#24 = APPROVAL_DATE_TIME ( #42, #104 ) ;
#25 = EDGE_LOOP ( 'NONE', ( #165, #115 ) ) ;
#26 = PERSON_AND_ORGANIZATION ( #123, #79 ) ;
#27 = PRODUCT_DEFINITION_FORMATION_WITH_SPECIFIED_SOURCE ( 'LIBOVOLNÝ', '', #117, .NOT_KNOWN. ) ;
#28 = DIRECTION ( 'NONE',  ( 1.000000000000000000, 0.000000000000000000, 0.000000000000000000 ) ) ;
#29 = EDGE_LOOP ( 'NONE', ( #157, #263 ) ) ;
#30 = DATE_AND_TIME ( #75, #55 ) ;
#31 = DIRECTION ( 'NONE',  ( -0.000000000000000000, -0.000000000000000000, -1.000000000000000000 ) ) ;
#32 = EDGE_CURVE ( 'NONE', #110, #39, #172, .T. ) ;
#33 = CARTESIAN_POINT ( 'NONE',  ( 0.000000000000000000, 0.000000000000000000, 805.0000000000000000 ) ) ;
#34 = EDGE_CURVE ( 'NONE', #83, #229, #189, .T. ) ;
#35 = AXIS2_PLACEMENT_3D ( 'NONE', #220, #121, #94 ) ;
#36 = DIRECTION ( 'NONE',  ( -0.000000000000000000, -0.000000000000000000, -1.000000000000000000 ) ) ;
#37 = EDGE_CURVE ( 'NONE', #229, #305, #143, .T. ) ;
#38 = CYLINDRICAL_SURFACE ( 'NONE', #203, 7.000000000000000000 ) ;
#39 = VERTEX_POINT ( 'NONE', #233 ) ;
#40 = DIRECTION ( 'NONE',  ( 1.000000000000000000, 0.000000000000000000, -0.000000000000000000 ) ) ;
#41 = EDGE_LOOP ( 'NONE', ( #49, #169 ) ) ;
#42 = DATE_AND_TIME ( #304, #111 ) ;
#43 = EDGE_CURVE ( 'NONE', #295, #229, #196, .T. ) ;
#44 = CARTESIAN_POINT ( 'NONE',  ( -7.000000000000000000, 0.000000000000000000, 5.000000000000000000 ) ) ;
#45 = AXIS2_PLACEMENT_3D ( 'NONE', #283, #138, #187 ) ;
#46 = APPROVAL_DATE_TIME ( #257, #10 ) ;
#47 = DIRECTION ( 'NONE',  ( 1.224646799147353207E-16, 1.000000000000000000, -0.000000000000000000 ) ) ;
#48 = EDGE_CURVE ( 'NONE', #256, #81, #93, .T. ) ;
#49 = ORIENTED_EDGE ( 'NONE', *, *, #32, .T. ) ;
#50 = EDGE_LOOP ( 'NONE', ( #59, #61 ) ) ;
#51 = CIRCLE ( 'NONE', #90, 4.099999999999999645 ) ;
#52 = ORIENTED_EDGE ( 'NONE', *, *, #43, .T. ) ;
#53 = PLANE ( 'NONE',  #64 ) ;
#54 = DIRECTION ( 'NONE',  ( 1.000000000000000000, 0.000000000000000000, 0.000000000000000000 ) ) ;
#55 = LOCAL_TIME ( 11, 46, 12.00000000000000000, #148 ) ;
#56 = APPROVAL ( #73, 'NEURÈENÝ' ) ;
#57 = CIRCLE ( 'NONE', #245, 0.1999999999999996503 ) ;
#58 = CARTESIAN_POINT ( 'NONE',  ( 0.000000000000000000, 0.000000000000000000, 5.199999999999982414 ) ) ;
#59 = ORIENTED_EDGE ( 'NONE', *, *, #48, .F. ) ;
#60 = DIRECTION ( 'NONE',  ( 0.000000000000000000, 0.000000000000000000, 1.000000000000000000 ) ) ;
#61 = ORIENTED_EDGE ( 'NONE', *, *, #202, .F. ) ;
#62 = DATE_TIME_ROLE ( 'creation_date' ) ;
#63 = EDGE_CURVE ( 'NONE', #300, #305, #301, .T. ) ;
#64 = AXIS2_PLACEMENT_3D ( 'NONE', #177, #206, #40 ) ;
#65 = COORDINATED_UNIVERSAL_TIME_OFFSET ( 1, 0, .AHEAD. ) ;
#66 = CARTESIAN_POINT ( 'NONE',  ( 0.000000000000000000, 0.000000000000000000, 805.0000000000000000 ) ) ;
#67 = PERSON_AND_ORGANIZATION ( #123, #79 ) ;
#68 = EDGE_CURVE ( 'NONE', #108, #83, #219, .T. ) ;
#69 = ORIENTED_EDGE ( 'NONE', *, *, #37, .F. ) ;
#70 = PRODUCT_DEFINITION_SHAPE ( 'NONE', 'NONE',  #270 ) ;
#71 = DIRECTION ( 'NONE',  ( -0.000000000000000000, -0.000000000000000000, -1.000000000000000000 ) ) ;
#72 = ORIENTED_EDGE ( 'NONE', *, *, #125, .F. ) ;
#73 = APPROVAL_STATUS ( 'not_yet_approved' ) ;
#74 = CARTESIAN_POINT ( 'NONE',  ( 0.000000000000000000, 0.000000000000000000, 0.000000000000000000 ) ) ;
#75 = CALENDAR_DATE ( 2022, 20, 6 ) ;
#76 = CARTESIAN_POINT ( 'NONE',  ( 0.000000000000000000, 0.000000000000000000, 5.000000000000000000 ) ) ;
#77 = DIRECTION ( 'NONE',  ( -1.000000000000000000, 0.000000000000000000, 0.000000000000000000 ) ) ;
#78 = PERSON_AND_ORGANIZATION ( #123, #79 ) ;
#79 = ORGANIZATION ( 'NEURÈENÝ', 'NEURÈENÝ', '' ) ;
#80 = CARTESIAN_POINT ( 'NONE',  ( 0.000000000000000000, 0.000000000000000000, 0.000000000000000000 ) ) ;
#81 = VERTEX_POINT ( 'NONE', #6 ) ;
#82 = LINE ( 'NONE', #107, #7 ) ;
#83 = VERTEX_POINT ( 'NONE', #140 ) ;
#84 = AXIS2_PLACEMENT_3D ( 'NONE', #243, #109, #247 ) ;
#85 = FACE_OUTER_BOUND ( 'NONE', #17, .T. ) ;
#86 = EDGE_LOOP ( 'NONE', ( #69, #1, #160, #72 ) ) ;
#87 = CALENDAR_DATE ( 2022, 20, 6 ) ;
#88 = ORIENTED_EDGE ( 'NONE', *, *, #280, .F. ) ;
#89 = EDGE_CURVE ( 'NONE', #83, #300, #57, .T. ) ;
#90 = AXIS2_PLACEMENT_3D ( 'NONE', #112, #289, #9 ) ;
#91 =( NAMED_UNIT ( * ) PLANE_ANGLE_UNIT ( ) SI_UNIT ( $, .RADIAN. ) );
#92 = COORDINATED_UNIVERSAL_TIME_OFFSET ( 1, 0, .AHEAD. ) ;
#93 = CIRCLE ( 'NONE', #127, 7.000000000000000000 ) ;
#94 = DIRECTION ( 'NONE',  ( 1.000000000000000000, 0.000000000000000000, 0.000000000000000000 ) ) ;
#95 = PERSON_AND_ORGANIZATION ( #123, #79 ) ;
#96 = EDGE_LOOP ( 'NONE', ( #88, #4, #265, #22 ) ) ;
#97 = ORIENTED_EDGE ( 'NONE', *, *, #182, .T. ) ;
#98 = CARTESIAN_POINT ( 'NONE',  ( 7.000000000000000000, 8.572527594031473190E-16, 5.000000000000000000 ) ) ;
#99 = CARTESIAN_POINT ( 'NONE',  ( 4.099999999999999645, 5.021051876504147385E-16, 805.0000000000000000 ) ) ;
#100 = PERSON_AND_ORGANIZATION ( #123, #79 ) ;
#101 = CC_DESIGN_APPROVAL ( #10, ( #27 ) ) ;
#102 = FACE_BOUND ( 'NONE', #25, .T. ) ;
#103 = PERSON_AND_ORGANIZATION_ROLE ( 'creator' ) ;
#104 = APPROVAL ( #214, 'NEURÈENÝ' ) ;
#105 = FACE_OUTER_BOUND ( 'NONE', #86, .T. ) ;
#106 = CIRCLE ( 'NONE', #279, 7.000000000000000000 ) ;
#107 = CARTESIAN_POINT ( 'NONE',  ( -7.000000000000000000, 0.000000000000000000, 5.000000000000000000 ) ) ;
#108 = VERTEX_POINT ( 'NONE', #99 ) ;
#109 = DIRECTION ( 'NONE',  ( -0.000000000000000000, -0.000000000000000000, -1.000000000000000000 ) ) ;
#110 = VERTEX_POINT ( 'NONE', #44 ) ;
#111 = LOCAL_TIME ( 11, 46, 12.00000000000000000, #190 ) ;
#112 = CARTESIAN_POINT ( 'NONE',  ( 0.000000000000000000, 0.000000000000000000, 805.0000000000000000 ) ) ;
#113 = CC_DESIGN_SECURITY_CLASSIFICATION ( #296, ( #27 ) ) ;
#114 = DIRECTION ( 'NONE',  ( 1.000000000000000000, 0.000000000000000000, 0.000000000000000000 ) ) ;
#115 = ORIENTED_EDGE ( 'NONE', *, *, #125, .T. ) ;
#116 = ADVANCED_FACE ( 'NONE', ( #215 ), #197, .T. ) ;
#117 = PRODUCT ( '3367', '3367', '', ( #278 ) ) ;
#118 = DIRECTION ( 'NONE',  ( -0.000000000000000000, -0.000000000000000000, -1.000000000000000000 ) ) ;
#119 = DIRECTION ( 'NONE',  ( 1.000000000000000000, 0.000000000000000000, 0.000000000000000000 ) ) ;
#120 = ADVANCED_FACE ( 'NONE', ( #274 ), #139, .F. ) ;
#121 = DIRECTION ( 'NONE',  ( -0.000000000000000000, -0.000000000000000000, -1.000000000000000000 ) ) ;
#122 = LINE ( 'NONE', #98, #163 ) ;
#123 = PERSON ( 'NEURÈENÝ', 'NEURÈENÝ', 'NEURÈENÝ', ('NEURÈENÝ'), ('NEURÈENÝ'), ('NEURÈENÝ') ) ;
#124 = FACE_OUTER_BOUND ( 'NONE', #207, .T. ) ;
#125 = EDGE_CURVE ( 'NONE', #305, #300, #151, .T. ) ;
#126 = FACE_OUTER_BOUND ( 'NONE', #50, .T. ) ;
#127 = AXIS2_PLACEMENT_3D ( 'NONE', #74, #217, #167 ) ;
#128 = ADVANCED_FACE ( 'NONE', ( #185 ), #150, .T. ) ;
#129 = LOCAL_TIME ( 11, 46, 12.00000000000000000, #92 ) ;
#130 = DIRECTION ( 'NONE',  ( 0.000000000000000000, 0.000000000000000000, 1.000000000000000000 ) ) ;
#131 = AXIS2_PLACEMENT_3D ( 'NONE', #194, #238, #119 ) ;
#132 = AXIS2_PLACEMENT_3D ( 'NONE', #242, #276, #154 ) ;
#133 = DIRECTION ( 'NONE',  ( -0.000000000000000000, -0.000000000000000000, -1.000000000000000000 ) ) ;
#134 = EDGE_LOOP ( 'NONE', ( #259, #277, #146, #186 ) ) ;
#135 = DIRECTION ( 'NONE',  ( 1.000000000000000000, 0.000000000000000000, 0.000000000000000000 ) ) ;
#136 = AXIS2_PLACEMENT_3D ( 'NONE', #58, #225, #135 ) ;
#137 = APPROVAL_STATUS ( 'not_yet_approved' ) ;
#138 = DIRECTION ( 'NONE',  ( 0.000000000000000000, 0.000000000000000000, 1.000000000000000000 ) ) ;
#139 = TOROIDAL_SURFACE ( 'NONE', #132, 4.299999999999998934, 0.2000000000000000111 ) ;
#140 = CARTESIAN_POINT ( 'NONE',  ( 4.099999999999999645, 5.021051876504147385E-16, 5.199999999999982414 ) ) ;
#141 = DIRECTION ( 'NONE',  ( 0.000000000000000000, 0.000000000000000000, 1.000000000000000000 ) ) ;
#142 =( LENGTH_UNIT ( ) NAMED_UNIT ( * ) SI_UNIT ( .MILLI., .METRE. ) );
#143 = CIRCLE ( 'NONE', #210, 0.1999999999999996503 ) ;
#144 = DIRECTION ( 'NONE',  ( -0.000000000000000000, -0.000000000000000000, -1.000000000000000000 ) ) ;
#145 = ADVANCED_FACE ( 'NONE', ( #85 ), #227, .T. ) ;
#146 = ORIENTED_EDGE ( 'NONE', *, *, #63, .F. ) ;
#147 = CIRCLE ( 'NONE', #253, 7.000000000000000000 ) ;
#148 = COORDINATED_UNIVERSAL_TIME_OFFSET ( 1, 0, .AHEAD. ) ;
#149 = CARTESIAN_POINT ( 'NONE',  ( 4.299999999999998934, 0.000000000000000000, 5.199999999999982414 ) ) ;
#150 = CYLINDRICAL_SURFACE ( 'NONE', #272, 4.099999999999999645 ) ;
#151 = CIRCLE ( 'NONE', #155, 4.299999999999998934 ) ;
#152 = CARTESIAN_POINT ( 'NONE',  ( 0.000000000000000000, 0.000000000000000000, 0.000000000000000000 ) ) ;
#153 = AXIS2_PLACEMENT_3D ( 'NONE', #80, #60, #228 ) ;
#154 = DIRECTION ( 'NONE',  ( 1.000000000000000000, 0.000000000000000000, 0.000000000000000000 ) ) ;
#155 = AXIS2_PLACEMENT_3D ( 'NONE', #200, #201, #251 ) ;
#156 = FACE_OUTER_BOUND ( 'NONE', #250, .T. ) ;
#157 = ORIENTED_EDGE ( 'NONE', *, *, #223, .T. ) ;
#158 = ADVANCED_FACE ( 'NONE', ( #124 ), #38, .T. ) ;
#159 = CARTESIAN_POINT ( 'NONE',  ( 0.000000000000000000, 0.000000000000000000, 805.0000000000000000 ) ) ;
#160 = ORIENTED_EDGE ( 'NONE', *, *, #89, .T. ) ;
#161 = CIRCLE ( 'NONE', #168, 4.099999999999999645 ) ;
#162 = DATE_AND_TIME ( #87, #15 ) ;
#163 = VECTOR ( 'NONE', #144, 1000.000000000000000 ) ;
#164 = APPLICATION_PROTOCOL_DEFINITION ( 'international standard', 'config_control_design', 1994, #262 ) ;
#165 = ORIENTED_EDGE ( 'NONE', *, *, #63, .T. ) ;
#166 = CALENDAR_DATE ( 2022, 20, 6 ) ;
#167 = DIRECTION ( 'NONE',  ( 1.000000000000000000, 0.000000000000000000, 0.000000000000000000 ) ) ;
#168 = AXIS2_PLACEMENT_3D ( 'NONE', #159, #130, #271 ) ;
#169 = ORIENTED_EDGE ( 'NONE', *, *, #234, .T. ) ;
#170 = CC_DESIGN_DATE_AND_TIME_ASSIGNMENT ( #30, #218, ( #296 ) ) ;
#171 = APPROVAL_ROLE ( '' ) ;
#172 = CIRCLE ( 'NONE', #204, 7.000000000000000000 ) ;
#173 = CARTESIAN_POINT ( 'NONE',  ( -4.299999999999998934, 5.265981236333617484E-16, 5.199999999999982414 ) ) ;
#174 = CARTESIAN_POINT ( 'NONE',  ( 4.099999999999999645, 5.021051876504147385E-16, 805.0000000000000000 ) ) ;
#175 = CC_DESIGN_APPROVAL ( #56, ( #296 ) ) ;
#176 = DIRECTION ( 'NONE',  ( 1.000000000000000000, 0.000000000000000000, -0.000000000000000000 ) ) ;
#177 = CARTESIAN_POINT ( 'NONE',  ( 0.000000000000000000, 0.000000000000000000, 5.000000000000000000 ) ) ;
#178 = COORDINATED_UNIVERSAL_TIME_OFFSET ( 1, 0, .AHEAD. ) ;
#179 = EDGE_CURVE ( 'NONE', #229, #83, #20, .T. ) ;
#180 = ORIENTED_EDGE ( 'NONE', *, *, #223, .F. ) ;
#181 = DESIGN_CONTEXT ( 'detailed design', #262, 'design' ) ;
#182 = EDGE_CURVE ( 'NONE', #110, #256, #82, .T. ) ;
#183 = DIRECTION ( 'NONE',  ( 0.000000000000000000, 0.000000000000000000, 1.000000000000000000 ) ) ;
#184 = AXIS2_PLACEMENT_3D ( 'NONE', #76, #133, #77 ) ;
#185 = FACE_OUTER_BOUND ( 'NONE', #96, .T. ) ;
#186 = ORIENTED_EDGE ( 'NONE', *, *, #89, .F. ) ;
#187 = DIRECTION ( 'NONE',  ( 1.000000000000000000, 0.000000000000000000, 0.000000000000000000 ) ) ;
#188 = DIRECTION ( 'NONE',  ( 0.000000000000000000, 0.000000000000000000, 1.000000000000000000 ) ) ;
#189 = CIRCLE ( 'NONE', #131, 4.099999999999999645 ) ;
#190 = COORDINATED_UNIVERSAL_TIME_OFFSET ( 1, 0, .AHEAD. ) ;
#191 = DIRECTION ( 'NONE',  ( 0.000000000000000000, -1.000000000000000000, 0.000000000000000000 ) ) ;
#192 = CC_DESIGN_DATE_AND_TIME_ASSIGNMENT ( #162, #62, ( #270 ) ) ;
#193 = DIRECTION ( 'NONE',  ( 0.000000000000000000, 0.000000000000000000, 1.000000000000000000 ) ) ;
#194 = CARTESIAN_POINT ( 'NONE',  ( 0.000000000000000000, 0.000000000000000000, 5.199999999999982414 ) ) ;
#195 = APPLICATION_CONTEXT ( 'configuration controlled 3d designs of mechanical parts and assemblies' ) ;
#196 = LINE ( 'NONE', #282, #226 ) ;
#197 = PLANE ( 'NONE',  #306 ) ;
#198 = CC_DESIGN_PERSON_AND_ORGANIZATION_ASSIGNMENT ( #281, #260, ( #117 ) ) ;
#199 = SHAPE_DEFINITION_REPRESENTATION ( #70, #246 ) ;
#200 = CARTESIAN_POINT ( 'NONE',  ( 0.000000000000000000, 0.000000000000000000, 5.000000000000000000 ) ) ;
#201 = DIRECTION ( 'NONE',  ( -0.000000000000000000, -0.000000000000000000, -1.000000000000000000 ) ) ;
#202 = EDGE_CURVE ( 'NONE', #81, #256, #106, .T. ) ;
#203 = AXIS2_PLACEMENT_3D ( 'NONE', #291, #293, #221 ) ;
#204 = AXIS2_PLACEMENT_3D ( 'NONE', #237, #141, #28 ) ;
#205 = CARTESIAN_POINT ( 'NONE',  ( -4.099999999999999645, 0.000000000000000000, 5.199999999999982414 ) ) ;
#206 = DIRECTION ( 'NONE',  ( 0.000000000000000000, 0.000000000000000000, 1.000000000000000000 ) ) ;
#207 = EDGE_LOOP ( 'NONE', ( #275, #12, #285, #261 ) ) ;
#208 =( GEOMETRIC_REPRESENTATION_CONTEXT ( 3 ) GLOBAL_UNCERTAINTY_ASSIGNED_CONTEXT ( ( #292 ) ) GLOBAL_UNIT_ASSIGNED_CONTEXT ( ( #142, #91, #252 ) ) REPRESENTATION_CONTEXT ( 'NONE', 'WORKASPACE' ) );
#209 = PERSON_AND_ORGANIZATION ( #123, #79 ) ;
#210 = AXIS2_PLACEMENT_3D ( 'NONE', #173, #47, #287 ) ;
#211 = APPROVAL_ROLE ( '' ) ;
#212 = ORIENTED_EDGE ( 'NONE', *, *, #32, .F. ) ;
#213 = ADVANCED_FACE ( 'NONE', ( #156 ), #249, .T. ) ;
#214 = APPROVAL_STATUS ( 'not_yet_approved' ) ;
#215 = FACE_OUTER_BOUND ( 'NONE', #29, .T. ) ;
#216 = SECURITY_CLASSIFICATION_LEVEL ( 'unclassified' ) ;
#217 = DIRECTION ( 'NONE',  ( 0.000000000000000000, 0.000000000000000000, 1.000000000000000000 ) ) ;
#218 = DATE_TIME_ROLE ( 'classification_date' ) ;
#219 = LINE ( 'NONE', #174, #269 ) ;
#220 = CARTESIAN_POINT ( 'NONE',  ( 0.000000000000000000, 0.000000000000000000, 5.000000000000000000 ) ) ;
#221 = DIRECTION ( 'NONE',  ( -1.000000000000000000, 0.000000000000000000, 0.000000000000000000 ) ) ;
#222 = PLANE ( 'NONE',  #153 ) ;
#223 = EDGE_CURVE ( 'NONE', #295, #108, #161, .T. ) ;
#224 = APPROVAL_PERSON_ORGANIZATION ( #19, #104, #211 ) ;
#225 = DIRECTION ( 'NONE',  ( 0.000000000000000000, 0.000000000000000000, 1.000000000000000000 ) ) ;
#226 = VECTOR ( 'NONE', #71, 1000.000000000000000 ) ;
#227 = CYLINDRICAL_SURFACE ( 'NONE', #84, 4.099999999999999645 ) ;
#228 = DIRECTION ( 'NONE',  ( 1.000000000000000000, 0.000000000000000000, -0.000000000000000000 ) ) ;
#229 = VERTEX_POINT ( 'NONE', #205 ) ;
#230 = ADVANCED_FACE ( 'NONE', ( #102, #14 ), #53, .T. ) ;
#231 = MANIFOLD_SOLID_BREP ( 'Zaoblit1', #11 ) ;
#232 = CARTESIAN_POINT ( 'NONE',  ( -4.099999999999999645, 0.000000000000000000, 805.0000000000000000 ) ) ;
#233 = CARTESIAN_POINT ( 'NONE',  ( 7.000000000000000000, 8.572527594031473190E-16, 5.000000000000000000 ) ) ;
#234 = EDGE_CURVE ( 'NONE', #39, #110, #147, .T. ) ;
#235 = APPROVAL_ROLE ( '' ) ;
#236 = ORIENTED_EDGE ( 'NONE', *, *, #13, .F. ) ;
#237 = CARTESIAN_POINT ( 'NONE',  ( 0.000000000000000000, 0.000000000000000000, 5.000000000000000000 ) ) ;
#238 = DIRECTION ( 'NONE',  ( 0.000000000000000000, 0.000000000000000000, 1.000000000000000000 ) ) ;
#239 = APPROVAL_DATE_TIME ( #2, #56 ) ;
#240 = CC_DESIGN_PERSON_AND_ORGANIZATION_ASSIGNMENT ( #26, #288, ( #27 ) ) ;
#241 = DIRECTION ( 'NONE',  ( 0.000000000000000000, 0.000000000000000000, -1.000000000000000000 ) ) ;
#242 = CARTESIAN_POINT ( 'NONE',  ( 0.000000000000000000, 0.000000000000000000, 5.199999999999982414 ) ) ;
#243 = CARTESIAN_POINT ( 'NONE',  ( 0.000000000000000000, 0.000000000000000000, 805.0000000000000000 ) ) ;
#244 = AXIS2_PLACEMENT_3D ( 'NONE', #254, #188, #114 ) ;
#245 = AXIS2_PLACEMENT_3D ( 'NONE', #149, #191, #241 ) ;
#246 = ADVANCED_BREP_SHAPE_REPRESENTATION ( '3367', ( #231, #244 ), #208 ) ;
#247 = DIRECTION ( 'NONE',  ( -1.000000000000000000, 0.000000000000000000, 0.000000000000000000 ) ) ;
#248 = ADVANCED_FACE ( 'NONE', ( #126 ), #222, .F. ) ;
#249 = CYLINDRICAL_SURFACE ( 'NONE', #184, 7.000000000000000000 ) ;
#250 = EDGE_LOOP ( 'NONE', ( #236, #212, #97, #5 ) ) ;
#251 = DIRECTION ( 'NONE',  ( 1.000000000000000000, 0.000000000000000000, 0.000000000000000000 ) ) ;
#252 =( NAMED_UNIT ( * ) SI_UNIT ( $, .STERADIAN. ) SOLID_ANGLE_UNIT ( ) );
#253 = AXIS2_PLACEMENT_3D ( 'NONE', #298, #183, #54 ) ;
#254 = CARTESIAN_POINT ( 'NONE',  ( 0.000000000000000000, 0.000000000000000000, 0.000000000000000000 ) ) ;
#255 = CARTESIAN_POINT ( 'NONE',  ( 4.299999999999998934, 0.000000000000000000, 4.999999999999991118 ) ) ;
#256 = VERTEX_POINT ( 'NONE', #16 ) ;
#257 = DATE_AND_TIME ( #166, #129 ) ;
#258 = TOROIDAL_SURFACE ( 'NONE', #45, 4.299999999999998934, 0.2000000000000000111 ) ;
#259 = ORIENTED_EDGE ( 'NONE', *, *, #179, .F. ) ;
#260 = PERSON_AND_ORGANIZATION_ROLE ( 'design_owner' ) ;
#261 = ORIENTED_EDGE ( 'NONE', *, *, #182, .F. ) ;
#262 = APPLICATION_CONTEXT ( 'configuration controlled 3d designs of mechanical parts and assemblies' ) ;
#263 = ORIENTED_EDGE ( 'NONE', *, *, #280, .T. ) ;
#264 = CC_DESIGN_PERSON_AND_ORGANIZATION_ASSIGNMENT ( #95, #103, ( #27 ) ) ;
#265 = ORIENTED_EDGE ( 'NONE', *, *, #34, .T. ) ;
#266 = CALENDAR_DATE ( 2022, 20, 6 ) ;
#267 = DIRECTION ( 'NONE',  ( -1.000000000000000000, 0.000000000000000000, 0.000000000000000000 ) ) ;
#268 = PERSON_AND_ORGANIZATION_ROLE ( 'classification_officer' ) ;
#269 = VECTOR ( 'NONE', #118, 1000.000000000000000 ) ;
#270 = PRODUCT_DEFINITION ( 'NEZNÁMÝ', '', #27, #181 ) ;
#271 = DIRECTION ( 'NONE',  ( 1.000000000000000000, 0.000000000000000000, 0.000000000000000000 ) ) ;
#272 = AXIS2_PLACEMENT_3D ( 'NONE', #33, #31, #267 ) ;
#273 = DIRECTION ( 'NONE',  ( 1.000000000000000000, 0.000000000000000000, 0.000000000000000000 ) ) ;
#274 = FACE_OUTER_BOUND ( 'NONE', #134, .T. ) ;
#275 = ORIENTED_EDGE ( 'NONE', *, *, #234, .F. ) ;
#276 = DIRECTION ( 'NONE',  ( 0.000000000000000000, 0.000000000000000000, 1.000000000000000000 ) ) ;
#277 = ORIENTED_EDGE ( 'NONE', *, *, #37, .T. ) ;
#278 = MECHANICAL_CONTEXT ( 'NONE', #195, 'mechanical' ) ;
#279 = AXIS2_PLACEMENT_3D ( 'NONE', #152, #8, #273 ) ;
#280 = EDGE_CURVE ( 'NONE', #108, #295, #51, .T. ) ;
#281 = PERSON_AND_ORGANIZATION ( #123, #79 ) ;
#282 = CARTESIAN_POINT ( 'NONE',  ( -4.099999999999999645, 0.000000000000000000, 805.0000000000000000 ) ) ;
#283 = CARTESIAN_POINT ( 'NONE',  ( 0.000000000000000000, 0.000000000000000000, 5.199999999999982414 ) ) ;
#284 = ORIENTED_EDGE ( 'NONE', *, *, #68, .F. ) ;
#285 = ORIENTED_EDGE ( 'NONE', *, *, #202, .T. ) ;
#286 = ADVANCED_FACE ( 'NONE', ( #105 ), #258, .F. ) ;
#287 = DIRECTION ( 'NONE',  ( -1.000000000000000000, 1.224646799147353454E-16, 0.000000000000000000 ) ) ;
#288 = PERSON_AND_ORGANIZATION_ROLE ( 'design_supplier' ) ;
#289 = DIRECTION ( 'NONE',  ( 0.000000000000000000, 0.000000000000000000, 1.000000000000000000 ) ) ;
#290 = APPROVAL_PERSON_ORGANIZATION ( #67, #10, #235 ) ;
#291 = CARTESIAN_POINT ( 'NONE',  ( 0.000000000000000000, 0.000000000000000000, 5.000000000000000000 ) ) ;
#292 = UNCERTAINTY_MEASURE_WITH_UNIT (LENGTH_MEASURE( 1.000000000000000082E-05 ), #142, 'distance_accuracy_value', 'NONE');
#293 = DIRECTION ( 'NONE',  ( -0.000000000000000000, -0.000000000000000000, -1.000000000000000000 ) ) ;
#294 = CC_DESIGN_PERSON_AND_ORGANIZATION_ASSIGNMENT ( #209, #299, ( #270 ) ) ;
#295 = VERTEX_POINT ( 'NONE', #232 ) ;
#296 = SECURITY_CLASSIFICATION ( '', '', #216 ) ;
#297 = CC_DESIGN_PERSON_AND_ORGANIZATION_ASSIGNMENT ( #100, #268, ( #296 ) ) ;
#298 = CARTESIAN_POINT ( 'NONE',  ( 0.000000000000000000, 0.000000000000000000, 5.000000000000000000 ) ) ;
#299 = PERSON_AND_ORGANIZATION_ROLE ( 'creator' ) ;
#300 = VERTEX_POINT ( 'NONE', #255 ) ;
#301 = CIRCLE ( 'NONE', #35, 4.299999999999998934 ) ;
#302 = CARTESIAN_POINT ( 'NONE',  ( -4.299999999999998934, 5.265981236333617484E-16, 4.999999999999991118 ) ) ;
#303 = APPROVAL_PERSON_ORGANIZATION ( #78, #56, #171 ) ;
#304 = CALENDAR_DATE ( 2022, 20, 6 ) ;
#305 = VERTEX_POINT ( 'NONE', #302 ) ;
#306 = AXIS2_PLACEMENT_3D ( 'NONE', #66, #193, #176 ) ;
#307 = APPLICATION_PROTOCOL_DEFINITION ( 'international standard', 'config_control_design', 1994, #195 ) ;
ENDSEC;
END-ISO-10303-21;
