ISO-10303-21;
HEADER;
FILE_DESCRIPTION (( 'STEP AP203' ),
    '1' );
FILE_NAME ('f2d3.STEP',
    '2022-06-20T10:02:47',
    ( '' ),
    ( '' ),
    'SwSTEP 2.0',
    'SolidWorks 2019',
    '' );
FILE_SCHEMA (( 'CONFIG_CONTROL_DESIGN' ));
ENDSEC;

DATA;
#1 = PRODUCT_RELATED_PRODUCT_CATEGORY ( 'detail', '', ( #245 ) ) ;
#2 = DIRECTION ( 'NONE',  ( 0.000000000000000000, 0.000000000000000000, 1.000000000000000000 ) ) ;
#3 = DIRECTION ( 'NONE',  ( -1.000000000000000000, 0.000000000000000000, 0.000000000000000000 ) ) ;
#4 = ORIENTED_EDGE ( 'NONE', *, *, #101, .F. ) ;
#5 = AXIS2_PLACEMENT_3D ( 'NONE', #194, #298, #19 ) ;
#6 = ORIENTED_EDGE ( 'NONE', *, *, #265, .T. ) ;
#7 = ORIENTED_EDGE ( 'NONE', *, *, #143, .T. ) ;
#8 = DIRECTION ( 'NONE',  ( -1.000000000000000000, 0.000000000000000000, 0.000000000000000000 ) ) ;
#9 = DIRECTION ( 'NONE',  ( 0.000000000000000000, 0.000000000000000000, 1.000000000000000000 ) ) ;
#10 = AXIS2_PLACEMENT_3D ( 'NONE', #248, #225, #83 ) ;
#11 = DATE_AND_TIME ( #173, #108 ) ;
#12 = COORDINATED_UNIVERSAL_TIME_OFFSET ( 1, 0, .AHEAD. ) ;
#13 = APPROVAL_ROLE ( '' ) ;
#14 = AXIS2_PLACEMENT_3D ( 'NONE', #73, #213, #3 ) ;
#15 = ORIENTED_EDGE ( 'NONE', *, *, #84, .F. ) ;
#16 = ADVANCED_FACE ( 'NONE', ( #285 ), #65, .T. ) ;
#17 = PERSON_AND_ORGANIZATION_ROLE ( 'creator' ) ;
#18 = ORIENTED_EDGE ( 'NONE', *, *, #54, .T. ) ;
#19 = DIRECTION ( 'NONE',  ( 1.000000000000000000, 0.000000000000000000, 0.000000000000000000 ) ) ;
#20 = DIRECTION ( 'NONE',  ( 1.000000000000000000, 0.000000000000000000, 0.000000000000000000 ) ) ;
#21 = CC_DESIGN_APPROVAL ( #115, ( #211 ) ) ;
#22 = ORIENTED_EDGE ( 'NONE', *, *, #42, .T. ) ;
#23 = CARTESIAN_POINT ( 'NONE',  ( -5.000000000000000000, 0.000000000000000000, 0.000000000000000000 ) ) ;
#24 = LINE ( 'NONE', #94, #60 ) ;
#25 = DIRECTION ( 'NONE',  ( 0.000000000000000000, 0.000000000000000000, 1.000000000000000000 ) ) ;
#26 = ORIENTED_EDGE ( 'NONE', *, *, #210, .F. ) ;
#27 = MANIFOLD_SOLID_BREP ( 'Zaoblit1', #247 ) ;
#28 = DIRECTION ( 'NONE',  ( 1.000000000000000000, 0.000000000000000000, 0.000000000000000000 ) ) ;
#29 = EDGE_CURVE ( 'NONE', #136, #168, #284, .T. ) ;
#30 = DIRECTION ( 'NONE',  ( -0.000000000000000000, -0.000000000000000000, -1.000000000000000000 ) ) ;
#31 =( NAMED_UNIT ( * ) PLANE_ANGLE_UNIT ( ) SI_UNIT ( $, .RADIAN. ) );
#32 = CIRCLE ( 'NONE', #286, 5.000000000000000000 ) ;
#33 = PERSON_AND_ORGANIZATION ( #159, #179 ) ;
#34 = APPROVAL_STATUS ( 'not_yet_approved' ) ;
#35 = VERTEX_POINT ( 'NONE', #231 ) ;
#36 = EDGE_CURVE ( 'NONE', #41, #67, #257, .T. ) ;
#37 = AXIS2_PLACEMENT_3D ( 'NONE', #205, #240, #135 ) ;
#38 = LOCAL_TIME ( 12, 2, 47.00000000000000000, #82 ) ;
#39 = VERTEX_POINT ( 'NONE', #23 ) ;
#40 = DIRECTION ( 'NONE',  ( -0.000000000000000000, -0.000000000000000000, -1.000000000000000000 ) ) ;
#41 = VERTEX_POINT ( 'NONE', #43 ) ;
#42 = EDGE_CURVE ( 'NONE', #203, #287, #126, .T. ) ;
#43 = CARTESIAN_POINT ( 'NONE',  ( 2.500000000000000000, 3.061616997868383141E-16, 3.199999999999980638 ) ) ;
#44 = ADVANCED_FACE ( 'NONE', ( #92, #236 ), #69, .T. ) ;
#45 = ORIENTED_EDGE ( 'NONE', *, *, #154, .T. ) ;
#46 = AXIS2_PLACEMENT_3D ( 'NONE', #199, #170, #55 ) ;
#47 = DIRECTION ( 'NONE',  ( 1.000000000000000000, 0.000000000000000000, -0.000000000000000000 ) ) ;
#48 = DIRECTION ( 'NONE',  ( 0.000000000000000000, -1.000000000000000000, 0.000000000000000000 ) ) ;
#49 = FACE_OUTER_BOUND ( 'NONE', #120, .T. ) ;
#50 = PRODUCT_DEFINITION ( 'NEZNÁMÝ', '', #211, #277 ) ;
#51 = DIRECTION ( 'NONE',  ( 1.000000000000000000, 0.000000000000000000, 0.000000000000000000 ) ) ;
#52 = AXIS2_PLACEMENT_3D ( 'NONE', #185, #283, #47 ) ;
#53 = APPLICATION_CONTEXT ( 'configuration controlled 3d designs of mechanical parts and assemblies' ) ;
#54 = EDGE_CURVE ( 'NONE', #187, #39, #262, .T. ) ;
#55 = DIRECTION ( 'NONE',  ( 1.000000000000000000, 0.000000000000000000, -0.000000000000000000 ) ) ;
#56 = COORDINATED_UNIVERSAL_TIME_OFFSET ( 1, 0, .AHEAD. ) ;
#57 = LINE ( 'NONE', #197, #118 ) ;
#58 = PERSON_AND_ORGANIZATION_ROLE ( 'design_supplier' ) ;
#59 = CIRCLE ( 'NONE', #10, 0.2000000000000000944 ) ;
#60 = VECTOR ( 'NONE', #71, 1000.000000000000000 ) ;
#61 = PERSON_AND_ORGANIZATION ( #159, #179 ) ;
#62 = DATE_AND_TIME ( #208, #281 ) ;
#63 = AXIS2_PLACEMENT_3D ( 'NONE', #183, #263, #193 ) ;
#64 = ORIENTED_EDGE ( 'NONE', *, *, #234, .F. ) ;
#65 = CYLINDRICAL_SURFACE ( 'NONE', #63, 5.000000000000000000 ) ;
#66 = ADVANCED_BREP_SHAPE_REPRESENTATION ( 'f2d3', ( #27, #238 ), #128 ) ;
#67 = VERTEX_POINT ( 'NONE', #116 ) ;
#68 = TOROIDAL_SURFACE ( 'NONE', #217, 2.700000000000000178, 0.2000000000000000111 ) ;
#69 = PLANE ( 'NONE',  #52 ) ;
#70 = EDGE_CURVE ( 'NONE', #41, #203, #207, .T. ) ;
#71 = DIRECTION ( 'NONE',  ( -0.000000000000000000, -0.000000000000000000, -1.000000000000000000 ) ) ;
#72 = ORIENTED_EDGE ( 'NONE', *, *, #54, .F. ) ;
#73 = CARTESIAN_POINT ( 'NONE',  ( 0.000000000000000000, 0.000000000000000000, 803.0000000000000000 ) ) ;
#74 = LOCAL_TIME ( 12, 2, 47.00000000000000000, #12 ) ;
#75 = CC_DESIGN_PERSON_AND_ORGANIZATION_ASSIGNMENT ( #61, #58, ( #211 ) ) ;
#76 = APPLICATION_PROTOCOL_DEFINITION ( 'international standard', 'config_control_design', 1994, #264 ) ;
#77 = ADVANCED_FACE ( 'NONE', ( #140 ), #68, .F. ) ;
#78 = CALENDAR_DATE ( 2022, 20, 6 ) ;
#79 = APPROVAL_DATE_TIME ( #294, #115 ) ;
#80 = FACE_OUTER_BOUND ( 'NONE', #227, .T. ) ;
#81 = ORIENTED_EDGE ( 'NONE', *, *, #29, .F. ) ;
#82 = COORDINATED_UNIVERSAL_TIME_OFFSET ( 1, 0, .AHEAD. ) ;
#83 = DIRECTION ( 'NONE',  ( -1.000000000000000000, 1.224646799147353207E-16, 0.000000000000000000 ) ) ;
#84 = EDGE_CURVE ( 'NONE', #287, #203, #106, .T. ) ;
#85 = AXIS2_PLACEMENT_3D ( 'NONE', #161, #252, #8 ) ;
#86 = APPROVAL_PERSON_ORGANIZATION ( #171, #115, #13 ) ;
#87 = ORIENTED_EDGE ( 'NONE', *, *, #101, .T. ) ;
#88 = VECTOR ( 'NONE', #30, 1000.000000000000000 ) ;
#89 = EDGE_CURVE ( 'NONE', #168, #67, #223, .T. ) ;
#90 = AXIS2_PLACEMENT_3D ( 'NONE', #256, #192, #232 ) ;
#91 = DIRECTION ( 'NONE',  ( 1.000000000000000000, 0.000000000000000000, 0.000000000000000000 ) ) ;
#92 = FACE_BOUND ( 'NONE', #212, .T. ) ;
#93 = CARTESIAN_POINT ( 'NONE',  ( 0.000000000000000000, 0.000000000000000000, 3.000000000000000000 ) ) ;
#94 = CARTESIAN_POINT ( 'NONE',  ( 2.500000000000000000, 3.061616997868383141E-16, 803.0000000000000000 ) ) ;
#95 = CIRCLE ( 'NONE', #270, 5.000000000000000000 ) ;
#96 = CC_DESIGN_APPROVAL ( #304, ( #50 ) ) ;
#97 = ORIENTED_EDGE ( 'NONE', *, *, #129, .F. ) ;
#98 = VERTEX_POINT ( 'NONE', #132 ) ;
#99 = CARTESIAN_POINT ( 'NONE',  ( 2.500000000000000000, 3.061616997868383141E-16, 803.0000000000000000 ) ) ;
#100 = CARTESIAN_POINT ( 'NONE',  ( 0.000000000000000000, 0.000000000000000000, 0.000000000000000000 ) ) ;
#101 = EDGE_CURVE ( 'NONE', #98, #187, #162, .T. ) ;
#102 = DIRECTION ( 'NONE',  ( 1.000000000000000000, 0.000000000000000000, 0.000000000000000000 ) ) ;
#103 = DIRECTION ( 'NONE',  ( 0.000000000000000000, 0.000000000000000000, 1.000000000000000000 ) ) ;
#104 =( LENGTH_UNIT ( ) NAMED_UNIT ( * ) SI_UNIT ( .MILLI., .METRE. ) );
#105 = CALENDAR_DATE ( 2022, 20, 6 ) ;
#106 = CIRCLE ( 'NONE', #305, 2.700000000000000178 ) ;
#107 = APPROVAL_DATE_TIME ( #11, #304 ) ;
#108 = LOCAL_TIME ( 12, 2, 47.00000000000000000, #56 ) ;
#109 = ORIENTED_EDGE ( 'NONE', *, *, #243, .F. ) ;
#110 = APPLICATION_PROTOCOL_DEFINITION ( 'international standard', 'config_control_design', 1994, #53 ) ;
#111 = DIRECTION ( 'NONE',  ( -0.000000000000000000, -0.000000000000000000, -1.000000000000000000 ) ) ;
#112 = SHAPE_DEFINITION_REPRESENTATION ( #174, #66 ) ;
#113 = CARTESIAN_POINT ( 'NONE',  ( -5.000000000000000000, 0.000000000000000000, 3.000000000000000000 ) ) ;
#114 = APPROVAL_PERSON_ORGANIZATION ( #156, #295, #138 ) ;
#115 = APPROVAL ( #34, 'NEURÈENÝ' ) ;
#116 = CARTESIAN_POINT ( 'NONE',  ( -2.500000000000000000, 0.000000000000000000, 3.199999999999980638 ) ) ;
#117 = CYLINDRICAL_SURFACE ( 'NONE', #85, 5.000000000000000000 ) ;
#118 = VECTOR ( 'NONE', #152, 1000.000000000000000 ) ;
#119 = ORIENTED_EDGE ( 'NONE', *, *, #70, .F. ) ;
#120 = EDGE_LOOP ( 'NONE', ( #81, #6, #163, #214 ) ) ;
#121 = CARTESIAN_POINT ( 'NONE',  ( 0.000000000000000000, 0.000000000000000000, 3.199999999999980638 ) ) ;
#122 = ORIENTED_EDGE ( 'NONE', *, *, #143, .F. ) ;
#123 = CYLINDRICAL_SURFACE ( 'NONE', #90, 2.500000000000000000 ) ;
#124 = DIRECTION ( 'NONE',  ( 1.000000000000000000, 0.000000000000000000, 0.000000000000000000 ) ) ;
#125 = PLANE ( 'NONE',  #182 ) ;
#126 = CIRCLE ( 'NONE', #237, 2.700000000000000178 ) ;
#127 = CIRCLE ( 'NONE', #303, 2.500000000000000000 ) ;
#128 =( GEOMETRIC_REPRESENTATION_CONTEXT ( 3 ) GLOBAL_UNCERTAINTY_ASSIGNED_CONTEXT ( ( #300 ) ) GLOBAL_UNIT_ASSIGNED_CONTEXT ( ( #104, #31, #151 ) ) REPRESENTATION_CONTEXT ( 'NONE', 'WORKASPACE' ) );
#129 = EDGE_CURVE ( 'NONE', #187, #98, #32, .T. ) ;
#130 = PERSON_AND_ORGANIZATION_ROLE ( 'creator' ) ;
#131 = DATE_TIME_ROLE ( 'creation_date' ) ;
#132 = CARTESIAN_POINT ( 'NONE',  ( 5.000000000000000000, 6.123233995736766282E-16, 3.000000000000000000 ) ) ;
#133 = AXIS2_PLACEMENT_3D ( 'NONE', #146, #48, #145 ) ;
#134 = PERSON_AND_ORGANIZATION ( #159, #179 ) ;
#135 = DIRECTION ( 'NONE',  ( 1.000000000000000000, 0.000000000000000000, 0.000000000000000000 ) ) ;
#136 = VERTEX_POINT ( 'NONE', #99 ) ;
#137 = CC_DESIGN_PERSON_AND_ORGANIZATION_ASSIGNMENT ( #224, #17, ( #211 ) ) ;
#138 = APPROVAL_ROLE ( '' ) ;
#139 = DATE_TIME_ROLE ( 'classification_date' ) ;
#140 = FACE_OUTER_BOUND ( 'NONE', #302, .T. ) ;
#141 = SECURITY_CLASSIFICATION_LEVEL ( 'unclassified' ) ;
#142 = DIRECTION ( 'NONE',  ( 1.000000000000000000, 0.000000000000000000, 0.000000000000000000 ) ) ;
#143 = EDGE_CURVE ( 'NONE', #39, #35, #95, .T. ) ;
#144 = AXIS2_PLACEMENT_3D ( 'NONE', #253, #25, #20 ) ;
#145 = DIRECTION ( 'NONE',  ( 0.000000000000000000, 0.000000000000000000, -1.000000000000000000 ) ) ;
#146 = CARTESIAN_POINT ( 'NONE',  ( 2.700000000000000178, 0.000000000000000000, 3.199999999999980638 ) ) ;
#147 = CARTESIAN_POINT ( 'NONE',  ( 0.000000000000000000, 0.000000000000000000, 3.199999999999980638 ) ) ;
#148 = EDGE_CURVE ( 'NONE', #98, #35, #57, .T. ) ;
#149 = CARTESIAN_POINT ( 'NONE',  ( -2.500000000000000000, 0.000000000000000000, 803.0000000000000000 ) ) ;
#150 = ADVANCED_FACE ( 'NONE', ( #80 ), #155, .F. ) ;
#151 =( NAMED_UNIT ( * ) SI_UNIT ( $, .STERADIAN. ) SOLID_ANGLE_UNIT ( ) );
#152 = DIRECTION ( 'NONE',  ( -0.000000000000000000, -0.000000000000000000, -1.000000000000000000 ) ) ;
#153 = ORIENTED_EDGE ( 'NONE', *, *, #265, .F. ) ;
#154 = EDGE_CURVE ( 'NONE', #67, #287, #59, .T. ) ;
#155 = TOROIDAL_SURFACE ( 'NONE', #5, 2.700000000000000178, 0.2000000000000000111 ) ;
#156 = PERSON_AND_ORGANIZATION ( #159, #179 ) ;
#157 = DIRECTION ( 'NONE',  ( 1.000000000000000000, 0.000000000000000000, 0.000000000000000000 ) ) ;
#158 = EDGE_LOOP ( 'NONE', ( #249, #87 ) ) ;
#159 = PERSON ( 'NEURÈENÝ', 'NEURÈENÝ', 'NEURÈENÝ', ('NEURÈENÝ'), ('NEURÈENÝ'), ('NEURÈENÝ') ) ;
#160 = PERSON_AND_ORGANIZATION_ROLE ( 'classification_officer' ) ;
#161 = CARTESIAN_POINT ( 'NONE',  ( 0.000000000000000000, 0.000000000000000000, 3.000000000000000000 ) ) ;
#162 = CIRCLE ( 'NONE', #37, 5.000000000000000000 ) ;
#163 = ORIENTED_EDGE ( 'NONE', *, *, #36, .T. ) ;
#164 = CARTESIAN_POINT ( 'NONE',  ( 0.000000000000000000, 0.000000000000000000, 803.0000000000000000 ) ) ;
#165 = EDGE_LOOP ( 'NONE', ( #235, #97, #18, #7 ) ) ;
#166 = APPROVAL_PERSON_ORGANIZATION ( #134, #304, #269 ) ;
#167 = ORIENTED_EDGE ( 'NONE', *, *, #210, .T. ) ;
#168 = VERTEX_POINT ( 'NONE', #290 ) ;
#169 = FACE_OUTER_BOUND ( 'NONE', #190, .T. ) ;
#170 = DIRECTION ( 'NONE',  ( 0.000000000000000000, 0.000000000000000000, 1.000000000000000000 ) ) ;
#171 = PERSON_AND_ORGANIZATION ( #159, #179 ) ;
#172 = MECHANICAL_CONTEXT ( 'NONE', #264, 'mechanical' ) ;
#173 = CALENDAR_DATE ( 2022, 20, 6 ) ;
#174 = PRODUCT_DEFINITION_SHAPE ( 'NONE', 'NONE',  #50 ) ;
#175 = PERSON_AND_ORGANIZATION_ROLE ( 'design_owner' ) ;
#176 = ORIENTED_EDGE ( 'NONE', *, *, #89, .T. ) ;
#177 = ORIENTED_EDGE ( 'NONE', *, *, #84, .T. ) ;
#178 = CIRCLE ( 'NONE', #259, 5.000000000000000000 ) ;
#179 = ORGANIZATION ( 'NEURÈENÝ', 'NEURÈENÝ', '' ) ;
#180 = ORIENTED_EDGE ( 'NONE', *, *, #70, .T. ) ;
#181 = FACE_OUTER_BOUND ( 'NONE', #233, .T. ) ;
#182 = AXIS2_PLACEMENT_3D ( 'NONE', #246, #267, #204 ) ;
#183 = CARTESIAN_POINT ( 'NONE',  ( 0.000000000000000000, 0.000000000000000000, 3.000000000000000000 ) ) ;
#184 = CC_DESIGN_DATE_AND_TIME_ASSIGNMENT ( #292, #131, ( #50 ) ) ;
#185 = CARTESIAN_POINT ( 'NONE',  ( 0.000000000000000000, 0.000000000000000000, 3.000000000000000000 ) ) ;
#186 = CARTESIAN_POINT ( 'NONE',  ( -2.700000000000000178, 3.306546357697853733E-16, 2.999999999999990674 ) ) ;
#187 = VERTEX_POINT ( 'NONE', #113 ) ;
#188 = AXIS2_PLACEMENT_3D ( 'NONE', #147, #2, #28 ) ;
#189 = CC_DESIGN_APPROVAL ( #295, ( #261 ) ) ;
#190 = EDGE_LOOP ( 'NONE', ( #153, #26, #176, #299 ) ) ;
#191 = CC_DESIGN_PERSON_AND_ORGANIZATION_ASSIGNMENT ( #33, #130, ( #50 ) ) ;
#192 = DIRECTION ( 'NONE',  ( -0.000000000000000000, -0.000000000000000000, -1.000000000000000000 ) ) ;
#193 = DIRECTION ( 'NONE',  ( -1.000000000000000000, 0.000000000000000000, 0.000000000000000000 ) ) ;
#194 = CARTESIAN_POINT ( 'NONE',  ( 0.000000000000000000, 0.000000000000000000, 3.199999999999980638 ) ) ;
#195 = DIRECTION ( 'NONE',  ( 1.000000000000000000, 0.000000000000000000, 0.000000000000000000 ) ) ;
#196 = AXIS2_PLACEMENT_3D ( 'NONE', #164, #282, #51 ) ;
#197 = CARTESIAN_POINT ( 'NONE',  ( 5.000000000000000000, 6.123233995736766282E-16, 3.000000000000000000 ) ) ;
#198 = APPROVAL_STATUS ( 'not_yet_approved' ) ;
#199 = CARTESIAN_POINT ( 'NONE',  ( 0.000000000000000000, 0.000000000000000000, 0.000000000000000000 ) ) ;
#200 = COORDINATED_UNIVERSAL_TIME_OFFSET ( 1, 0, .AHEAD. ) ;
#201 = FACE_OUTER_BOUND ( 'NONE', #274, .T. ) ;
#202 = CARTESIAN_POINT ( 'NONE',  ( 0.000000000000000000, 0.000000000000000000, 0.000000000000000000 ) ) ;
#203 = VERTEX_POINT ( 'NONE', #266 ) ;
#204 = DIRECTION ( 'NONE',  ( 1.000000000000000000, 0.000000000000000000, -0.000000000000000000 ) ) ;
#205 = CARTESIAN_POINT ( 'NONE',  ( 0.000000000000000000, 0.000000000000000000, 3.000000000000000000 ) ) ;
#206 = ORIENTED_EDGE ( 'NONE', *, *, #36, .F. ) ;
#207 = CIRCLE ( 'NONE', #133, 0.2000000000000000944 ) ;
#208 = CALENDAR_DATE ( 2022, 20, 6 ) ;
#209 = CARTESIAN_POINT ( 'NONE',  ( 0.000000000000000000, 0.000000000000000000, 3.199999999999980638 ) ) ;
#210 = EDGE_CURVE ( 'NONE', #168, #136, #275, .T. ) ;
#211 = PRODUCT_DEFINITION_FORMATION_WITH_SPECIFIED_SOURCE ( 'LIBOVOLNÝ', '', #245, .NOT_KNOWN. ) ;
#212 = EDGE_LOOP ( 'NONE', ( #22, #177 ) ) ;
#213 = DIRECTION ( 'NONE',  ( -0.000000000000000000, -0.000000000000000000, -1.000000000000000000 ) ) ;
#214 = ORIENTED_EDGE ( 'NONE', *, *, #89, .F. ) ;
#215 = DIRECTION ( 'NONE',  ( 0.000000000000000000, 0.000000000000000000, 1.000000000000000000 ) ) ;
#216 = CARTESIAN_POINT ( 'NONE',  ( 0.000000000000000000, 0.000000000000000000, 3.000000000000000000 ) ) ;
#217 = AXIS2_PLACEMENT_3D ( 'NONE', #209, #306, #91 ) ;
#218 = CC_DESIGN_SECURITY_CLASSIFICATION ( #261, ( #211 ) ) ;
#219 = ORIENTED_EDGE ( 'NONE', *, *, #29, .T. ) ;
#220 = LOCAL_TIME ( 12, 2, 47.00000000000000000, #200 ) ;
#221 = ADVANCED_FACE ( 'NONE', ( #181 ), #117, .T. ) ;
#222 = FACE_OUTER_BOUND ( 'NONE', #296, .T. ) ;
#223 = LINE ( 'NONE', #149, #280 ) ;
#224 = PERSON_AND_ORGANIZATION ( #159, #179 ) ;
#225 = DIRECTION ( 'NONE',  ( 1.224646799147353207E-16, 1.000000000000000000, -0.000000000000000000 ) ) ;
#226 = ORIENTED_EDGE ( 'NONE', *, *, #148, .T. ) ;
#227 = EDGE_LOOP ( 'NONE', ( #109, #45, #254, #119 ) ) ;
#228 = PERSON_AND_ORGANIZATION ( #159, #179 ) ;
#229 = APPROVAL_DATE_TIME ( #62, #295 ) ;
#230 = ORIENTED_EDGE ( 'NONE', *, *, #234, .T. ) ;
#231 = CARTESIAN_POINT ( 'NONE',  ( 5.000000000000000000, 6.123233995736766282E-16, 0.000000000000000000 ) ) ;
#232 = DIRECTION ( 'NONE',  ( -1.000000000000000000, 0.000000000000000000, 0.000000000000000000 ) ) ;
#233 = EDGE_LOOP ( 'NONE', ( #4, #226, #230, #72 ) ) ;
#234 = EDGE_CURVE ( 'NONE', #35, #39, #178, .T. ) ;
#235 = ORIENTED_EDGE ( 'NONE', *, *, #148, .F. ) ;
#236 = FACE_OUTER_BOUND ( 'NONE', #158, .T. ) ;
#237 = AXIS2_PLACEMENT_3D ( 'NONE', #93, #255, #142 ) ;
#238 = AXIS2_PLACEMENT_3D ( 'NONE', #244, #103, #293 ) ;
#239 = DIRECTION ( 'NONE',  ( 1.000000000000000000, 0.000000000000000000, 0.000000000000000000 ) ) ;
#240 = DIRECTION ( 'NONE',  ( 0.000000000000000000, 0.000000000000000000, 1.000000000000000000 ) ) ;
#241 = CC_DESIGN_PERSON_AND_ORGANIZATION_ASSIGNMENT ( #242, #175, ( #245 ) ) ;
#242 = PERSON_AND_ORGANIZATION ( #159, #179 ) ;
#243 = EDGE_CURVE ( 'NONE', #67, #41, #127, .T. ) ;
#244 = CARTESIAN_POINT ( 'NONE',  ( 0.000000000000000000, 0.000000000000000000, 0.000000000000000000 ) ) ;
#245 = PRODUCT ( 'f2d3', 'f2d3', '', ( #172 ) ) ;
#246 = CARTESIAN_POINT ( 'NONE',  ( 0.000000000000000000, 0.000000000000000000, 803.0000000000000000 ) ) ;
#247 = CLOSED_SHELL ( 'NONE', ( #150, #268, #221, #16, #44, #289, #279, #297, #77 ) ) ;
#248 = CARTESIAN_POINT ( 'NONE',  ( -2.700000000000000178, 3.306546357697853733E-16, 3.199999999999980638 ) ) ;
#249 = ORIENTED_EDGE ( 'NONE', *, *, #129, .T. ) ;
#250 = CC_DESIGN_DATE_AND_TIME_ASSIGNMENT ( #301, #139, ( #261 ) ) ;
#251 = APPROVAL_STATUS ( 'not_yet_approved' ) ;
#252 = DIRECTION ( 'NONE',  ( -0.000000000000000000, -0.000000000000000000, -1.000000000000000000 ) ) ;
#253 = CARTESIAN_POINT ( 'NONE',  ( 0.000000000000000000, 0.000000000000000000, 803.0000000000000000 ) ) ;
#254 = ORIENTED_EDGE ( 'NONE', *, *, #42, .F. ) ;
#255 = DIRECTION ( 'NONE',  ( -0.000000000000000000, -0.000000000000000000, -1.000000000000000000 ) ) ;
#256 = CARTESIAN_POINT ( 'NONE',  ( 0.000000000000000000, 0.000000000000000000, 803.0000000000000000 ) ) ;
#257 = CIRCLE ( 'NONE', #188, 2.500000000000000000 ) ;
#258 = CARTESIAN_POINT ( 'NONE',  ( -5.000000000000000000, 0.000000000000000000, 3.000000000000000000 ) ) ;
#259 = AXIS2_PLACEMENT_3D ( 'NONE', #100, #260, #195 ) ;
#260 = DIRECTION ( 'NONE',  ( 0.000000000000000000, 0.000000000000000000, 1.000000000000000000 ) ) ;
#261 = SECURITY_CLASSIFICATION ( '', '', #141 ) ;
#262 = LINE ( 'NONE', #258, #88 ) ;
#263 = DIRECTION ( 'NONE',  ( -0.000000000000000000, -0.000000000000000000, -1.000000000000000000 ) ) ;
#264 = APPLICATION_CONTEXT ( 'configuration controlled 3d designs of mechanical parts and assemblies' ) ;
#265 = EDGE_CURVE ( 'NONE', #136, #41, #24, .T. ) ;
#266 = CARTESIAN_POINT ( 'NONE',  ( 2.700000000000000178, 0.000000000000000000, 2.999999999999990674 ) ) ;
#267 = DIRECTION ( 'NONE',  ( 0.000000000000000000, 0.000000000000000000, 1.000000000000000000 ) ) ;
#268 = ADVANCED_FACE ( 'NONE', ( #49 ), #123, .T. ) ;
#269 = APPROVAL_ROLE ( '' ) ;
#270 = AXIS2_PLACEMENT_3D ( 'NONE', #202, #9, #157 ) ;
#271 = PLANE ( 'NONE',  #46 ) ;
#272 = ORIENTED_EDGE ( 'NONE', *, *, #154, .F. ) ;
#273 = DIRECTION ( 'NONE',  ( 0.000000000000000000, 0.000000000000000000, 1.000000000000000000 ) ) ;
#274 = EDGE_LOOP ( 'NONE', ( #122, #64 ) ) ;
#275 = CIRCLE ( 'NONE', #144, 2.500000000000000000 ) ;
#276 = COORDINATED_UNIVERSAL_TIME_OFFSET ( 1, 0, .AHEAD. ) ;
#277 = DESIGN_CONTEXT ( 'detailed design', #53, 'design' ) ;
#278 = CALENDAR_DATE ( 2022, 20, 6 ) ;
#279 = ADVANCED_FACE ( 'NONE', ( #169 ), #288, .T. ) ;
#280 = VECTOR ( 'NONE', #40, 1000.000000000000000 ) ;
#281 = LOCAL_TIME ( 12, 2, 47.00000000000000000, #276 ) ;
#282 = DIRECTION ( 'NONE',  ( 0.000000000000000000, 0.000000000000000000, 1.000000000000000000 ) ) ;
#283 = DIRECTION ( 'NONE',  ( 0.000000000000000000, 0.000000000000000000, 1.000000000000000000 ) ) ;
#284 = CIRCLE ( 'NONE', #196, 2.500000000000000000 ) ;
#285 = FACE_OUTER_BOUND ( 'NONE', #165, .T. ) ;
#286 = AXIS2_PLACEMENT_3D ( 'NONE', #291, #273, #124 ) ;
#287 = VERTEX_POINT ( 'NONE', #186 ) ;
#288 = CYLINDRICAL_SURFACE ( 'NONE', #14, 2.500000000000000000 ) ;
#289 = ADVANCED_FACE ( 'NONE', ( #201 ), #271, .F. ) ;
#290 = CARTESIAN_POINT ( 'NONE',  ( -2.500000000000000000, 0.000000000000000000, 803.0000000000000000 ) ) ;
#291 = CARTESIAN_POINT ( 'NONE',  ( 0.000000000000000000, 0.000000000000000000, 3.000000000000000000 ) ) ;
#292 = DATE_AND_TIME ( #105, #74 ) ;
#293 = DIRECTION ( 'NONE',  ( 1.000000000000000000, 0.000000000000000000, 0.000000000000000000 ) ) ;
#294 = DATE_AND_TIME ( #78, #220 ) ;
#295 = APPROVAL ( #251, 'NEURÈENÝ' ) ;
#296 = EDGE_LOOP ( 'NONE', ( #167, #219 ) ) ;
#297 = ADVANCED_FACE ( 'NONE', ( #222 ), #125, .T. ) ;
#298 = DIRECTION ( 'NONE',  ( 0.000000000000000000, 0.000000000000000000, 1.000000000000000000 ) ) ;
#299 = ORIENTED_EDGE ( 'NONE', *, *, #243, .T. ) ;
#300 = UNCERTAINTY_MEASURE_WITH_UNIT (LENGTH_MEASURE( 1.000000000000000082E-05 ), #104, 'distance_accuracy_value', 'NONE');
#301 = DATE_AND_TIME ( #278, #38 ) ;
#302 = EDGE_LOOP ( 'NONE', ( #272, #206, #180, #15 ) ) ;
#303 = AXIS2_PLACEMENT_3D ( 'NONE', #121, #215, #239 ) ;
#304 = APPROVAL ( #198, 'NEURÈENÝ' ) ;
#305 = AXIS2_PLACEMENT_3D ( 'NONE', #216, #111, #102 ) ;
#306 = DIRECTION ( 'NONE',  ( 0.000000000000000000, 0.000000000000000000, 1.000000000000000000 ) ) ;
#307 = CC_DESIGN_PERSON_AND_ORGANIZATION_ASSIGNMENT ( #228, #160, ( #261 ) ) ;
ENDSEC;
END-ISO-10303-21;
