ISO-10303-21;
HEADER;
FILE_DESCRIPTION (( 'STEP AP203' ),
    '1' );
FILE_NAME ('0738.STEP',
    '2022-06-20T09:36:41',
    ( '' ),
    ( '' ),
    'SwSTEP 2.0',
    'SolidWorks 2019',
    '' );
FILE_SCHEMA (( 'CONFIG_CONTROL_DESIGN' ));
ENDSEC;

DATA;
#1 = ORIENTED_EDGE ( 'NONE', *, *, #182, .F. ) ;
#2 = VECTOR ( 'NONE', #299, 1000.000000000000000 ) ;
#3 = CC_DESIGN_APPROVAL ( #252, ( #73 ) ) ;
#4 = VERTEX_POINT ( 'NONE', #277 ) ;
#5 = ORIENTED_EDGE ( 'NONE', *, *, #13, .T. ) ;
#6 = PERSON_AND_ORGANIZATION ( #151, #303 ) ;
#7 = APPLICATION_PROTOCOL_DEFINITION ( 'international standard', 'config_control_design', 1994, #14 ) ;
#8 = AXIS2_PLACEMENT_3D ( 'NONE', #307, #28, #35 ) ;
#9 = EDGE_CURVE ( 'NONE', #29, #147, #109, .T. ) ;
#10 = CYLINDRICAL_SURFACE ( 'NONE', #67, 8.000000000000000000 ) ;
#11 = DIRECTION ( 'NONE',  ( -0.000000000000000000, -0.000000000000000000, -1.000000000000000000 ) ) ;
#12 = DIRECTION ( 'NONE',  ( 1.000000000000000000, 0.000000000000000000, 0.000000000000000000 ) ) ;
#13 = EDGE_CURVE ( 'NONE', #129, #184, #232, .T. ) ;
#14 = APPLICATION_CONTEXT ( 'configuration controlled 3d designs of mechanical parts and assemblies' ) ;
#15 = FACE_OUTER_BOUND ( 'NONE', #112, .T. ) ;
#16 = FACE_OUTER_BOUND ( 'NONE', #202, .T. ) ;
#17 = PERSON_AND_ORGANIZATION_ROLE ( 'classification_officer' ) ;
#18 = DIRECTION ( 'NONE',  ( 0.000000000000000000, 0.000000000000000000, 1.000000000000000000 ) ) ;
#19 = AXIS2_PLACEMENT_3D ( 'NONE', #294, #82, #12 ) ;
#20 = CARTESIAN_POINT ( 'NONE',  ( 0.000000000000000000, 0.000000000000000000, 5.199999999999982414 ) ) ;
#21 = AXIS2_PLACEMENT_3D ( 'NONE', #20, #302, #259 ) ;
#22 = CARTESIAN_POINT ( 'NONE',  ( -8.000000000000000000, 0.000000000000000000, 5.000000000000000000 ) ) ;
#23 = APPROVAL ( #45, 'NEURÈENÝ' ) ;
#24 = AXIS2_PLACEMENT_3D ( 'NONE', #178, #38, #272 ) ;
#25 = AXIS2_PLACEMENT_3D ( 'NONE', #305, #71, #114 ) ;
#26 = AXIS2_PLACEMENT_3D ( 'NONE', #230, #18, #199 ) ;
#27 = EDGE_LOOP ( 'NONE', ( #42, #217, #44, #251 ) ) ;
#28 = DIRECTION ( 'NONE',  ( 0.000000000000000000, 0.000000000000000000, 1.000000000000000000 ) ) ;
#29 = VERTEX_POINT ( 'NONE', #60 ) ;
#30 = ADVANCED_FACE ( 'NONE', ( #16 ), #10, .T. ) ;
#31 = MANIFOLD_SOLID_BREP ( 'Zaoblit1', #141 ) ;
#32 = DATE_AND_TIME ( #201, #250 ) ;
#33 = LOCAL_TIME ( 11, 36, 41.00000000000000000, #91 ) ;
#34 = ORIENTED_EDGE ( 'NONE', *, *, #284, .F. ) ;
#35 = DIRECTION ( 'NONE',  ( 1.000000000000000000, 0.000000000000000000, 0.000000000000000000 ) ) ;
#36 = VERTEX_POINT ( 'NONE', #206 ) ;
#37 = CARTESIAN_POINT ( 'NONE',  ( 5.250000000000000888, 6.429395695523605139E-16, 5.199999999999982414 ) ) ;
#38 = DIRECTION ( 'NONE',  ( -0.000000000000000000, -0.000000000000000000, -1.000000000000000000 ) ) ;
#39 = PERSON_AND_ORGANIZATION ( #151, #303 ) ;
#40 = AXIS2_PLACEMENT_3D ( 'NONE', #164, #190, #70 ) ;
#41 = EDGE_LOOP ( 'NONE', ( #254, #79 ) ) ;
#42 = ORIENTED_EDGE ( 'NONE', *, *, #131, .F. ) ;
#43 = FACE_OUTER_BOUND ( 'NONE', #41, .T. ) ;
#44 = ORIENTED_EDGE ( 'NONE', *, *, #216, .T. ) ;
#45 = APPROVAL_STATUS ( 'not_yet_approved' ) ;
#46 = DIRECTION ( 'NONE',  ( -0.000000000000000000, -0.000000000000000000, -1.000000000000000000 ) ) ;
#47 = SHAPE_DEFINITION_REPRESENTATION ( #138, #256 ) ;
#48 = FACE_OUTER_BOUND ( 'NONE', #54, .T. ) ;
#49 = DIRECTION ( 'NONE',  ( 0.000000000000000000, -1.000000000000000000, 0.000000000000000000 ) ) ;
#50 = CIRCLE ( 'NONE', #40, 8.000000000000000000 ) ;
#51 = EDGE_CURVE ( 'NONE', #269, #147, #200, .T. ) ;
#52 = FACE_OUTER_BOUND ( 'NONE', #132, .T. ) ;
#53 = EDGE_CURVE ( 'NONE', #64, #269, #133, .T. ) ;
#54 = EDGE_LOOP ( 'NONE', ( #198, #249, #170, #285 ) ) ;
#55 = DIRECTION ( 'NONE',  ( 0.000000000000000000, 0.000000000000000000, 1.000000000000000000 ) ) ;
#56 = MECHANICAL_CONTEXT ( 'NONE', #96, 'mechanical' ) ;
#57 = AXIS2_PLACEMENT_3D ( 'NONE', #215, #148, #219 ) ;
#58 = APPLICATION_PROTOCOL_DEFINITION ( 'international standard', 'config_control_design', 1994, #96 ) ;
#59 = DIRECTION ( 'NONE',  ( 1.000000000000000000, 0.000000000000000000, 0.000000000000000000 ) ) ;
#60 = CARTESIAN_POINT ( 'NONE',  ( -5.250000000000000888, 0.000000000000000000, 635.0000000000000000 ) ) ;
#61 = PERSON_AND_ORGANIZATION_ROLE ( 'design_supplier' ) ;
#62 = CIRCLE ( 'NONE', #8, 5.250000000000000888 ) ;
#63 = DIRECTION ( 'NONE',  ( 0.000000000000000000, 0.000000000000000000, 1.000000000000000000 ) ) ;
#64 = VERTEX_POINT ( 'NONE', #153 ) ;
#65 = APPROVAL ( #171, 'NEURÈENÝ' ) ;
#66 = DIRECTION ( 'NONE',  ( -1.000000000000000000, 0.000000000000000000, 0.000000000000000000 ) ) ;
#67 = AXIS2_PLACEMENT_3D ( 'NONE', #179, #11, #66 ) ;
#68 = DIRECTION ( 'NONE',  ( -0.000000000000000000, -0.000000000000000000, -1.000000000000000000 ) ) ;
#69 = EDGE_CURVE ( 'NONE', #214, #4, #158, .T. ) ;
#70 = DIRECTION ( 'NONE',  ( 1.000000000000000000, 0.000000000000000000, 0.000000000000000000 ) ) ;
#71 = DIRECTION ( 'NONE',  ( 1.224646799147353207E-16, 1.000000000000000000, -0.000000000000000000 ) ) ;
#72 = APPROVAL_DATE_TIME ( #32, #65 ) ;
#73 = PRODUCT_DEFINITION_FORMATION_WITH_SPECIFIED_SOURCE ( 'LIBOVOLNÝ', '', #145, .NOT_KNOWN. ) ;
#74 = DIRECTION ( 'NONE',  ( 1.000000000000000000, 0.000000000000000000, 0.000000000000000000 ) ) ;
#75 = CARTESIAN_POINT ( 'NONE',  ( 0.000000000000000000, 0.000000000000000000, 0.000000000000000000 ) ) ;
#76 = CC_DESIGN_DATE_AND_TIME_ASSIGNMENT ( #93, #192, ( #165 ) ) ;
#77 = ORIENTED_EDGE ( 'NONE', *, *, #86, .F. ) ;
#78 = ADVANCED_FACE ( 'NONE', ( #43 ), #274, .T. ) ;
#79 = ORIENTED_EDGE ( 'NONE', *, *, #128, .T. ) ;
#80 = CYLINDRICAL_SURFACE ( 'NONE', #169, 5.250000000000000888 ) ;
#81 = EDGE_CURVE ( 'NONE', #214, #36, #180, .T. ) ;
#82 = DIRECTION ( 'NONE',  ( 0.000000000000000000, 0.000000000000000000, 1.000000000000000000 ) ) ;
#83 = SECURITY_CLASSIFICATION_LEVEL ( 'unclassified' ) ;
#84 = DIRECTION ( 'NONE',  ( 0.000000000000000000, 0.000000000000000000, 1.000000000000000000 ) ) ;
#85 = DIRECTION ( 'NONE',  ( 0.000000000000000000, 0.000000000000000000, 1.000000000000000000 ) ) ;
#86 = EDGE_CURVE ( 'NONE', #36, #214, #168, .T. ) ;
#87 = ORIENTED_EDGE ( 'NONE', *, *, #53, .F. ) ;
#88 = PERSON_AND_ORGANIZATION_ROLE ( 'creator' ) ;
#89 = LINE ( 'NONE', #22, #196 ) ;
#90 =( GEOMETRIC_REPRESENTATION_CONTEXT ( 3 ) GLOBAL_UNCERTAINTY_ASSIGNED_CONTEXT ( ( #137 ) ) GLOBAL_UNIT_ASSIGNED_CONTEXT ( ( #101, #104, #291 ) ) REPRESENTATION_CONTEXT ( 'NONE', 'WORKASPACE' ) );
#91 = COORDINATED_UNIVERSAL_TIME_OFFSET ( 1, 0, .AHEAD. ) ;
#92 = CARTESIAN_POINT ( 'NONE',  ( -8.000000000000000000, 0.000000000000000000, 0.000000000000000000 ) ) ;
#93 = DATE_AND_TIME ( #186, #33 ) ;
#94 = CARTESIAN_POINT ( 'NONE',  ( 8.000000000000000000, 9.797174393178825657E-16, 5.000000000000000000 ) ) ;
#95 = CYLINDRICAL_SURFACE ( 'NONE', #208, 5.250000000000000888 ) ;
#96 = APPLICATION_CONTEXT ( 'configuration controlled 3d designs of mechanical parts and assemblies' ) ;
#97 = ORIENTED_EDGE ( 'NONE', *, *, #236, .T. ) ;
#98 = EDGE_LOOP ( 'NONE', ( #134, #276 ) ) ;
#99 = CC_DESIGN_PERSON_AND_ORGANIZATION_ASSIGNMENT ( #39, #17, ( #165 ) ) ;
#100 = AXIS2_PLACEMENT_3D ( 'NONE', #193, #49, #139 ) ;
#101 =( LENGTH_UNIT ( ) NAMED_UNIT ( * ) SI_UNIT ( .MILLI., .METRE. ) );
#102 = APPROVAL_STATUS ( 'not_yet_approved' ) ;
#103 = ORIENTED_EDGE ( 'NONE', *, *, #191, .T. ) ;
#104 =( NAMED_UNIT ( * ) PLANE_ANGLE_UNIT ( ) SI_UNIT ( $, .RADIAN. ) );
#105 = COORDINATED_UNIVERSAL_TIME_OFFSET ( 1, 0, .AHEAD. ) ;
#106 = AXIS2_PLACEMENT_3D ( 'NONE', #130, #159, #226 ) ;
#107 = DIRECTION ( 'NONE',  ( 1.000000000000000000, 0.000000000000000000, 0.000000000000000000 ) ) ;
#108 = CARTESIAN_POINT ( 'NONE',  ( 0.000000000000000000, 0.000000000000000000, 5.000000000000000000 ) ) ;
#109 = LINE ( 'NONE', #160, #268 ) ;
#110 = APPROVAL_PERSON_ORGANIZATION ( #271, #23, #258 ) ;
#111 = CARTESIAN_POINT ( 'NONE',  ( 0.000000000000000000, 0.000000000000000000, 0.000000000000000000 ) ) ;
#112 = EDGE_LOOP ( 'NONE', ( #34, #146 ) ) ;
#113 = CC_DESIGN_PERSON_AND_ORGANIZATION_ASSIGNMENT ( #245, #244, ( #145 ) ) ;
#114 = DIRECTION ( 'NONE',  ( -1.000000000000000000, 1.224646799147353454E-16, 0.000000000000000000 ) ) ;
#115 = DESIGN_CONTEXT ( 'detailed design', #14, 'design' ) ;
#116 = VECTOR ( 'NONE', #205, 1000.000000000000000 ) ;
#117 = CARTESIAN_POINT ( 'NONE',  ( 0.000000000000000000, 0.000000000000000000, 635.0000000000000000 ) ) ;
#118 = DATE_AND_TIME ( #296, #298 ) ;
#119 = FACE_OUTER_BOUND ( 'NONE', #98, .T. ) ;
#120 = ADVANCED_FACE ( 'NONE', ( #15 ), #295, .F. ) ;
#121 = ORIENTED_EDGE ( 'NONE', *, *, #236, .F. ) ;
#122 = CARTESIAN_POINT ( 'NONE',  ( 0.000000000000000000, 0.000000000000000000, 635.0000000000000000 ) ) ;
#123 = PRODUCT_DEFINITION ( 'NEZNÁMÝ', '', #73, #115 ) ;
#124 = ORIENTED_EDGE ( 'NONE', *, *, #81, .F. ) ;
#125 = AXIS2_PLACEMENT_3D ( 'NONE', #279, #140, #207 ) ;
#126 = CALENDAR_DATE ( 2022, 20, 6 ) ;
#127 = PERSON_AND_ORGANIZATION ( #151, #303 ) ;
#128 = EDGE_CURVE ( 'NONE', #64, #29, #167, .T. ) ;
#129 = VERTEX_POINT ( 'NONE', #163 ) ;
#130 = CARTESIAN_POINT ( 'NONE',  ( 0.000000000000000000, 0.000000000000000000, 635.0000000000000000 ) ) ;
#131 = EDGE_CURVE ( 'NONE', #147, #129, #155, .T. ) ;
#132 = EDGE_LOOP ( 'NONE', ( #87, #136, #253, #97 ) ) ;
#133 = LINE ( 'NONE', #227, #116 ) ;
#134 = ORIENTED_EDGE ( 'NONE', *, *, #86, .T. ) ;
#135 = CIRCLE ( 'NONE', #100, 0.1999999999999996503 ) ;
#136 = ORIENTED_EDGE ( 'NONE', *, *, #239, .F. ) ;
#137 = UNCERTAINTY_MEASURE_WITH_UNIT (LENGTH_MEASURE( 1.000000000000000082E-05 ), #101, 'distance_accuracy_value', 'NONE');
#138 = PRODUCT_DEFINITION_SHAPE ( 'NONE', 'NONE',  #123 ) ;
#139 = DIRECTION ( 'NONE',  ( 0.000000000000000000, 0.000000000000000000, -1.000000000000000000 ) ) ;
#140 = DIRECTION ( 'NONE',  ( -0.000000000000000000, -0.000000000000000000, -1.000000000000000000 ) ) ;
#141 = CLOSED_SHELL ( 'NONE', ( #195, #213, #152, #30, #235, #120, #247, #78, #255 ) ) ;
#142 = CIRCLE ( 'NONE', #280, 5.450000000000001066 ) ;
#143 = EDGE_CURVE ( 'NONE', #4, #173, #50, .T. ) ;
#144 = DIRECTION ( 'NONE',  ( 1.000000000000000000, 0.000000000000000000, 0.000000000000000000 ) ) ;
#145 = PRODUCT ( '0738', '0738', '', ( #56 ) ) ;
#146 = ORIENTED_EDGE ( 'NONE', *, *, #143, .F. ) ;
#147 = VERTEX_POINT ( 'NONE', #306 ) ;
#148 = DIRECTION ( 'NONE',  ( 0.000000000000000000, 0.000000000000000000, 1.000000000000000000 ) ) ;
#149 = CC_DESIGN_SECURITY_CLASSIFICATION ( #165, ( #73 ) ) ;
#150 = CARTESIAN_POINT ( 'NONE',  ( 0.000000000000000000, 0.000000000000000000, 635.0000000000000000 ) ) ;
#151 = PERSON ( 'NEURÈENÝ', 'NEURÈENÝ', 'NEURÈENÝ', ('NEURÈENÝ'), ('NEURÈENÝ'), ('NEURÈENÝ') ) ;
#152 = ADVANCED_FACE ( 'NONE', ( #282 ), #211, .T. ) ;
#153 = CARTESIAN_POINT ( 'NONE',  ( 5.250000000000000888, 6.429395695523605139E-16, 635.0000000000000000 ) ) ;
#154 = ORIENTED_EDGE ( 'NONE', *, *, #69, .F. ) ;
#155 = CIRCLE ( 'NONE', #25, 0.1999999999999996503 ) ;
#156 = APPROVAL_PERSON_ORGANIZATION ( #6, #252, #197 ) ;
#157 = CC_DESIGN_PERSON_AND_ORGANIZATION_ASSIGNMENT ( #257, #61, ( #73 ) ) ;
#158 = LINE ( 'NONE', #246, #2 ) ;
#159 = DIRECTION ( 'NONE',  ( 0.000000000000000000, 0.000000000000000000, 1.000000000000000000 ) ) ;
#160 = CARTESIAN_POINT ( 'NONE',  ( -5.250000000000000888, 0.000000000000000000, 635.0000000000000000 ) ) ;
#161 = COORDINATED_UNIVERSAL_TIME_OFFSET ( 1, 0, .AHEAD. ) ;
#162 = FACE_OUTER_BOUND ( 'NONE', #290, .T. ) ;
#163 = CARTESIAN_POINT ( 'NONE',  ( -5.450000000000001066, 6.674325055353076224E-16, 4.999999999999991118 ) ) ;
#164 = CARTESIAN_POINT ( 'NONE',  ( 0.000000000000000000, 0.000000000000000000, 0.000000000000000000 ) ) ;
#165 = SECURITY_CLASSIFICATION ( '', '', #83 ) ;
#166 = FACE_OUTER_BOUND ( 'NONE', #27, .T. ) ;
#167 = CIRCLE ( 'NONE', #287, 5.250000000000000888 ) ;
#168 = CIRCLE ( 'NONE', #19, 8.000000000000000000 ) ;
#169 = AXIS2_PLACEMENT_3D ( 'NONE', #150, #292, #242 ) ;
#170 = ORIENTED_EDGE ( 'NONE', *, *, #51, .T. ) ;
#171 = APPROVAL_STATUS ( 'not_yet_approved' ) ;
#172 = DIRECTION ( 'NONE',  ( 1.000000000000000000, 0.000000000000000000, 0.000000000000000000 ) ) ;
#173 = VERTEX_POINT ( 'NONE', #92 ) ;
#174 = ORIENTED_EDGE ( 'NONE', *, *, #131, .T. ) ;
#175 = TOROIDAL_SURFACE ( 'NONE', #21, 5.450000000000001066, 0.2000000000000000111 ) ;
#176 = DIRECTION ( 'NONE',  ( 1.000000000000000000, 0.000000000000000000, 0.000000000000000000 ) ) ;
#177 = CARTESIAN_POINT ( 'NONE',  ( 0.000000000000000000, 0.000000000000000000, 5.199999999999982414 ) ) ;
#178 = CARTESIAN_POINT ( 'NONE',  ( 0.000000000000000000, 0.000000000000000000, 5.000000000000000000 ) ) ;
#179 = CARTESIAN_POINT ( 'NONE',  ( 0.000000000000000000, 0.000000000000000000, 5.000000000000000000 ) ) ;
#180 = CIRCLE ( 'NONE', #221, 8.000000000000000000 ) ;
#181 = APPROVAL_PERSON_ORGANIZATION ( #289, #65, #265 ) ;
#182 = EDGE_CURVE ( 'NONE', #184, #129, #142, .T. ) ;
#183 = ORIENTED_EDGE ( 'NONE', *, *, #284, .T. ) ;
#184 = VERTEX_POINT ( 'NONE', #281 ) ;
#185 = PRODUCT_RELATED_PRODUCT_CATEGORY ( 'detail', '', ( #145 ) ) ;
#186 = CALENDAR_DATE ( 2022, 20, 6 ) ;
#187 = PLANE ( 'NONE',  #26 ) ;
#188 = CIRCLE ( 'NONE', #288, 8.000000000000000000 ) ;
#189 = APPROVAL_DATE_TIME ( #229, #23 ) ;
#190 = DIRECTION ( 'NONE',  ( 0.000000000000000000, 0.000000000000000000, 1.000000000000000000 ) ) ;
#191 = EDGE_CURVE ( 'NONE', #36, #173, #89, .T. ) ;
#192 = DATE_TIME_ROLE ( 'classification_date' ) ;
#193 = CARTESIAN_POINT ( 'NONE',  ( 5.450000000000001066, 0.000000000000000000, 5.199999999999982414 ) ) ;
#194 = DIRECTION ( 'NONE',  ( 1.000000000000000000, 0.000000000000000000, 0.000000000000000000 ) ) ;
#195 = ADVANCED_FACE ( 'NONE', ( #162 ), #175, .F. ) ;
#196 = VECTOR ( 'NONE', #68, 1000.000000000000000 ) ;
#197 = APPROVAL_ROLE ( '' ) ;
#198 = ORIENTED_EDGE ( 'NONE', *, *, #128, .F. ) ;
#199 = DIRECTION ( 'NONE',  ( 1.000000000000000000, 0.000000000000000000, -0.000000000000000000 ) ) ;
#200 = CIRCLE ( 'NONE', #248, 5.250000000000000888 ) ;
#201 = CALENDAR_DATE ( 2022, 20, 6 ) ;
#202 = EDGE_LOOP ( 'NONE', ( #154, #77, #103, #183 ) ) ;
#203 = DIRECTION ( 'NONE',  ( 0.000000000000000000, 0.000000000000000000, 1.000000000000000000 ) ) ;
#204 = DIRECTION ( 'NONE',  ( 1.000000000000000000, 0.000000000000000000, -0.000000000000000000 ) ) ;
#205 = DIRECTION ( 'NONE',  ( -0.000000000000000000, -0.000000000000000000, -1.000000000000000000 ) ) ;
#206 = CARTESIAN_POINT ( 'NONE',  ( -8.000000000000000000, 0.000000000000000000, 5.000000000000000000 ) ) ;
#207 = DIRECTION ( 'NONE',  ( -1.000000000000000000, 0.000000000000000000, 0.000000000000000000 ) ) ;
#208 = AXIS2_PLACEMENT_3D ( 'NONE', #117, #46, #209 ) ;
#209 = DIRECTION ( 'NONE',  ( -1.000000000000000000, 0.000000000000000000, 0.000000000000000000 ) ) ;
#210 = CC_DESIGN_DATE_AND_TIME_ASSIGNMENT ( #220, #263, ( #123 ) ) ;
#211 = CYLINDRICAL_SURFACE ( 'NONE', #125, 8.000000000000000000 ) ;
#212 = LOCAL_TIME ( 11, 36, 41.00000000000000000, #225 ) ;
#213 = ADVANCED_FACE ( 'NONE', ( #48 ), #95, .T. ) ;
#214 = VERTEX_POINT ( 'NONE', #94 ) ;
#215 = CARTESIAN_POINT ( 'NONE',  ( 0.000000000000000000, 0.000000000000000000, 5.199999999999982414 ) ) ;
#216 = EDGE_CURVE ( 'NONE', #269, #184, #135, .T. ) ;
#217 = ORIENTED_EDGE ( 'NONE', *, *, #51, .F. ) ;
#218 = CIRCLE ( 'NONE', #223, 5.250000000000000888 ) ;
#219 = DIRECTION ( 'NONE',  ( 1.000000000000000000, 0.000000000000000000, 0.000000000000000000 ) ) ;
#220 = DATE_AND_TIME ( #126, #243 ) ;
#221 = AXIS2_PLACEMENT_3D ( 'NONE', #108, #203, #107 ) ;
#222 = DIRECTION ( 'NONE',  ( -0.000000000000000000, -0.000000000000000000, -1.000000000000000000 ) ) ;
#223 = AXIS2_PLACEMENT_3D ( 'NONE', #122, #55, #74 ) ;
#224 = ORIENTED_EDGE ( 'NONE', *, *, #216, .F. ) ;
#225 = COORDINATED_UNIVERSAL_TIME_OFFSET ( 1, 0, .AHEAD. ) ;
#226 = DIRECTION ( 'NONE',  ( 1.000000000000000000, 0.000000000000000000, -0.000000000000000000 ) ) ;
#227 = CARTESIAN_POINT ( 'NONE',  ( 5.250000000000000888, 6.429395695523605139E-16, 635.0000000000000000 ) ) ;
#228 = EDGE_LOOP ( 'NONE', ( #124, #237, #241, #300 ) ) ;
#229 = DATE_AND_TIME ( #278, #212 ) ;
#230 = CARTESIAN_POINT ( 'NONE',  ( 0.000000000000000000, 0.000000000000000000, 5.000000000000000000 ) ) ;
#231 = DIRECTION ( 'NONE',  ( -0.000000000000000000, -0.000000000000000000, -1.000000000000000000 ) ) ;
#232 = CIRCLE ( 'NONE', #24, 5.450000000000001066 ) ;
#233 = TOROIDAL_SURFACE ( 'NONE', #57, 5.450000000000001066, 0.2000000000000000111 ) ;
#234 = FACE_BOUND ( 'NONE', #266, .T. ) ;
#235 = ADVANCED_FACE ( 'NONE', ( #234, #119 ), #187, .T. ) ;
#236 = EDGE_CURVE ( 'NONE', #147, #269, #62, .T. ) ;
#237 = ORIENTED_EDGE ( 'NONE', *, *, #69, .T. ) ;
#238 = PERSON_AND_ORGANIZATION_ROLE ( 'creator' ) ;
#239 = EDGE_CURVE ( 'NONE', #29, #64, #218, .T. ) ;
#240 = DIRECTION ( 'NONE',  ( 0.000000000000000000, 0.000000000000000000, 1.000000000000000000 ) ) ;
#241 = ORIENTED_EDGE ( 'NONE', *, *, #143, .T. ) ;
#242 = DIRECTION ( 'NONE',  ( -1.000000000000000000, 0.000000000000000000, 0.000000000000000000 ) ) ;
#243 = LOCAL_TIME ( 11, 36, 41.00000000000000000, #286 ) ;
#244 = PERSON_AND_ORGANIZATION_ROLE ( 'design_owner' ) ;
#245 = PERSON_AND_ORGANIZATION ( #151, #303 ) ;
#246 = CARTESIAN_POINT ( 'NONE',  ( 8.000000000000000000, 9.797174393178825657E-16, 5.000000000000000000 ) ) ;
#247 = ADVANCED_FACE ( 'NONE', ( #52 ), #80, .T. ) ;
#248 = AXIS2_PLACEMENT_3D ( 'NONE', #177, #63, #59 ) ;
#249 = ORIENTED_EDGE ( 'NONE', *, *, #53, .T. ) ;
#250 = LOCAL_TIME ( 11, 36, 41.00000000000000000, #105 ) ;
#251 = ORIENTED_EDGE ( 'NONE', *, *, #13, .F. ) ;
#252 = APPROVAL ( #102, 'NEURÈENÝ' ) ;
#253 = ORIENTED_EDGE ( 'NONE', *, *, #9, .T. ) ;
#254 = ORIENTED_EDGE ( 'NONE', *, *, #239, .T. ) ;
#255 = ADVANCED_FACE ( 'NONE', ( #166 ), #233, .F. ) ;
#256 = ADVANCED_BREP_SHAPE_REPRESENTATION ( '0738', ( #31, #262 ), #90 ) ;
#257 = PERSON_AND_ORGANIZATION ( #151, #303 ) ;
#258 = APPROVAL_ROLE ( '' ) ;
#259 = DIRECTION ( 'NONE',  ( 1.000000000000000000, 0.000000000000000000, 0.000000000000000000 ) ) ;
#260 = CARTESIAN_POINT ( 'NONE',  ( 0.000000000000000000, 0.000000000000000000, 5.000000000000000000 ) ) ;
#261 = CARTESIAN_POINT ( 'NONE',  ( 0.000000000000000000, 0.000000000000000000, 0.000000000000000000 ) ) ;
#262 = AXIS2_PLACEMENT_3D ( 'NONE', #261, #267, #172 ) ;
#263 = DATE_TIME_ROLE ( 'creation_date' ) ;
#264 = CC_DESIGN_PERSON_AND_ORGANIZATION_ASSIGNMENT ( #127, #238, ( #123 ) ) ;
#265 = APPROVAL_ROLE ( '' ) ;
#266 = EDGE_LOOP ( 'NONE', ( #270, #5 ) ) ;
#267 = DIRECTION ( 'NONE',  ( 0.000000000000000000, 0.000000000000000000, 1.000000000000000000 ) ) ;
#268 = VECTOR ( 'NONE', #222, 1000.000000000000000 ) ;
#269 = VERTEX_POINT ( 'NONE', #37 ) ;
#270 = ORIENTED_EDGE ( 'NONE', *, *, #182, .T. ) ;
#271 = PERSON_AND_ORGANIZATION ( #151, #303 ) ;
#272 = DIRECTION ( 'NONE',  ( 1.000000000000000000, 0.000000000000000000, 0.000000000000000000 ) ) ;
#273 = PERSON_AND_ORGANIZATION ( #151, #303 ) ;
#274 = PLANE ( 'NONE',  #106 ) ;
#275 = CC_DESIGN_APPROVAL ( #65, ( #123 ) ) ;
#276 = ORIENTED_EDGE ( 'NONE', *, *, #81, .T. ) ;
#277 = CARTESIAN_POINT ( 'NONE',  ( 8.000000000000000000, 9.797174393178825657E-16, 0.000000000000000000 ) ) ;
#278 = CALENDAR_DATE ( 2022, 20, 6 ) ;
#279 = CARTESIAN_POINT ( 'NONE',  ( 0.000000000000000000, 0.000000000000000000, 5.000000000000000000 ) ) ;
#280 = AXIS2_PLACEMENT_3D ( 'NONE', #260, #231, #194 ) ;
#281 = CARTESIAN_POINT ( 'NONE',  ( 5.450000000000001066, 0.000000000000000000, 4.999999999999991118 ) ) ;
#282 = FACE_OUTER_BOUND ( 'NONE', #228, .T. ) ;
#283 = CC_DESIGN_APPROVAL ( #23, ( #165 ) ) ;
#284 = EDGE_CURVE ( 'NONE', #173, #4, #188, .T. ) ;
#285 = ORIENTED_EDGE ( 'NONE', *, *, #9, .F. ) ;
#286 = COORDINATED_UNIVERSAL_TIME_OFFSET ( 1, 0, .AHEAD. ) ;
#287 = AXIS2_PLACEMENT_3D ( 'NONE', #297, #85, #144 ) ;
#288 = AXIS2_PLACEMENT_3D ( 'NONE', #75, #240, #176 ) ;
#289 = PERSON_AND_ORGANIZATION ( #151, #303 ) ;
#290 = EDGE_LOOP ( 'NONE', ( #121, #174, #1, #224 ) ) ;
#291 =( NAMED_UNIT ( * ) SI_UNIT ( $, .STERADIAN. ) SOLID_ANGLE_UNIT ( ) );
#292 = DIRECTION ( 'NONE',  ( -0.000000000000000000, -0.000000000000000000, -1.000000000000000000 ) ) ;
#293 = CC_DESIGN_PERSON_AND_ORGANIZATION_ASSIGNMENT ( #273, #88, ( #73 ) ) ;
#294 = CARTESIAN_POINT ( 'NONE',  ( 0.000000000000000000, 0.000000000000000000, 5.000000000000000000 ) ) ;
#295 = PLANE ( 'NONE',  #301 ) ;
#296 = CALENDAR_DATE ( 2022, 20, 6 ) ;
#297 = CARTESIAN_POINT ( 'NONE',  ( 0.000000000000000000, 0.000000000000000000, 635.0000000000000000 ) ) ;
#298 = LOCAL_TIME ( 11, 36, 41.00000000000000000, #161 ) ;
#299 = DIRECTION ( 'NONE',  ( -0.000000000000000000, -0.000000000000000000, -1.000000000000000000 ) ) ;
#300 = ORIENTED_EDGE ( 'NONE', *, *, #191, .F. ) ;
#301 = AXIS2_PLACEMENT_3D ( 'NONE', #111, #84, #204 ) ;
#302 = DIRECTION ( 'NONE',  ( 0.000000000000000000, 0.000000000000000000, 1.000000000000000000 ) ) ;
#303 = ORGANIZATION ( 'NEURÈENÝ', 'NEURÈENÝ', '' ) ;
#304 = APPROVAL_DATE_TIME ( #118, #252 ) ;
#305 = CARTESIAN_POINT ( 'NONE',  ( -5.450000000000001066, 6.674325055353076224E-16, 5.199999999999982414 ) ) ;
#306 = CARTESIAN_POINT ( 'NONE',  ( -5.250000000000000888, 0.000000000000000000, 5.199999999999982414 ) ) ;
#307 = CARTESIAN_POINT ( 'NONE',  ( 0.000000000000000000, 0.000000000000000000, 5.199999999999982414 ) ) ;
ENDSEC;
END-ISO-10303-21;
