ISO-10303-21;
HEADER;
FILE_DESCRIPTION (( 'STEP AP203' ),
    '1' );
FILE_NAME ('eea3.STEP',
    '2022-06-20T09:17:01',
    ( '' ),
    ( '' ),
    'SwSTEP 2.0',
    'SolidWorks 2019',
    '' );
FILE_SCHEMA (( 'CONFIG_CONTROL_DESIGN' ));
ENDSEC;

DATA;
#1 = ORIENTED_EDGE ( 'NONE', *, *, #130, .F. ) ;
#2 = APPROVAL_PERSON_ORGANIZATION ( #69, #212, #57 ) ;
#3 = AXIS2_PLACEMENT_3D ( 'NONE', #264, #75, #32 ) ;
#4 = CARTESIAN_POINT ( 'NONE',  ( 0.000000000000000000, 0.000000000000000000, 110.0000000000000000 ) ) ;
#5 = EDGE_CURVE ( 'NONE', #219, #47, #91, .T. ) ;
#6 = FACE_BOUND ( 'NONE', #278, .T. ) ;
#7 = CARTESIAN_POINT ( 'NONE',  ( 0.000000000000000000, 0.000000000000000000, 0.000000000000000000 ) ) ;
#8 = DIRECTION ( 'NONE',  ( 0.000000000000000000, 0.000000000000000000, 1.000000000000000000 ) ) ;
#9 = LINE ( 'NONE', #94, #173 ) ;
#10 = EDGE_CURVE ( 'NONE', #46, #127, #62, .T. ) ;
#11 = VERTEX_POINT ( 'NONE', #157 ) ;
#12 = CIRCLE ( 'NONE', #232, 16.00000000000000000 ) ;
#13 = APPROVAL_STATUS ( 'not_yet_approved' ) ;
#14 = ORIENTED_EDGE ( 'NONE', *, *, #149, .T. ) ;
#15 = DATE_TIME_ROLE ( 'creation_date' ) ;
#16 =( LENGTH_UNIT ( ) NAMED_UNIT ( * ) SI_UNIT ( .MILLI., .METRE. ) );
#17 = SECURITY_CLASSIFICATION_LEVEL ( 'unclassified' ) ;
#18 = PERSON_AND_ORGANIZATION_ROLE ( 'creator' ) ;
#19 = ORIENTED_EDGE ( 'NONE', *, *, #161, .F. ) ;
#20 = ORIENTED_EDGE ( 'NONE', *, *, #117, .T. ) ;
#21 = APPROVAL ( #199, 'NEURÈENÝ' ) ;
#22 = CARTESIAN_POINT ( 'NONE',  ( 0.000000000000000000, 0.000000000000000000, 110.0000000000000000 ) ) ;
#23 = CARTESIAN_POINT ( 'NONE',  ( 0.000000000000000000, 0.000000000000000000, 110.0000000000000000 ) ) ;
#24 = LOCAL_TIME ( 11, 17, 1.000000000000000000, #250 ) ;
#25 = PRODUCT ( 'eea3', 'eea3', '', ( #107 ) ) ;
#26 = CC_DESIGN_PERSON_AND_ORGANIZATION_ASSIGNMENT ( #277, #249, ( #25 ) ) ;
#27 = ORIENTED_EDGE ( 'NONE', *, *, #108, .F. ) ;
#28 = CARTESIAN_POINT ( 'NONE',  ( 0.000000000000000000, 0.000000000000000000, 110.0000000000000000 ) ) ;
#29 = FACE_OUTER_BOUND ( 'NONE', #282, .T. ) ;
#30 = DIRECTION ( 'NONE',  ( -0.000000000000000000, -0.000000000000000000, -1.000000000000000000 ) ) ;
#31 = CARTESIAN_POINT ( 'NONE',  ( -16.00000000000000000, 0.000000000000000000, 110.0000000000000000 ) ) ;
#32 = DIRECTION ( 'NONE',  ( 1.000000000000000000, 0.000000000000000000, 0.000000000000000000 ) ) ;
#33 = CARTESIAN_POINT ( 'NONE',  ( 0.000000000000000000, 0.000000000000000000, 0.000000000000000000 ) ) ;
#34 = EDGE_CURVE ( 'NONE', #198, #89, #226, .T. ) ;
#35 = PERSON_AND_ORGANIZATION ( #68, #221 ) ;
#36 = APPROVAL_STATUS ( 'not_yet_approved' ) ;
#37 = CALENDAR_DATE ( 2022, 20, 6 ) ;
#38 = VECTOR ( 'NONE', #244, 1000.000000000000000 ) ;
#39 = APPLICATION_PROTOCOL_DEFINITION ( 'international standard', 'config_control_design', 1994, #257 ) ;
#40 = AXIS2_PLACEMENT_3D ( 'NONE', #241, #55, #100 ) ;
#41 = EDGE_CURVE ( 'NONE', #11, #200, #209, .T. ) ;
#42 = ORIENTED_EDGE ( 'NONE', *, *, #93, .F. ) ;
#43 = AXIS2_PLACEMENT_3D ( 'NONE', #266, #142, #52 ) ;
#44 = DIRECTION ( 'NONE',  ( -0.000000000000000000, -0.000000000000000000, -1.000000000000000000 ) ) ;
#45 = SHAPE_DEFINITION_REPRESENTATION ( #234, #273 ) ;
#46 = VERTEX_POINT ( 'NONE', #205 ) ;
#47 = VERTEX_POINT ( 'NONE', #236 ) ;
#48 = ORIENTED_EDGE ( 'NONE', *, *, #149, .F. ) ;
#49 = CARTESIAN_POINT ( 'NONE',  ( 0.000000000000000000, 0.000000000000000000, 110.0000000000000000 ) ) ;
#50 = PLANE ( 'NONE',  #251 ) ;
#51 = EDGE_CURVE ( 'NONE', #89, #198, #294, .T. ) ;
#52 = DIRECTION ( 'NONE',  ( 1.000000000000000000, 0.000000000000000000, 0.000000000000000000 ) ) ;
#53 = DIRECTION ( 'NONE',  ( 1.000000000000000000, 0.000000000000000000, -0.000000000000000000 ) ) ;
#54 = ADVANCED_FACE ( 'NONE', ( #187 ), #305, .T. ) ;
#55 = DIRECTION ( 'NONE',  ( 0.000000000000000000, -1.000000000000000000, 0.000000000000000000 ) ) ;
#56 = DATE_AND_TIME ( #37, #24 ) ;
#57 = APPROVAL_ROLE ( '' ) ;
#58 = CIRCLE ( 'NONE', #233, 0.1999999999999987899 ) ;
#59 = CALENDAR_DATE ( 2022, 20, 6 ) ;
#60 = EDGE_CURVE ( 'NONE', #127, #258, #104, .T. ) ;
#61 = EDGE_LOOP ( 'NONE', ( #64, #138, #260, #162 ) ) ;
#62 = LINE ( 'NONE', #140, #110 ) ;
#63 = ORIENTED_EDGE ( 'NONE', *, *, #34, .F. ) ;
#64 = ORIENTED_EDGE ( 'NONE', *, *, #272, .F. ) ;
#65 = AXIS2_PLACEMENT_3D ( 'NONE', #4, #286, #164 ) ;
#66 = ORIENTED_EDGE ( 'NONE', *, *, #137, .T. ) ;
#67 = LOCAL_TIME ( 11, 17, 1.000000000000000000, #246 ) ;
#68 = PERSON ( 'NEURÈENÝ', 'NEURÈENÝ', 'NEURÈENÝ', ('NEURÈENÝ'), ('NEURÈENÝ'), ('NEURÈENÝ') ) ;
#69 = PERSON_AND_ORGANIZATION ( #68, #221 ) ;
#70 = DIRECTION ( 'NONE',  ( 0.000000000000000000, 0.000000000000000000, 1.000000000000000000 ) ) ;
#71 = EDGE_CURVE ( 'NONE', #111, #258, #87, .T. ) ;
#72 = CARTESIAN_POINT ( 'NONE',  ( 16.00000000000000000, 1.959434878635765131E-15, 110.0000000000000000 ) ) ;
#73 = CARTESIAN_POINT ( 'NONE',  ( 20.00000000000000000, 2.449293598294706513E-15, 10.00000000000000000 ) ) ;
#74 = CC_DESIGN_APPROVAL ( #212, ( #184 ) ) ;
#75 = DIRECTION ( 'NONE',  ( 0.000000000000000000, 0.000000000000000000, 1.000000000000000000 ) ) ;
#76 = ADVANCED_FACE ( 'NONE', ( #190 ), #50, .F. ) ;
#77 = DIRECTION ( 'NONE',  ( 0.000000000000000000, 0.000000000000000000, 1.000000000000000000 ) ) ;
#78 = APPROVAL_ROLE ( '' ) ;
#79 = AXIS2_PLACEMENT_3D ( 'NONE', #141, #44, #136 ) ;
#80 = CIRCLE ( 'NONE', #186, 16.19999999999999929 ) ;
#81 = ORIENTED_EDGE ( 'NONE', *, *, #10, .F. ) ;
#82 = DIRECTION ( 'NONE',  ( 1.000000000000000000, 0.000000000000000000, 0.000000000000000000 ) ) ;
#83 = COORDINATED_UNIVERSAL_TIME_OFFSET ( 1, 0, .AHEAD. ) ;
#84 = DATE_AND_TIME ( #155, #67 ) ;
#85 = ORIENTED_EDGE ( 'NONE', *, *, #130, .T. ) ;
#86 = AXIS2_PLACEMENT_3D ( 'NONE', #182, #304, #283 ) ;
#87 = LINE ( 'NONE', #73, #38 ) ;
#88 = ORIENTED_EDGE ( 'NONE', *, *, #117, .F. ) ;
#89 = VERTEX_POINT ( 'NONE', #72 ) ;
#90 = DIRECTION ( 'NONE',  ( -0.000000000000000000, -0.000000000000000000, -1.000000000000000000 ) ) ;
#91 = CIRCLE ( 'NONE', #185, 16.00000000000000000 ) ;
#92 = CIRCLE ( 'NONE', #40, 0.2000000000000005107 ) ;
#93 = EDGE_CURVE ( 'NONE', #258, #127, #176, .T. ) ;
#94 = CARTESIAN_POINT ( 'NONE',  ( 16.00000000000000000, 1.959434878635765131E-15, 110.0000000000000000 ) ) ;
#95 = DATE_AND_TIME ( #115, #281 ) ;
#96 = CARTESIAN_POINT ( 'NONE',  ( -16.00000000000000000, 0.000000000000000000, 110.0000000000000000 ) ) ;
#97 = LINE ( 'NONE', #96, #133 ) ;
#98 = AXIS2_PLACEMENT_3D ( 'NONE', #106, #252, #82 ) ;
#99 = DESIGN_CONTEXT ( 'detailed design', #192, 'design' ) ;
#100 = DIRECTION ( 'NONE',  ( 0.000000000000000000, 0.000000000000000000, -1.000000000000000000 ) ) ;
#101 = DIRECTION ( 'NONE',  ( 1.000000000000000000, 0.000000000000000000, 0.000000000000000000 ) ) ;
#102 = DIRECTION ( 'NONE',  ( 1.000000000000000000, 0.000000000000000000, -0.000000000000000000 ) ) ;
#103 = LOCAL_TIME ( 11, 17, 1.000000000000000000, #83 ) ;
#104 = CIRCLE ( 'NONE', #86, 20.00000000000000000 ) ;
#105 = EDGE_LOOP ( 'NONE', ( #160, #301 ) ) ;
#106 = CARTESIAN_POINT ( 'NONE',  ( 0.000000000000000000, 0.000000000000000000, 10.20000000000000107 ) ) ;
#107 = MECHANICAL_CONTEXT ( 'NONE', #257, 'mechanical' ) ;
#108 = EDGE_CURVE ( 'NONE', #47, #200, #58, .T. ) ;
#109 = CC_DESIGN_APPROVAL ( #21, ( #128 ) ) ;
#110 = VECTOR ( 'NONE', #90, 1000.000000000000000 ) ;
#111 = VERTEX_POINT ( 'NONE', #287 ) ;
#112 = DIRECTION ( 'NONE',  ( -0.000000000000000000, -0.000000000000000000, -1.000000000000000000 ) ) ;
#113 = DIRECTION ( 'NONE',  ( 1.000000000000000000, 0.000000000000000000, 0.000000000000000000 ) ) ;
#114 = ORIENTED_EDGE ( 'NONE', *, *, #41, .T. ) ;
#115 = CALENDAR_DATE ( 2022, 20, 6 ) ;
#116 = DIRECTION ( 'NONE',  ( 0.000000000000000000, 0.000000000000000000, 1.000000000000000000 ) ) ;
#117 = EDGE_CURVE ( 'NONE', #46, #111, #254, .T. ) ;
#118 = CARTESIAN_POINT ( 'NONE',  ( 0.000000000000000000, 0.000000000000000000, 10.20000000000000107 ) ) ;
#119 = DIRECTION ( 'NONE',  ( -1.000000000000000000, 0.000000000000000000, 0.000000000000000000 ) ) ;
#120 = FACE_OUTER_BOUND ( 'NONE', #105, .T. ) ;
#121 = CYLINDRICAL_SURFACE ( 'NONE', #143, 20.00000000000000000 ) ;
#122 = AXIS2_PLACEMENT_3D ( 'NONE', #224, #293, #102 ) ;
#123 = FACE_OUTER_BOUND ( 'NONE', #253, .T. ) ;
#124 = DIRECTION ( 'NONE',  ( 0.000000000000000000, 0.000000000000000000, 1.000000000000000000 ) ) ;
#125 = CC_DESIGN_PERSON_AND_ORGANIZATION_ASSIGNMENT ( #35, #18, ( #145 ) ) ;
#126 = PERSON_AND_ORGANIZATION ( #68, #221 ) ;
#127 = VERTEX_POINT ( 'NONE', #168 ) ;
#128 = PRODUCT_DEFINITION_FORMATION_WITH_SPECIFIED_SOURCE ( 'LIBOVOLNÝ', '', #25, .NOT_KNOWN. ) ;
#129 = DATE_AND_TIME ( #59, #103 ) ;
#130 = EDGE_CURVE ( 'NONE', #198, #47, #97, .T. ) ;
#131 = APPROVAL_DATE_TIME ( #56, #292 ) ;
#132 = DIRECTION ( 'NONE',  ( 1.000000000000000000, 0.000000000000000000, 0.000000000000000000 ) ) ;
#133 = VECTOR ( 'NONE', #237, 1000.000000000000000 ) ;
#134 = DIRECTION ( 'NONE',  ( 1.000000000000000000, 0.000000000000000000, 0.000000000000000000 ) ) ;
#135 = COORDINATED_UNIVERSAL_TIME_OFFSET ( 1, 0, .AHEAD. ) ;
#136 = DIRECTION ( 'NONE',  ( 1.000000000000000000, 0.000000000000000000, 0.000000000000000000 ) ) ;
#137 = EDGE_CURVE ( 'NONE', #89, #219, #9, .T. ) ;
#138 = ORIENTED_EDGE ( 'NONE', *, *, #108, .T. ) ;
#139 = APPROVAL_PERSON_ORGANIZATION ( #291, #21, #78 ) ;
#140 = CARTESIAN_POINT ( 'NONE',  ( -20.00000000000000000, 0.000000000000000000, 10.00000000000000000 ) ) ;
#141 = CARTESIAN_POINT ( 'NONE',  ( 0.000000000000000000, 0.000000000000000000, 10.00000000000000000 ) ) ;
#142 = DIRECTION ( 'NONE',  ( 0.000000000000000000, 0.000000000000000000, 1.000000000000000000 ) ) ;
#143 = AXIS2_PLACEMENT_3D ( 'NONE', #215, #261, #267 ) ;
#144 = CYLINDRICAL_SURFACE ( 'NONE', #204, 20.00000000000000000 ) ;
#145 = PRODUCT_DEFINITION ( 'NEZNÁMÝ', '', #128, #99 ) ;
#146 = CARTESIAN_POINT ( 'NONE',  ( 0.000000000000000000, 0.000000000000000000, 10.00000000000000000 ) ) ;
#147 = CARTESIAN_POINT ( 'NONE',  ( 16.00000000000000000, 1.959434878635765131E-15, 10.20000000000000107 ) ) ;
#148 = DATE_AND_TIME ( #269, #299 ) ;
#149 = EDGE_CURVE ( 'NONE', #111, #46, #227, .T. ) ;
#150 = ORIENTED_EDGE ( 'NONE', *, *, #5, .T. ) ;
#151 = APPROVAL_ROLE ( '' ) ;
#152 = APPLICATION_PROTOCOL_DEFINITION ( 'international standard', 'config_control_design', 1994, #192 ) ;
#153 = FACE_OUTER_BOUND ( 'NONE', #228, .T. ) ;
#154 = EDGE_LOOP ( 'NONE', ( #27, #296, #158, #19 ) ) ;
#155 = CALENDAR_DATE ( 2022, 20, 6 ) ;
#156 = AXIS2_PLACEMENT_3D ( 'NONE', #28, #116, #207 ) ;
#157 = CARTESIAN_POINT ( 'NONE',  ( 16.19999999999999929, 0.000000000000000000, 10.00000000000000000 ) ) ;
#158 = ORIENTED_EDGE ( 'NONE', *, *, #197, .T. ) ;
#159 = PERSON_AND_ORGANIZATION ( #68, #221 ) ;
#160 = ORIENTED_EDGE ( 'NONE', *, *, #34, .T. ) ;
#161 = EDGE_CURVE ( 'NONE', #200, #11, #80, .T. ) ;
#162 = ORIENTED_EDGE ( 'NONE', *, *, #197, .F. ) ;
#163 = DIRECTION ( 'NONE',  ( 1.000000000000000000, 0.000000000000000000, 0.000000000000000000 ) ) ;
#164 = DIRECTION ( 'NONE',  ( -1.000000000000000000, 0.000000000000000000, 0.000000000000000000 ) ) ;
#165 = DATE_TIME_ROLE ( 'classification_date' ) ;
#166 = TOROIDAL_SURFACE ( 'NONE', #98, 16.19999999999999929, 0.2000000000000000111 ) ;
#167 = DIRECTION ( 'NONE',  ( 0.000000000000000000, 0.000000000000000000, 1.000000000000000000 ) ) ;
#168 = CARTESIAN_POINT ( 'NONE',  ( -20.00000000000000000, 0.000000000000000000, 0.000000000000000000 ) ) ;
#169 = DIRECTION ( 'NONE',  ( -0.000000000000000000, -0.000000000000000000, -1.000000000000000000 ) ) ;
#170 = ADVANCED_FACE ( 'NONE', ( #242 ), #270, .F. ) ;
#171 = COORDINATED_UNIVERSAL_TIME_OFFSET ( 1, 0, .AHEAD. ) ;
#172 = AXIS2_PLACEMENT_3D ( 'NONE', #23, #255, #113 ) ;
#173 = VECTOR ( 'NONE', #188, 1000.000000000000000 ) ;
#174 = CC_DESIGN_PERSON_AND_ORGANIZATION_ASSIGNMENT ( #159, #303, ( #128 ) ) ;
#175 = CARTESIAN_POINT ( 'NONE',  ( 0.000000000000000000, 0.000000000000000000, 0.000000000000000000 ) ) ;
#176 = CIRCLE ( 'NONE', #191, 20.00000000000000000 ) ;
#177 = CC_DESIGN_DATE_AND_TIME_ASSIGNMENT ( #129, #15, ( #145 ) ) ;
#178 = PERSON_AND_ORGANIZATION ( #68, #221 ) ;
#179 = ORIENTED_EDGE ( 'NONE', *, *, #93, .T. ) ;
#180 =( GEOMETRIC_REPRESENTATION_CONTEXT ( 3 ) GLOBAL_UNCERTAINTY_ASSIGNED_CONTEXT ( ( #195 ) ) GLOBAL_UNIT_ASSIGNED_CONTEXT ( ( #16, #196, #298 ) ) REPRESENTATION_CONTEXT ( 'NONE', 'WORKASPACE' ) );
#181 = ORIENTED_EDGE ( 'NONE', *, *, #10, .T. ) ;
#182 = CARTESIAN_POINT ( 'NONE',  ( 0.000000000000000000, 0.000000000000000000, 0.000000000000000000 ) ) ;
#183 = EDGE_LOOP ( 'NONE', ( #280, #88, #181, #284 ) ) ;
#184 = SECURITY_CLASSIFICATION ( '', '', #17 ) ;
#185 = AXIS2_PLACEMENT_3D ( 'NONE', #202, #231, #134 ) ;
#186 = AXIS2_PLACEMENT_3D ( 'NONE', #146, #169, #189 ) ;
#187 = FACE_OUTER_BOUND ( 'NONE', #230, .T. ) ;
#188 = DIRECTION ( 'NONE',  ( -0.000000000000000000, -0.000000000000000000, -1.000000000000000000 ) ) ;
#189 = DIRECTION ( 'NONE',  ( 1.000000000000000000, 0.000000000000000000, 0.000000000000000000 ) ) ;
#190 = FACE_OUTER_BOUND ( 'NONE', #222, .T. ) ;
#191 = AXIS2_PLACEMENT_3D ( 'NONE', #7, #8, #101 ) ;
#192 = APPLICATION_CONTEXT ( 'configuration controlled 3d designs of mechanical parts and assemblies' ) ;
#193 = CARTESIAN_POINT ( 'NONE',  ( -16.19999999999999929, 1.983927814618711846E-15, 10.00000000000000000 ) ) ;
#194 = ADVANCED_FACE ( 'NONE', ( #123 ), #121, .T. ) ;
#195 = UNCERTAINTY_MEASURE_WITH_UNIT (LENGTH_MEASURE( 1.000000000000000082E-05 ), #16, 'distance_accuracy_value', 'NONE');
#196 =( NAMED_UNIT ( * ) PLANE_ANGLE_UNIT ( ) SI_UNIT ( $, .RADIAN. ) );
#197 = EDGE_CURVE ( 'NONE', #219, #11, #92, .T. ) ;
#198 = VERTEX_POINT ( 'NONE', #31 ) ;
#199 = APPROVAL_STATUS ( 'not_yet_approved' ) ;
#200 = VERTEX_POINT ( 'NONE', #193 ) ;
#201 = ADVANCED_FACE ( 'NONE', ( #120 ), #290, .T. ) ;
#202 = CARTESIAN_POINT ( 'NONE',  ( 0.000000000000000000, 0.000000000000000000, 10.20000000000000107 ) ) ;
#203 = DIRECTION ( 'NONE',  ( -1.000000000000000000, 0.000000000000000000, 0.000000000000000000 ) ) ;
#204 = AXIS2_PLACEMENT_3D ( 'NONE', #240, #30, #119 ) ;
#205 = CARTESIAN_POINT ( 'NONE',  ( -20.00000000000000000, 0.000000000000000000, 10.00000000000000000 ) ) ;
#206 = ORIENTED_EDGE ( 'NONE', *, *, #137, .F. ) ;
#207 = DIRECTION ( 'NONE',  ( 1.000000000000000000, 0.000000000000000000, 0.000000000000000000 ) ) ;
#208 = MANIFOLD_SOLID_BREP ( 'Zaoblit1', #245 ) ;
#209 = CIRCLE ( 'NONE', #79, 16.19999999999999929 ) ;
#210 = AXIS2_PLACEMENT_3D ( 'NONE', #118, #70, #163 ) ;
#211 = CYLINDRICAL_SURFACE ( 'NONE', #65, 16.00000000000000000 ) ;
#212 = APPROVAL ( #36, 'NEURÈENÝ' ) ;
#213 = CARTESIAN_POINT ( 'NONE',  ( 20.00000000000000000, 2.449293598294706513E-15, 0.000000000000000000 ) ) ;
#214 = DIRECTION ( 'NONE',  ( 1.000000000000000000, 0.000000000000000000, -0.000000000000000000 ) ) ;
#215 = CARTESIAN_POINT ( 'NONE',  ( 0.000000000000000000, 0.000000000000000000, 10.00000000000000000 ) ) ;
#216 = CC_DESIGN_DATE_AND_TIME_ASSIGNMENT ( #95, #165, ( #184 ) ) ;
#217 = DIRECTION ( 'NONE',  ( -1.000000000000000000, 1.224646799147353947E-16, 0.000000000000000000 ) ) ;
#218 = FACE_OUTER_BOUND ( 'NONE', #61, .T. ) ;
#219 = VERTEX_POINT ( 'NONE', #147 ) ;
#220 = CARTESIAN_POINT ( 'NONE',  ( 0.000000000000000000, 0.000000000000000000, 10.20000000000000107 ) ) ;
#221 = ORGANIZATION ( 'NEURÈENÝ', 'NEURÈENÝ', '' ) ;
#222 = EDGE_LOOP ( 'NONE', ( #295, #42 ) ) ;
#223 = PERSON_AND_ORGANIZATION_ROLE ( 'creator' ) ;
#224 = CARTESIAN_POINT ( 'NONE',  ( 0.000000000000000000, 0.000000000000000000, 10.00000000000000000 ) ) ;
#225 = ADVANCED_FACE ( 'NONE', ( #29 ), #211, .T. ) ;
#226 = CIRCLE ( 'NONE', #172, 16.00000000000000000 ) ;
#227 = CIRCLE ( 'NONE', #43, 20.00000000000000000 ) ;
#228 = EDGE_LOOP ( 'NONE', ( #20, #14 ) ) ;
#229 = PERSON_AND_ORGANIZATION ( #68, #221 ) ;
#230 = EDGE_LOOP ( 'NONE', ( #259, #66, #150, #1 ) ) ;
#231 = DIRECTION ( 'NONE',  ( 0.000000000000000000, 0.000000000000000000, 1.000000000000000000 ) ) ;
#232 = AXIS2_PLACEMENT_3D ( 'NONE', #220, #124, #274 ) ;
#233 = AXIS2_PLACEMENT_3D ( 'NONE', #289, #285, #217 ) ;
#234 = PRODUCT_DEFINITION_SHAPE ( 'NONE', 'NONE',  #145 ) ;
#235 = ORIENTED_EDGE ( 'NONE', *, *, #71, .T. ) ;
#236 = CARTESIAN_POINT ( 'NONE',  ( -16.00000000000000000, 0.000000000000000000, 10.20000000000000107 ) ) ;
#237 = DIRECTION ( 'NONE',  ( -0.000000000000000000, -0.000000000000000000, -1.000000000000000000 ) ) ;
#238 = ADVANCED_FACE ( 'NONE', ( #262 ), #144, .T. ) ;
#239 = CC_DESIGN_SECURITY_CLASSIFICATION ( #184, ( #128 ) ) ;
#240 = CARTESIAN_POINT ( 'NONE',  ( 0.000000000000000000, 0.000000000000000000, 10.00000000000000000 ) ) ;
#241 = CARTESIAN_POINT ( 'NONE',  ( 16.19999999999999929, 0.000000000000000000, 10.20000000000000107 ) ) ;
#242 = FACE_OUTER_BOUND ( 'NONE', #154, .T. ) ;
#243 = CC_DESIGN_APPROVAL ( #292, ( #145 ) ) ;
#244 = DIRECTION ( 'NONE',  ( -0.000000000000000000, -0.000000000000000000, -1.000000000000000000 ) ) ;
#245 = CLOSED_SHELL ( 'NONE', ( #276, #54, #194, #238, #265, #76, #225, #201, #170 ) ) ;
#246 = COORDINATED_UNIVERSAL_TIME_OFFSET ( 1, 0, .AHEAD. ) ;
#247 = APPROVAL_DATE_TIME ( #148, #21 ) ;
#248 = ORIENTED_EDGE ( 'NONE', *, *, #272, .T. ) ;
#249 = PERSON_AND_ORGANIZATION_ROLE ( 'design_owner' ) ;
#250 = COORDINATED_UNIVERSAL_TIME_OFFSET ( 1, 0, .AHEAD. ) ;
#251 = AXIS2_PLACEMENT_3D ( 'NONE', #33, #167, #53 ) ;
#252 = DIRECTION ( 'NONE',  ( 0.000000000000000000, 0.000000000000000000, 1.000000000000000000 ) ) ;
#253 = EDGE_LOOP ( 'NONE', ( #48, #235, #179, #81 ) ) ;
#254 = CIRCLE ( 'NONE', #3, 20.00000000000000000 ) ;
#255 = DIRECTION ( 'NONE',  ( 0.000000000000000000, 0.000000000000000000, 1.000000000000000000 ) ) ;
#256 = CC_DESIGN_PERSON_AND_ORGANIZATION_ASSIGNMENT ( #178, #300, ( #184 ) ) ;
#257 = APPLICATION_CONTEXT ( 'configuration controlled 3d designs of mechanical parts and assemblies' ) ;
#258 = VERTEX_POINT ( 'NONE', #213 ) ;
#259 = ORIENTED_EDGE ( 'NONE', *, *, #51, .F. ) ;
#260 = ORIENTED_EDGE ( 'NONE', *, *, #41, .F. ) ;
#261 = DIRECTION ( 'NONE',  ( -0.000000000000000000, -0.000000000000000000, -1.000000000000000000 ) ) ;
#262 = FACE_OUTER_BOUND ( 'NONE', #183, .T. ) ;
#263 = AXIS2_PLACEMENT_3D ( 'NONE', #175, #297, #132 ) ;
#264 = CARTESIAN_POINT ( 'NONE',  ( 0.000000000000000000, 0.000000000000000000, 10.00000000000000000 ) ) ;
#265 = ADVANCED_FACE ( 'NONE', ( #6, #153 ), #271, .T. ) ;
#266 = CARTESIAN_POINT ( 'NONE',  ( 0.000000000000000000, 0.000000000000000000, 10.00000000000000000 ) ) ;
#267 = DIRECTION ( 'NONE',  ( -1.000000000000000000, 0.000000000000000000, 0.000000000000000000 ) ) ;
#268 = AXIS2_PLACEMENT_3D ( 'NONE', #49, #77, #214 ) ;
#269 = CALENDAR_DATE ( 2022, 20, 6 ) ;
#270 = TOROIDAL_SURFACE ( 'NONE', #210, 16.19999999999999929, 0.2000000000000000111 ) ;
#271 = PLANE ( 'NONE',  #122 ) ;
#272 = EDGE_CURVE ( 'NONE', #47, #219, #12, .T. ) ;
#273 = ADVANCED_BREP_SHAPE_REPRESENTATION ( 'eea3', ( #208, #263 ), #180 ) ;
#274 = DIRECTION ( 'NONE',  ( 1.000000000000000000, 0.000000000000000000, 0.000000000000000000 ) ) ;
#275 = APPROVAL_PERSON_ORGANIZATION ( #126, #292, #151 ) ;
#276 = ADVANCED_FACE ( 'NONE', ( #218 ), #166, .F. ) ;
#277 = PERSON_AND_ORGANIZATION ( #68, #221 ) ;
#278 = EDGE_LOOP ( 'NONE', ( #114, #306 ) ) ;
#279 = APPROVAL_DATE_TIME ( #84, #212 ) ;
#280 = ORIENTED_EDGE ( 'NONE', *, *, #71, .F. ) ;
#281 = LOCAL_TIME ( 11, 17, 1.000000000000000000, #135 ) ;
#282 = EDGE_LOOP ( 'NONE', ( #206, #63, #85, #248 ) ) ;
#283 = DIRECTION ( 'NONE',  ( 1.000000000000000000, 0.000000000000000000, 0.000000000000000000 ) ) ;
#284 = ORIENTED_EDGE ( 'NONE', *, *, #60, .T. ) ;
#285 = DIRECTION ( 'NONE',  ( 1.224646799147353207E-16, 1.000000000000000000, -0.000000000000000000 ) ) ;
#286 = DIRECTION ( 'NONE',  ( -0.000000000000000000, -0.000000000000000000, -1.000000000000000000 ) ) ;
#287 = CARTESIAN_POINT ( 'NONE',  ( 20.00000000000000000, 2.449293598294706513E-15, 10.00000000000000000 ) ) ;
#288 = AXIS2_PLACEMENT_3D ( 'NONE', #22, #112, #203 ) ;
#289 = CARTESIAN_POINT ( 'NONE',  ( -16.19999999999999929, 1.983927814618711846E-15, 10.20000000000000107 ) ) ;
#290 = PLANE ( 'NONE',  #268 ) ;
#291 = PERSON_AND_ORGANIZATION ( #68, #221 ) ;
#292 = APPROVAL ( #13, 'NEURÈENÝ' ) ;
#293 = DIRECTION ( 'NONE',  ( 0.000000000000000000, 0.000000000000000000, 1.000000000000000000 ) ) ;
#294 = CIRCLE ( 'NONE', #156, 16.00000000000000000 ) ;
#295 = ORIENTED_EDGE ( 'NONE', *, *, #60, .F. ) ;
#296 = ORIENTED_EDGE ( 'NONE', *, *, #5, .F. ) ;
#297 = DIRECTION ( 'NONE',  ( 0.000000000000000000, 0.000000000000000000, 1.000000000000000000 ) ) ;
#298 =( NAMED_UNIT ( * ) SI_UNIT ( $, .STERADIAN. ) SOLID_ANGLE_UNIT ( ) );
#299 = LOCAL_TIME ( 11, 17, 1.000000000000000000, #171 ) ;
#300 = PERSON_AND_ORGANIZATION_ROLE ( 'classification_officer' ) ;
#301 = ORIENTED_EDGE ( 'NONE', *, *, #51, .T. ) ;
#302 = PRODUCT_RELATED_PRODUCT_CATEGORY ( 'detail', '', ( #25 ) ) ;
#303 = PERSON_AND_ORGANIZATION_ROLE ( 'design_supplier' ) ;
#304 = DIRECTION ( 'NONE',  ( 0.000000000000000000, 0.000000000000000000, 1.000000000000000000 ) ) ;
#305 = CYLINDRICAL_SURFACE ( 'NONE', #288, 16.00000000000000000 ) ;
#306 = ORIENTED_EDGE ( 'NONE', *, *, #161, .T. ) ;
#307 = CC_DESIGN_PERSON_AND_ORGANIZATION_ASSIGNMENT ( #229, #223, ( #128 ) ) ;
ENDSEC;
END-ISO-10303-21;
