ISO-10303-21;
HEADER;
FILE_DESCRIPTION (( 'STEP AP203' ),
    '1' );
FILE_NAME ('4491.STEP',
    '2022-06-20T09:48:24',
    ( '' ),
    ( '' ),
    'SwSTEP 2.0',
    'SolidWorks 2019',
    '' );
FILE_SCHEMA (( 'CONFIG_CONTROL_DESIGN' ));
ENDSEC;

DATA;
#1 = AXIS2_PLACEMENT_3D ( 'NONE', #254, #183, #275 ) ;
#2 = CC_DESIGN_PERSON_AND_ORGANIZATION_ASSIGNMENT ( #270, #153, ( #39 ) ) ;
#3 = EDGE_CURVE ( 'NONE', #11, #298, #100, .T. ) ;
#4 = CIRCLE ( 'NONE', #128, 0.1999999999999996503 ) ;
#5 = CIRCLE ( 'NONE', #304, 0.1999999999999996503 ) ;
#6 = DIRECTION ( 'NONE',  ( 0.000000000000000000, 0.000000000000000000, 1.000000000000000000 ) ) ;
#7 = DATE_AND_TIME ( #139, #286 ) ;
#8 = VECTOR ( 'NONE', #229, 1000.000000000000000 ) ;
#9 = EDGE_CURVE ( 'NONE', #37, #243, #43, .T. ) ;
#10 = COORDINATED_UNIVERSAL_TIME_OFFSET ( 1, 0, .AHEAD. ) ;
#11 = VERTEX_POINT ( 'NONE', #14 ) ;
#12 = SHAPE_DEFINITION_REPRESENTATION ( #46, #209 ) ;
#13 = AXIS2_PLACEMENT_3D ( 'NONE', #152, #151, #170 ) ;
#14 = CARTESIAN_POINT ( 'NONE',  ( 4.000000000000000000, 4.898587196589412829E-16, 5.199999999999982414 ) ) ;
#15 = ORIENTED_EDGE ( 'NONE', *, *, #232, .T. ) ;
#16 = CALENDAR_DATE ( 2022, 20, 6 ) ;
#17 = EDGE_LOOP ( 'NONE', ( #195, #175, #38, #196 ) ) ;
#18 = EDGE_CURVE ( 'NONE', #11, #266, #4, .T. ) ;
#19 = CIRCLE ( 'NONE', #64, 4.000000000000000000 ) ;
#20 = DIRECTION ( 'NONE',  ( -1.000000000000000000, 0.000000000000000000, 0.000000000000000000 ) ) ;
#21 = DIRECTION ( 'NONE',  ( 1.000000000000000000, 0.000000000000000000, -0.000000000000000000 ) ) ;
#22 = CIRCLE ( 'NONE', #75, 4.000000000000000000 ) ;
#23 = DIRECTION ( 'NONE',  ( -0.000000000000000000, -0.000000000000000000, -1.000000000000000000 ) ) ;
#24 = PRODUCT_RELATED_PRODUCT_CATEGORY ( 'detail', '', ( #34 ) ) ;
#25 = CARTESIAN_POINT ( 'NONE',  ( 0.000000000000000000, 0.000000000000000000, 0.000000000000000000 ) ) ;
#26 = LINE ( 'NONE', #307, #87 ) ;
#27 = PRODUCT_DEFINITION ( 'NEZNÁMÝ', '', #39, #114 ) ;
#28 = AXIS2_PLACEMENT_3D ( 'NONE', #280, #143, #123 ) ;
#29 = FACE_OUTER_BOUND ( 'NONE', #141, .T. ) ;
#30 = CARTESIAN_POINT ( 'NONE',  ( -4.000000000000000000, 0.000000000000000000, 5.199999999999982414 ) ) ;
#31 = APPLICATION_CONTEXT ( 'configuration controlled 3d designs of mechanical parts and assemblies' ) ;
#32 = CARTESIAN_POINT ( 'NONE',  ( 4.200000000000000178, 0.000000000000000000, 4.999999999999991118 ) ) ;
#33 = AXIS2_PLACEMENT_3D ( 'NONE', #121, #50, #20 ) ;
#34 = PRODUCT ( '4491', '4491', '', ( #231 ) ) ;
#35 = CC_DESIGN_APPROVAL ( #306, ( #39 ) ) ;
#36 = DATE_AND_TIME ( #268, #299 ) ;
#37 = VERTEX_POINT ( 'NONE', #177 ) ;
#38 = ORIENTED_EDGE ( 'NONE', *, *, #200, .F. ) ;
#39 = PRODUCT_DEFINITION_FORMATION_WITH_SPECIFIED_SOURCE ( 'LIBOVOLNÝ', '', #34, .NOT_KNOWN. ) ;
#40 = ORIENTED_EDGE ( 'NONE', *, *, #241, .T. ) ;
#41 = PERSON_AND_ORGANIZATION_ROLE ( 'creator' ) ;
#42 = VERTEX_POINT ( 'NONE', #158 ) ;
#43 = CIRCLE ( 'NONE', #297, 4.000000000000000000 ) ;
#44 = EDGE_CURVE ( 'NONE', #42, #160, #283, .T. ) ;
#45 = VERTEX_POINT ( 'NONE', #203 ) ;
#46 = PRODUCT_DEFINITION_SHAPE ( 'NONE', 'NONE',  #27 ) ;
#47 = CARTESIAN_POINT ( 'NONE',  ( 7.000000000000000000, 8.572527594031473190E-16, 0.000000000000000000 ) ) ;
#48 = DIRECTION ( 'NONE',  ( 1.000000000000000000, 0.000000000000000000, 0.000000000000000000 ) ) ;
#49 = ADVANCED_FACE ( 'NONE', ( #224 ), #302, .T. ) ;
#50 = DIRECTION ( 'NONE',  ( -0.000000000000000000, -0.000000000000000000, -1.000000000000000000 ) ) ;
#51 = EDGE_CURVE ( 'NONE', #298, #11, #22, .T. ) ;
#52 = DIRECTION ( 'NONE',  ( 1.000000000000000000, 0.000000000000000000, 0.000000000000000000 ) ) ;
#53 = DIRECTION ( 'NONE',  ( -0.000000000000000000, -0.000000000000000000, -1.000000000000000000 ) ) ;
#54 = APPLICATION_PROTOCOL_DEFINITION ( 'international standard', 'config_control_design', 1994, #230 ) ;
#55 = APPLICATION_PROTOCOL_DEFINITION ( 'international standard', 'config_control_design', 1994, #31 ) ;
#56 =( GEOMETRIC_REPRESENTATION_CONTEXT ( 3 ) GLOBAL_UNCERTAINTY_ASSIGNED_CONTEXT ( ( #242 ) ) GLOBAL_UNIT_ASSIGNED_CONTEXT ( ( #263, #193, #265 ) ) REPRESENTATION_CONTEXT ( 'NONE', 'WORKASPACE' ) );
#57 = DIRECTION ( 'NONE',  ( 1.224646799147353207E-16, 1.000000000000000000, -0.000000000000000000 ) ) ;
#58 = AXIS2_PLACEMENT_3D ( 'NONE', #256, #226, #21 ) ;
#59 = PERSON_AND_ORGANIZATION_ROLE ( 'classification_officer' ) ;
#60 = ORIENTED_EDGE ( 'NONE', *, *, #81, .F. ) ;
#61 = DIRECTION ( 'NONE',  ( 1.000000000000000000, 0.000000000000000000, 0.000000000000000000 ) ) ;
#62 = DATE_TIME_ROLE ( 'creation_date' ) ;
#63 = EDGE_LOOP ( 'NONE', ( #284, #218 ) ) ;
#64 = AXIS2_PLACEMENT_3D ( 'NONE', #124, #142, #77 ) ;
#65 = PERSON_AND_ORGANIZATION ( #98, #197 ) ;
#66 = ORIENTED_EDGE ( 'NONE', *, *, #9, .T. ) ;
#67 = EDGE_CURVE ( 'NONE', #221, #199, #236, .T. ) ;
#68 = EDGE_LOOP ( 'NONE', ( #288, #66 ) ) ;
#69 = VECTOR ( 'NONE', #53, 1000.000000000000000 ) ;
#70 = ADVANCED_FACE ( 'NONE', ( #187 ), #163, .F. ) ;
#71 = CARTESIAN_POINT ( 'NONE',  ( 0.000000000000000000, 0.000000000000000000, 0.000000000000000000 ) ) ;
#72 = TOROIDAL_SURFACE ( 'NONE', #78, 4.200000000000000178, 0.2000000000000000111 ) ;
#73 = DIRECTION ( 'NONE',  ( 1.000000000000000000, 0.000000000000000000, -0.000000000000000000 ) ) ;
#74 = DIRECTION ( 'NONE',  ( 0.000000000000000000, 0.000000000000000000, 1.000000000000000000 ) ) ;
#75 = AXIS2_PLACEMENT_3D ( 'NONE', #146, #305, #76 ) ;
#76 = DIRECTION ( 'NONE',  ( 1.000000000000000000, 0.000000000000000000, 0.000000000000000000 ) ) ;
#77 = DIRECTION ( 'NONE',  ( 1.000000000000000000, 0.000000000000000000, 0.000000000000000000 ) ) ;
#78 = AXIS2_PLACEMENT_3D ( 'NONE', #85, #6, #83 ) ;
#79 = DIRECTION ( 'NONE',  ( -0.000000000000000000, -0.000000000000000000, -1.000000000000000000 ) ) ;
#80 = COORDINATED_UNIVERSAL_TIME_OFFSET ( 1, 0, .AHEAD. ) ;
#81 = EDGE_CURVE ( 'NONE', #37, #11, #206, .T. ) ;
#82 = APPROVAL_PERSON_ORGANIZATION ( #161, #306, #157 ) ;
#83 = DIRECTION ( 'NONE',  ( 1.000000000000000000, 0.000000000000000000, 0.000000000000000000 ) ) ;
#84 = CC_DESIGN_PERSON_AND_ORGANIZATION_ASSIGNMENT ( #104, #282, ( #34 ) ) ;
#85 = CARTESIAN_POINT ( 'NONE',  ( 0.000000000000000000, 0.000000000000000000, 5.199999999999982414 ) ) ;
#86 = ORIENTED_EDGE ( 'NONE', *, *, #67, .T. ) ;
#87 = VECTOR ( 'NONE', #251, 1000.000000000000000 ) ;
#88 = COORDINATED_UNIVERSAL_TIME_OFFSET ( 1, 0, .AHEAD. ) ;
#89 = DIRECTION ( 'NONE',  ( 0.000000000000000000, 0.000000000000000000, -1.000000000000000000 ) ) ;
#90 = CALENDAR_DATE ( 2022, 20, 6 ) ;
#91 = DIRECTION ( 'NONE',  ( 0.000000000000000000, 0.000000000000000000, 1.000000000000000000 ) ) ;
#92 = APPROVAL_DATE_TIME ( #7, #306 ) ;
#93 = EDGE_LOOP ( 'NONE', ( #118, #40 ) ) ;
#94 = SECURITY_CLASSIFICATION ( '', '', #292 ) ;
#95 = ORIENTED_EDGE ( 'NONE', *, *, #217, .F. ) ;
#96 = DIRECTION ( 'NONE',  ( -1.000000000000000000, 0.000000000000000000, 0.000000000000000000 ) ) ;
#97 = CARTESIAN_POINT ( 'NONE',  ( 0.000000000000000000, 0.000000000000000000, 405.0000000000000000 ) ) ;
#98 = PERSON ( 'NEURÈENÝ', 'NEURÈENÝ', 'NEURÈENÝ', ('NEURÈENÝ'), ('NEURÈENÝ'), ('NEURÈENÝ') ) ;
#99 = DIRECTION ( 'NONE',  ( 1.000000000000000000, 0.000000000000000000, 0.000000000000000000 ) ) ;
#100 = CIRCLE ( 'NONE', #129, 4.000000000000000000 ) ;
#101 = DIRECTION ( 'NONE',  ( 0.000000000000000000, 0.000000000000000000, 1.000000000000000000 ) ) ;
#102 = CARTESIAN_POINT ( 'NONE',  ( 0.000000000000000000, 0.000000000000000000, 0.000000000000000000 ) ) ;
#103 = MANIFOLD_SOLID_BREP ( 'Zaoblit1', #249 ) ;
#104 = PERSON_AND_ORGANIZATION ( #98, #197 ) ;
#105 = DIRECTION ( 'NONE',  ( -1.000000000000000000, 1.224646799147353454E-16, 0.000000000000000000 ) ) ;
#106 = CARTESIAN_POINT ( 'NONE',  ( -4.000000000000000000, 0.000000000000000000, 405.0000000000000000 ) ) ;
#107 = AXIS2_PLACEMENT_3D ( 'NONE', #172, #148, #235 ) ;
#108 = CC_DESIGN_SECURITY_CLASSIFICATION ( #94, ( #39 ) ) ;
#109 = CC_DESIGN_DATE_AND_TIME_ASSIGNMENT ( #119, #212, ( #94 ) ) ;
#110 = CALENDAR_DATE ( 2022, 20, 6 ) ;
#111 = ORIENTED_EDGE ( 'NONE', *, *, #9, .F. ) ;
#112 = APPROVAL_STATUS ( 'not_yet_approved' ) ;
#113 = DIRECTION ( 'NONE',  ( 0.000000000000000000, 0.000000000000000000, 1.000000000000000000 ) ) ;
#114 = DESIGN_CONTEXT ( 'detailed design', #31, 'design' ) ;
#115 = ORIENTED_EDGE ( 'NONE', *, *, #122, .T. ) ;
#116 = APPROVAL_DATE_TIME ( #180, #273 ) ;
#117 = ADVANCED_FACE ( 'NONE', ( #185 ), #202, .T. ) ;
#118 = ORIENTED_EDGE ( 'NONE', *, *, #200, .T. ) ;
#119 = DATE_AND_TIME ( #16, #257 ) ;
#120 = ORIENTED_EDGE ( 'NONE', *, *, #192, .T. ) ;
#121 = CARTESIAN_POINT ( 'NONE',  ( 0.000000000000000000, 0.000000000000000000, 405.0000000000000000 ) ) ;
#122 = EDGE_CURVE ( 'NONE', #160, #221, #255, .T. ) ;
#123 = DIRECTION ( 'NONE',  ( 1.000000000000000000, 0.000000000000000000, 0.000000000000000000 ) ) ;
#124 = CARTESIAN_POINT ( 'NONE',  ( 0.000000000000000000, 0.000000000000000000, 405.0000000000000000 ) ) ;
#125 = AXIS2_PLACEMENT_3D ( 'NONE', #97, #74, #126 ) ;
#126 = DIRECTION ( 'NONE',  ( 1.000000000000000000, 0.000000000000000000, -0.000000000000000000 ) ) ;
#127 = CARTESIAN_POINT ( 'NONE',  ( 0.000000000000000000, 0.000000000000000000, 0.000000000000000000 ) ) ;
#128 = AXIS2_PLACEMENT_3D ( 'NONE', #198, #295, #89 ) ;
#129 = AXIS2_PLACEMENT_3D ( 'NONE', #244, #134, #61 ) ;
#130 = CIRCLE ( 'NONE', #293, 4.200000000000000178 ) ;
#131 = EDGE_CURVE ( 'NONE', #160, #42, #150, .T. ) ;
#132 = ORIENTED_EDGE ( 'NONE', *, *, #18, .T. ) ;
#133 = APPROVAL_PERSON_ORGANIZATION ( #65, #225, #290 ) ;
#134 = DIRECTION ( 'NONE',  ( 0.000000000000000000, 0.000000000000000000, 1.000000000000000000 ) ) ;
#135 = PERSON_AND_ORGANIZATION ( #98, #197 ) ;
#136 = CARTESIAN_POINT ( 'NONE',  ( 0.000000000000000000, 0.000000000000000000, 405.0000000000000000 ) ) ;
#137 = DATE_AND_TIME ( #90, #294 ) ;
#138 = ORIENTED_EDGE ( 'NONE', *, *, #3, .F. ) ;
#139 = CALENDAR_DATE ( 2022, 20, 6 ) ;
#140 = EDGE_LOOP ( 'NONE', ( #201, #138, #132, #267 ) ) ;
#141 = EDGE_LOOP ( 'NONE', ( #179, #274, #115, #86 ) ) ;
#142 = DIRECTION ( 'NONE',  ( 0.000000000000000000, 0.000000000000000000, 1.000000000000000000 ) ) ;
#143 = DIRECTION ( 'NONE',  ( 0.000000000000000000, 0.000000000000000000, 1.000000000000000000 ) ) ;
#144 = CARTESIAN_POINT ( 'NONE',  ( 0.000000000000000000, 0.000000000000000000, 5.000000000000000000 ) ) ;
#145 = AXIS2_PLACEMENT_3D ( 'NONE', #127, #101, #281 ) ;
#146 = CARTESIAN_POINT ( 'NONE',  ( 0.000000000000000000, 0.000000000000000000, 5.199999999999982414 ) ) ;
#147 = FACE_BOUND ( 'NONE', #93, .T. ) ;
#148 = DIRECTION ( 'NONE',  ( -0.000000000000000000, -0.000000000000000000, -1.000000000000000000 ) ) ;
#149 = PERSON_AND_ORGANIZATION ( #98, #197 ) ;
#150 = CIRCLE ( 'NONE', #1, 7.000000000000000000 ) ;
#151 = DIRECTION ( 'NONE',  ( -0.000000000000000000, -0.000000000000000000, -1.000000000000000000 ) ) ;
#152 = CARTESIAN_POINT ( 'NONE',  ( 0.000000000000000000, 0.000000000000000000, 405.0000000000000000 ) ) ;
#153 = PERSON_AND_ORGANIZATION_ROLE ( 'creator' ) ;
#154 = AXIS2_PLACEMENT_3D ( 'NONE', #25, #278, #73 ) ;
#155 = ORIENTED_EDGE ( 'NONE', *, *, #44, .F. ) ;
#156 = AXIS2_PLACEMENT_3D ( 'NONE', #296, #91, #99 ) ;
#157 = APPROVAL_ROLE ( '' ) ;
#158 = CARTESIAN_POINT ( 'NONE',  ( 7.000000000000000000, 8.572527594031473190E-16, 5.000000000000000000 ) ) ;
#159 = PERSON_AND_ORGANIZATION ( #98, #197 ) ;
#160 = VERTEX_POINT ( 'NONE', #166 ) ;
#161 = PERSON_AND_ORGANIZATION ( #98, #197 ) ;
#162 = EDGE_LOOP ( 'NONE', ( #291, #95 ) ) ;
#163 = TOROIDAL_SURFACE ( 'NONE', #28, 4.200000000000000178, 0.2000000000000000111 ) ;
#164 = FACE_OUTER_BOUND ( 'NONE', #63, .T. ) ;
#165 = CARTESIAN_POINT ( 'NONE',  ( 0.000000000000000000, 0.000000000000000000, 5.000000000000000000 ) ) ;
#166 = CARTESIAN_POINT ( 'NONE',  ( -7.000000000000000000, 0.000000000000000000, 5.000000000000000000 ) ) ;
#167 = CC_DESIGN_PERSON_AND_ORGANIZATION_ASSIGNMENT ( #135, #59, ( #94 ) ) ;
#168 = CARTESIAN_POINT ( 'NONE',  ( -7.000000000000000000, 0.000000000000000000, 5.000000000000000000 ) ) ;
#169 = FACE_OUTER_BOUND ( 'NONE', #68, .T. ) ;
#170 = DIRECTION ( 'NONE',  ( -1.000000000000000000, 0.000000000000000000, 0.000000000000000000 ) ) ;
#171 = FACE_OUTER_BOUND ( 'NONE', #17, .T. ) ;
#172 = CARTESIAN_POINT ( 'NONE',  ( 0.000000000000000000, 0.000000000000000000, 5.000000000000000000 ) ) ;
#173 = CC_DESIGN_APPROVAL ( #273, ( #27 ) ) ;
#174 = ADVANCED_FACE ( 'NONE', ( #147, #164 ), #303, .T. ) ;
#175 = ORIENTED_EDGE ( 'NONE', *, *, #259, .T. ) ;
#176 = AXIS2_PLACEMENT_3D ( 'NONE', #210, #287, #233 ) ;
#177 = CARTESIAN_POINT ( 'NONE',  ( 4.000000000000000000, 4.898587196589412829E-16, 405.0000000000000000 ) ) ;
#178 = COORDINATED_UNIVERSAL_TIME_OFFSET ( 1, 0, .AHEAD. ) ;
#179 = ORIENTED_EDGE ( 'NONE', *, *, #232, .F. ) ;
#180 = DATE_AND_TIME ( #110, #261 ) ;
#181 = ORIENTED_EDGE ( 'NONE', *, *, #220, .F. ) ;
#182 = EDGE_LOOP ( 'NONE', ( #155, #15, #250, #214 ) ) ;
#183 = DIRECTION ( 'NONE',  ( 0.000000000000000000, 0.000000000000000000, 1.000000000000000000 ) ) ;
#184 = ADVANCED_FACE ( 'NONE', ( #276 ), #186, .F. ) ;
#185 = FACE_OUTER_BOUND ( 'NONE', #182, .T. ) ;
#186 = PLANE ( 'NONE',  #154 ) ;
#187 = FACE_OUTER_BOUND ( 'NONE', #140, .T. ) ;
#188 = DIRECTION ( 'NONE',  ( 0.000000000000000000, 0.000000000000000000, 1.000000000000000000 ) ) ;
#189 = DIRECTION ( 'NONE',  ( 0.000000000000000000, 0.000000000000000000, 1.000000000000000000 ) ) ;
#190 = CARTESIAN_POINT ( 'NONE',  ( 7.000000000000000000, 8.572527594031473190E-16, 5.000000000000000000 ) ) ;
#191 = APPROVAL_STATUS ( 'not_yet_approved' ) ;
#192 = EDGE_CURVE ( 'NONE', #243, #298, #26, .T. ) ;
#193 =( NAMED_UNIT ( * ) PLANE_ANGLE_UNIT ( ) SI_UNIT ( $, .RADIAN. ) );
#194 = PERSON_AND_ORGANIZATION ( #98, #197 ) ;
#195 = ORIENTED_EDGE ( 'NONE', *, *, #51, .F. ) ;
#196 = ORIENTED_EDGE ( 'NONE', *, *, #18, .F. ) ;
#197 = ORGANIZATION ( 'NEURÈENÝ', 'NEURÈENÝ', '' ) ;
#198 = CARTESIAN_POINT ( 'NONE',  ( 4.200000000000000178, 0.000000000000000000, 5.199999999999982414 ) ) ;
#199 = VERTEX_POINT ( 'NONE', #47 ) ;
#200 = EDGE_CURVE ( 'NONE', #266, #45, #130, .T. ) ;
#201 = ORIENTED_EDGE ( 'NONE', *, *, #259, .F. ) ;
#202 = CYLINDRICAL_SURFACE ( 'NONE', #277, 7.000000000000000000 ) ;
#203 = CARTESIAN_POINT ( 'NONE',  ( -4.200000000000000178, 5.143516556418882928E-16, 4.999999999999991118 ) ) ;
#204 = PLANE ( 'NONE',  #125 ) ;
#205 = LINE ( 'NONE', #190, #228 ) ;
#206 = LINE ( 'NONE', #227, #69 ) ;
#207 = CC_DESIGN_APPROVAL ( #225, ( #94 ) ) ;
#208 = DIRECTION ( 'NONE',  ( 1.000000000000000000, 0.000000000000000000, 0.000000000000000000 ) ) ;
#209 = ADVANCED_BREP_SHAPE_REPRESENTATION ( '4491', ( #103, #245 ), #56 ) ;
#210 = CARTESIAN_POINT ( 'NONE',  ( 0.000000000000000000, 0.000000000000000000, 5.000000000000000000 ) ) ;
#211 = CARTESIAN_POINT ( 'NONE',  ( -4.200000000000000178, 5.143516556418882928E-16, 5.199999999999982414 ) ) ;
#212 = DATE_TIME_ROLE ( 'classification_date' ) ;
#213 = CC_DESIGN_DATE_AND_TIME_ASSIGNMENT ( #36, #62, ( #27 ) ) ;
#214 = ORIENTED_EDGE ( 'NONE', *, *, #122, .F. ) ;
#215 = APPROVAL_DATE_TIME ( #137, #225 ) ;
#216 = DIRECTION ( 'NONE',  ( 1.000000000000000000, 0.000000000000000000, 0.000000000000000000 ) ) ;
#217 = EDGE_CURVE ( 'NONE', #199, #221, #253, .T. ) ;
#218 = ORIENTED_EDGE ( 'NONE', *, *, #44, .T. ) ;
#219 = COORDINATED_UNIVERSAL_TIME_OFFSET ( 1, 0, .AHEAD. ) ;
#220 = EDGE_CURVE ( 'NONE', #243, #37, #19, .T. ) ;
#221 = VERTEX_POINT ( 'NONE', #258 ) ;
#222 = EDGE_LOOP ( 'NONE', ( #60, #181, #120, #246 ) ) ;
#223 = ADVANCED_FACE ( 'NONE', ( #169 ), #204, .T. ) ;
#224 = FACE_OUTER_BOUND ( 'NONE', #272, .T. ) ;
#225 = APPROVAL ( #247, 'NEURÈENÝ' ) ;
#226 = DIRECTION ( 'NONE',  ( 0.000000000000000000, 0.000000000000000000, 1.000000000000000000 ) ) ;
#227 = CARTESIAN_POINT ( 'NONE',  ( 4.000000000000000000, 4.898587196589412829E-16, 405.0000000000000000 ) ) ;
#228 = VECTOR ( 'NONE', #79, 1000.000000000000000 ) ;
#229 = DIRECTION ( 'NONE',  ( -0.000000000000000000, -0.000000000000000000, -1.000000000000000000 ) ) ;
#230 = APPLICATION_CONTEXT ( 'configuration controlled 3d designs of mechanical parts and assemblies' ) ;
#231 = MECHANICAL_CONTEXT ( 'NONE', #230, 'mechanical' ) ;
#232 = EDGE_CURVE ( 'NONE', #42, #199, #205, .T. ) ;
#233 = DIRECTION ( 'NONE',  ( -1.000000000000000000, 0.000000000000000000, 0.000000000000000000 ) ) ;
#234 = CC_DESIGN_PERSON_AND_ORGANIZATION_ASSIGNMENT ( #194, #41, ( #27 ) ) ;
#235 = DIRECTION ( 'NONE',  ( 1.000000000000000000, 0.000000000000000000, 0.000000000000000000 ) ) ;
#236 = CIRCLE ( 'NONE', #279, 7.000000000000000000 ) ;
#237 = ADVANCED_FACE ( 'NONE', ( #171 ), #72, .F. ) ;
#238 = CYLINDRICAL_SURFACE ( 'NONE', #176, 7.000000000000000000 ) ;
#239 = PERSON_AND_ORGANIZATION_ROLE ( 'design_supplier' ) ;
#240 = CIRCLE ( 'NONE', #107, 4.200000000000000178 ) ;
#241 = EDGE_CURVE ( 'NONE', #45, #266, #240, .T. ) ;
#242 = UNCERTAINTY_MEASURE_WITH_UNIT (LENGTH_MEASURE( 1.000000000000000082E-05 ), #263, 'distance_accuracy_value', 'NONE');
#243 = VERTEX_POINT ( 'NONE', #106 ) ;
#244 = CARTESIAN_POINT ( 'NONE',  ( 0.000000000000000000, 0.000000000000000000, 5.199999999999982414 ) ) ;
#245 = AXIS2_PLACEMENT_3D ( 'NONE', #102, #189, #208 ) ;
#246 = ORIENTED_EDGE ( 'NONE', *, *, #51, .T. ) ;
#247 = APPROVAL_STATUS ( 'not_yet_approved' ) ;
#248 = ORIENTED_EDGE ( 'NONE', *, *, #3, .T. ) ;
#249 = CLOSED_SHELL ( 'NONE', ( #237, #49, #117, #289, #174, #184, #252, #223, #70 ) ) ;
#250 = ORIENTED_EDGE ( 'NONE', *, *, #217, .T. ) ;
#251 = DIRECTION ( 'NONE',  ( -0.000000000000000000, -0.000000000000000000, -1.000000000000000000 ) ) ;
#252 = ADVANCED_FACE ( 'NONE', ( #262 ), #260, .T. ) ;
#253 = CIRCLE ( 'NONE', #145, 7.000000000000000000 ) ;
#254 = CARTESIAN_POINT ( 'NONE',  ( 0.000000000000000000, 0.000000000000000000, 5.000000000000000000 ) ) ;
#255 = LINE ( 'NONE', #168, #8 ) ;
#256 = CARTESIAN_POINT ( 'NONE',  ( 0.000000000000000000, 0.000000000000000000, 5.000000000000000000 ) ) ;
#257 = LOCAL_TIME ( 11, 48, 24.00000000000000000, #219 ) ;
#258 = CARTESIAN_POINT ( 'NONE',  ( -7.000000000000000000, 0.000000000000000000, 0.000000000000000000 ) ) ;
#259 = EDGE_CURVE ( 'NONE', #298, #45, #5, .T. ) ;
#260 = CYLINDRICAL_SURFACE ( 'NONE', #13, 4.000000000000000000 ) ;
#261 = LOCAL_TIME ( 11, 48, 24.00000000000000000, #80 ) ;
#262 = FACE_OUTER_BOUND ( 'NONE', #222, .T. ) ;
#263 =( LENGTH_UNIT ( ) NAMED_UNIT ( * ) SI_UNIT ( .MILLI., .METRE. ) );
#264 = CC_DESIGN_PERSON_AND_ORGANIZATION_ASSIGNMENT ( #159, #239, ( #39 ) ) ;
#265 =( NAMED_UNIT ( * ) SI_UNIT ( $, .STERADIAN. ) SOLID_ANGLE_UNIT ( ) );
#266 = VERTEX_POINT ( 'NONE', #32 ) ;
#267 = ORIENTED_EDGE ( 'NONE', *, *, #241, .F. ) ;
#268 = CALENDAR_DATE ( 2022, 20, 6 ) ;
#269 = ORIENTED_EDGE ( 'NONE', *, *, #81, .T. ) ;
#270 = PERSON_AND_ORGANIZATION ( #98, #197 ) ;
#271 = APPROVAL_PERSON_ORGANIZATION ( #149, #273, #285 ) ;
#272 = EDGE_LOOP ( 'NONE', ( #111, #269, #248, #300 ) ) ;
#273 = APPROVAL ( #191, 'NEURÈENÝ' ) ;
#274 = ORIENTED_EDGE ( 'NONE', *, *, #131, .F. ) ;
#275 = DIRECTION ( 'NONE',  ( 1.000000000000000000, 0.000000000000000000, 0.000000000000000000 ) ) ;
#276 = FACE_OUTER_BOUND ( 'NONE', #162, .T. ) ;
#277 = AXIS2_PLACEMENT_3D ( 'NONE', #144, #301, #96 ) ;
#278 = DIRECTION ( 'NONE',  ( 0.000000000000000000, 0.000000000000000000, 1.000000000000000000 ) ) ;
#279 = AXIS2_PLACEMENT_3D ( 'NONE', #71, #188, #52 ) ;
#280 = CARTESIAN_POINT ( 'NONE',  ( 0.000000000000000000, 0.000000000000000000, 5.199999999999982414 ) ) ;
#281 = DIRECTION ( 'NONE',  ( 1.000000000000000000, 0.000000000000000000, 0.000000000000000000 ) ) ;
#282 = PERSON_AND_ORGANIZATION_ROLE ( 'design_owner' ) ;
#283 = CIRCLE ( 'NONE', #156, 7.000000000000000000 ) ;
#284 = ORIENTED_EDGE ( 'NONE', *, *, #131, .T. ) ;
#285 = APPROVAL_ROLE ( '' ) ;
#286 = LOCAL_TIME ( 11, 48, 24.00000000000000000, #10 ) ;
#287 = DIRECTION ( 'NONE',  ( -0.000000000000000000, -0.000000000000000000, -1.000000000000000000 ) ) ;
#288 = ORIENTED_EDGE ( 'NONE', *, *, #220, .T. ) ;
#289 = ADVANCED_FACE ( 'NONE', ( #29 ), #238, .T. ) ;
#290 = APPROVAL_ROLE ( '' ) ;
#291 = ORIENTED_EDGE ( 'NONE', *, *, #67, .F. ) ;
#292 = SECURITY_CLASSIFICATION_LEVEL ( 'unclassified' ) ;
#293 = AXIS2_PLACEMENT_3D ( 'NONE', #165, #23, #48 ) ;
#294 = LOCAL_TIME ( 11, 48, 24.00000000000000000, #88 ) ;
#295 = DIRECTION ( 'NONE',  ( 0.000000000000000000, -1.000000000000000000, 0.000000000000000000 ) ) ;
#296 = CARTESIAN_POINT ( 'NONE',  ( 0.000000000000000000, 0.000000000000000000, 5.000000000000000000 ) ) ;
#297 = AXIS2_PLACEMENT_3D ( 'NONE', #136, #113, #216 ) ;
#298 = VERTEX_POINT ( 'NONE', #30 ) ;
#299 = LOCAL_TIME ( 11, 48, 24.00000000000000000, #178 ) ;
#300 = ORIENTED_EDGE ( 'NONE', *, *, #192, .F. ) ;
#301 = DIRECTION ( 'NONE',  ( -0.000000000000000000, -0.000000000000000000, -1.000000000000000000 ) ) ;
#302 = CYLINDRICAL_SURFACE ( 'NONE', #33, 4.000000000000000000 ) ;
#303 = PLANE ( 'NONE',  #58 ) ;
#304 = AXIS2_PLACEMENT_3D ( 'NONE', #211, #57, #105 ) ;
#305 = DIRECTION ( 'NONE',  ( 0.000000000000000000, 0.000000000000000000, 1.000000000000000000 ) ) ;
#306 = APPROVAL ( #112, 'NEURÈENÝ' ) ;
#307 = CARTESIAN_POINT ( 'NONE',  ( -4.000000000000000000, 0.000000000000000000, 405.0000000000000000 ) ) ;
ENDSEC;
END-ISO-10303-21;
