ISO-10303-21;
HEADER;
FILE_DESCRIPTION (( 'STEP AP203' ),
    '1' );
FILE_NAME ('88ef.STEP',
    '2022-06-20T09:26:29',
    ( '' ),
    ( '' ),
    'SwSTEP 2.0',
    'SolidWorks 2019',
    '' );
FILE_SCHEMA (( 'CONFIG_CONTROL_DESIGN' ));
ENDSEC;

DATA;
#1 = SECURITY_CLASSIFICATION_LEVEL ( 'unclassified' ) ;
#2 = CARTESIAN_POINT ( 'NONE',  ( 0.000000000000000000, 0.000000000000000000, 507.0000000000000000 ) ) ;
#3 = COORDINATED_UNIVERSAL_TIME_OFFSET ( 1, 0, .AHEAD. ) ;
#4 = EDGE_CURVE ( 'NONE', #184, #25, #165, .T. ) ;
#5 = CARTESIAN_POINT ( 'NONE',  ( 0.000000000000000000, 0.000000000000000000, 7.000000000000000000 ) ) ;
#6 = CALENDAR_DATE ( 2022, 20, 6 ) ;
#7 = FACE_OUTER_BOUND ( 'NONE', #109, .T. ) ;
#8 = CARTESIAN_POINT ( 'NONE',  ( 0.000000000000000000, 0.000000000000000000, 7.199999999999984190 ) ) ;
#9 = DIRECTION ( 'NONE',  ( 0.000000000000000000, 0.000000000000000000, 1.000000000000000000 ) ) ;
#10 = APPROVAL_STATUS ( 'not_yet_approved' ) ;
#11 = AXIS2_PLACEMENT_3D ( 'NONE', #28, #272, #75 ) ;
#12 = CARTESIAN_POINT ( 'NONE',  ( 11.00000000000000000, 1.347111479062088405E-15, 7.000000000000000000 ) ) ;
#13 = LOCAL_TIME ( 11, 26, 29.00000000000000000, #128 ) ;
#14 = CARTESIAN_POINT ( 'NONE',  ( 0.000000000000000000, 0.000000000000000000, 7.000000000000000000 ) ) ;
#15 = DIRECTION ( 'NONE',  ( -1.000000000000000000, 0.000000000000000000, 0.000000000000000000 ) ) ;
#16 = DIRECTION ( 'NONE',  ( 0.000000000000000000, 0.000000000000000000, 1.000000000000000000 ) ) ;
#17 = EDGE_CURVE ( 'NONE', #25, #255, #146, .T. ) ;
#18 = VERTEX_POINT ( 'NONE', #161 ) ;
#19 = EDGE_LOOP ( 'NONE', ( #92, #134, #198, #279 ) ) ;
#20 = EDGE_CURVE ( 'NONE', #18, #297, #57, .T. ) ;
#21 = CIRCLE ( 'NONE', #212, 7.200000000000001066 ) ;
#22 = VERTEX_POINT ( 'NONE', #275 ) ;
#23 = LOCAL_TIME ( 11, 26, 29.00000000000000000, #3 ) ;
#24 = PLANE ( 'NONE',  #98 ) ;
#25 = VERTEX_POINT ( 'NONE', #167 ) ;
#26 = DESIGN_CONTEXT ( 'detailed design', #265, 'design' ) ;
#27 = EDGE_CURVE ( 'NONE', #227, #297, #159, .T. ) ;
#28 = CARTESIAN_POINT ( 'NONE',  ( 7.200000000000001066, 0.000000000000000000, 7.199999999999984190 ) ) ;
#29 = CARTESIAN_POINT ( 'NONE',  ( 0.000000000000000000, 0.000000000000000000, 0.000000000000000000 ) ) ;
#30 = TOROIDAL_SURFACE ( 'NONE', #266, 7.200000000000001066, 0.2000000000000000111 ) ;
#31 = CC_DESIGN_APPROVAL ( #168, ( #277 ) ) ;
#32 = DATE_TIME_ROLE ( 'classification_date' ) ;
#33 = APPROVAL_DATE_TIME ( #149, #168 ) ;
#34 = SHAPE_DEFINITION_REPRESENTATION ( #301, #174 ) ;
#35 = CARTESIAN_POINT ( 'NONE',  ( -7.200000000000001066, 8.817456953860944275E-16, 7.199999999999984190 ) ) ;
#36 = CC_DESIGN_APPROVAL ( #283, ( #123 ) ) ;
#37 = APPROVAL_DATE_TIME ( #126, #283 ) ;
#38 = EDGE_CURVE ( 'NONE', #298, #255, #21, .T. ) ;
#39 = PRODUCT ( '88ef', '88ef', '', ( #162 ) ) ;
#40 = PERSON_AND_ORGANIZATION_ROLE ( 'creator' ) ;
#41 = DIRECTION ( 'NONE',  ( 0.000000000000000000, 0.000000000000000000, 1.000000000000000000 ) ) ;
#42 = DIRECTION ( 'NONE',  ( -0.000000000000000000, -0.000000000000000000, -1.000000000000000000 ) ) ;
#43 = DIRECTION ( 'NONE',  ( 1.000000000000000000, 0.000000000000000000, -0.000000000000000000 ) ) ;
#44 = AXIS2_PLACEMENT_3D ( 'NONE', #291, #155, #240 ) ;
#45 = ORIENTED_EDGE ( 'NONE', *, *, #4, .T. ) ;
#46 = LOCAL_TIME ( 11, 26, 29.00000000000000000, #193 ) ;
#47 = ADVANCED_FACE ( 'NONE', ( #252 ), #71, .T. ) ;
#48 = DIRECTION ( 'NONE',  ( -0.000000000000000000, -0.000000000000000000, -1.000000000000000000 ) ) ;
#49 = DIRECTION ( 'NONE',  ( -0.000000000000000000, -0.000000000000000000, -1.000000000000000000 ) ) ;
#50 = CC_DESIGN_PERSON_AND_ORGANIZATION_ASSIGNMENT ( #287, #286, ( #123 ) ) ;
#51 = AXIS2_PLACEMENT_3D ( 'NONE', #2, #82, #188 ) ;
#52 = CARTESIAN_POINT ( 'NONE',  ( 0.000000000000000000, 0.000000000000000000, 507.0000000000000000 ) ) ;
#53 = DIRECTION ( 'NONE',  ( 0.000000000000000000, 0.000000000000000000, 1.000000000000000000 ) ) ;
#54 = VECTOR ( 'NONE', #293, 1000.000000000000000 ) ;
#55 = ORIENTED_EDGE ( 'NONE', *, *, #281, .T. ) ;
#56 = VERTEX_POINT ( 'NONE', #77 ) ;
#57 = CIRCLE ( 'NONE', #258, 11.00000000000000000 ) ;
#58 = DIRECTION ( 'NONE',  ( -0.000000000000000000, -0.000000000000000000, -1.000000000000000000 ) ) ;
#59 = CARTESIAN_POINT ( 'NONE',  ( -7.200000000000001066, 8.817456953860944275E-16, 6.999999999999992006 ) ) ;
#60 = CYLINDRICAL_SURFACE ( 'NONE', #191, 11.00000000000000000 ) ;
#61 = CALENDAR_DATE ( 2022, 20, 6 ) ;
#62 = DIRECTION ( 'NONE',  ( 1.000000000000000000, 0.000000000000000000, 0.000000000000000000 ) ) ;
#63 = DIRECTION ( 'NONE',  ( 1.000000000000000000, 0.000000000000000000, 0.000000000000000000 ) ) ;
#64 = AXIS2_PLACEMENT_3D ( 'NONE', #29, #89, #43 ) ;
#65 = CARTESIAN_POINT ( 'NONE',  ( 0.000000000000000000, 0.000000000000000000, 7.199999999999984190 ) ) ;
#66 = AXIS2_PLACEMENT_3D ( 'NONE', #238, #107, #176 ) ;
#67 = DIRECTION ( 'NONE',  ( 0.000000000000000000, 0.000000000000000000, 1.000000000000000000 ) ) ;
#68 = CLOSED_SHELL ( 'NONE', ( #157, #81, #230, #243, #290, #135, #47, #214, #181 ) ) ;
#69 = CARTESIAN_POINT ( 'NONE',  ( 0.000000000000000000, 0.000000000000000000, 0.000000000000000000 ) ) ;
#70 = CIRCLE ( 'NONE', #195, 7.000000000000000888 ) ;
#71 = CYLINDRICAL_SURFACE ( 'NONE', #200, 7.000000000000000888 ) ;
#72 = APPLICATION_PROTOCOL_DEFINITION ( 'international standard', 'config_control_design', 1994, #95 ) ;
#73 = EDGE_LOOP ( 'NONE', ( #93, #187, #303, #136 ) ) ;
#74 = ORIENTED_EDGE ( 'NONE', *, *, #132, .F. ) ;
#75 = DIRECTION ( 'NONE',  ( 0.000000000000000000, 0.000000000000000000, -1.000000000000000000 ) ) ;
#76 = PERSON_AND_ORGANIZATION ( #156, #153 ) ;
#77 = CARTESIAN_POINT ( 'NONE',  ( -7.000000000000000888, 0.000000000000000000, 507.0000000000000000 ) ) ;
#78 = CIRCLE ( 'NONE', #241, 7.200000000000001066 ) ;
#79 = AXIS2_PLACEMENT_3D ( 'NONE', #5, #262, #125 ) ;
#80 = CIRCLE ( 'NONE', #137, 7.000000000000000888 ) ;
#81 = ADVANCED_FACE ( 'NONE', ( #170 ), #148, .T. ) ;
#82 = DIRECTION ( 'NONE',  ( -0.000000000000000000, -0.000000000000000000, -1.000000000000000000 ) ) ;
#83 = CIRCLE ( 'NONE', #104, 7.000000000000000888 ) ;
#84 = CALENDAR_DATE ( 2022, 20, 6 ) ;
#85 = DIRECTION ( 'NONE',  ( 1.000000000000000000, 0.000000000000000000, 0.000000000000000000 ) ) ;
#86 = CYLINDRICAL_SURFACE ( 'NONE', #202, 11.00000000000000000 ) ;
#87 = FACE_OUTER_BOUND ( 'NONE', #139, .T. ) ;
#88 = DIRECTION ( 'NONE',  ( 1.000000000000000000, 0.000000000000000000, 0.000000000000000000 ) ) ;
#89 = DIRECTION ( 'NONE',  ( 0.000000000000000000, 0.000000000000000000, 1.000000000000000000 ) ) ;
#90 = ORIENTED_EDGE ( 'NONE', *, *, #116, .T. ) ;
#91 = AXIS2_PLACEMENT_3D ( 'NONE', #35, #234, #122 ) ;
#92 = ORIENTED_EDGE ( 'NONE', *, *, #299, .F. ) ;
#93 = ORIENTED_EDGE ( 'NONE', *, *, #4, .F. ) ;
#94 = EDGE_LOOP ( 'NONE', ( #304, #45, #276, #222 ) ) ;
#95 = APPLICATION_CONTEXT ( 'configuration controlled 3d designs of mechanical parts and assemblies' ) ;
#96 = ORIENTED_EDGE ( 'NONE', *, *, #220, .T. ) ;
#97 = CARTESIAN_POINT ( 'NONE',  ( -7.000000000000000888, 0.000000000000000000, 507.0000000000000000 ) ) ;
#98 = AXIS2_PLACEMENT_3D ( 'NONE', #205, #302, #232 ) ;
#99 = APPROVAL_ROLE ( '' ) ;
#100 = CALENDAR_DATE ( 2022, 20, 6 ) ;
#101 = DIRECTION ( 'NONE',  ( 1.000000000000000000, 0.000000000000000000, 0.000000000000000000 ) ) ;
#102 = DATE_TIME_ROLE ( 'creation_date' ) ;
#103 = FACE_BOUND ( 'NONE', #270, .T. ) ;
#104 = AXIS2_PLACEMENT_3D ( 'NONE', #208, #306, #62 ) ;
#105 = DIRECTION ( 'NONE',  ( 1.000000000000000000, 0.000000000000000000, -0.000000000000000000 ) ) ;
#106 = DIRECTION ( 'NONE',  ( 0.000000000000000000, 0.000000000000000000, 1.000000000000000000 ) ) ;
#107 = DIRECTION ( 'NONE',  ( 0.000000000000000000, 0.000000000000000000, 1.000000000000000000 ) ) ;
#108 = TOROIDAL_SURFACE ( 'NONE', #171, 7.200000000000001066, 0.2000000000000000111 ) ;
#109 = EDGE_LOOP ( 'NONE', ( #186, #226 ) ) ;
#110 = APPROVAL ( #10, 'NEURÈENÝ' ) ;
#111 = DIRECTION ( 'NONE',  ( 1.000000000000000000, 0.000000000000000000, 0.000000000000000000 ) ) ;
#112 = ORIENTED_EDGE ( 'NONE', *, *, #20, .T. ) ;
#113 = LOCAL_TIME ( 11, 26, 29.00000000000000000, #117 ) ;
#114 = EDGE_LOOP ( 'NONE', ( #228, #141, #154, #250 ) ) ;
#115 = ORIENTED_EDGE ( 'NONE', *, *, #296, .F. ) ;
#116 = EDGE_CURVE ( 'NONE', #255, #298, #78, .T. ) ;
#117 = COORDINATED_UNIVERSAL_TIME_OFFSET ( 1, 0, .AHEAD. ) ;
#118 = CC_DESIGN_SECURITY_CLASSIFICATION ( #237, ( #123 ) ) ;
#119 = PERSON_AND_ORGANIZATION ( #156, #153 ) ;
#120 = CC_DESIGN_DATE_AND_TIME_ASSIGNMENT ( #210, #32, ( #237 ) ) ;
#121 = PERSON_AND_ORGANIZATION ( #156, #153 ) ;
#122 = DIRECTION ( 'NONE',  ( -1.000000000000000000, 1.224646799147358384E-16, 0.000000000000000000 ) ) ;
#123 = PRODUCT_DEFINITION_FORMATION_WITH_SPECIFIED_SOURCE ( 'LIBOVOLNÝ', '', #39, .NOT_KNOWN. ) ;
#124 = EDGE_CURVE ( 'NONE', #22, #298, #285, .T. ) ;
#125 = DIRECTION ( 'NONE',  ( 1.000000000000000000, 0.000000000000000000, 0.000000000000000000 ) ) ;
#126 = DATE_AND_TIME ( #6, #175 ) ;
#127 = FACE_OUTER_BOUND ( 'NONE', #207, .T. ) ;
#128 = COORDINATED_UNIVERSAL_TIME_OFFSET ( 1, 0, .AHEAD. ) ;
#129 = CARTESIAN_POINT ( 'NONE',  ( 11.00000000000000000, 1.347111479062088405E-15, 7.000000000000000000 ) ) ;
#130 = VECTOR ( 'NONE', #48, 1000.000000000000000 ) ;
#131 = CARTESIAN_POINT ( 'NONE',  ( 0.000000000000000000, 0.000000000000000000, 507.0000000000000000 ) ) ;
#132 = EDGE_CURVE ( 'NONE', #256, #227, #201, .T. ) ;
#133 = CARTESIAN_POINT ( 'NONE',  ( 0.000000000000000000, 0.000000000000000000, 7.199999999999984190 ) ) ;
#134 = ORIENTED_EDGE ( 'NONE', *, *, #124, .T. ) ;
#135 = ADVANCED_FACE ( 'NONE', ( #7 ), #213, .F. ) ;
#136 = ORIENTED_EDGE ( 'NONE', *, *, #299, .T. ) ;
#137 = AXIS2_PLACEMENT_3D ( 'NONE', #8, #41, #85 ) ;
#138 = CARTESIAN_POINT ( 'NONE',  ( 0.000000000000000000, 0.000000000000000000, 7.000000000000000000 ) ) ;
#139 = EDGE_LOOP ( 'NONE', ( #246, #203 ) ) ;
#140 = PERSON_AND_ORGANIZATION ( #156, #153 ) ;
#141 = ORIENTED_EDGE ( 'NONE', *, *, #220, .F. ) ;
#142 =( GEOMETRIC_REPRESENTATION_CONTEXT ( 3 ) GLOBAL_UNCERTAINTY_ASSIGNED_CONTEXT ( ( #294 ) ) GLOBAL_UNIT_ASSIGNED_CONTEXT ( ( #305, #164, #251 ) ) REPRESENTATION_CONTEXT ( 'NONE', 'WORKASPACE' ) );
#143 = CC_DESIGN_DATE_AND_TIME_ASSIGNMENT ( #239, #102, ( #277 ) ) ;
#144 = ORIENTED_EDGE ( 'NONE', *, *, #27, .F. ) ;
#145 = DIRECTION ( 'NONE',  ( -0.000000000000000000, -0.000000000000000000, -1.000000000000000000 ) ) ;
#146 = CIRCLE ( 'NONE', #11, 0.1999999999999996503 ) ;
#147 = PRODUCT_RELATED_PRODUCT_CATEGORY ( 'detail', '', ( #39 ) ) ;
#148 = CYLINDRICAL_SURFACE ( 'NONE', #51, 7.000000000000000888 ) ;
#149 = DATE_AND_TIME ( #84, #113 ) ;
#150 = DIRECTION ( 'NONE',  ( 1.000000000000000000, 0.000000000000000000, 0.000000000000000000 ) ) ;
#151 = CARTESIAN_POINT ( 'NONE',  ( 0.000000000000000000, 0.000000000000000000, 507.0000000000000000 ) ) ;
#152 = ORIENTED_EDGE ( 'NONE', *, *, #124, .F. ) ;
#153 = ORGANIZATION ( 'NEURÈENÝ', 'NEURÈENÝ', '' ) ;
#154 = ORIENTED_EDGE ( 'NONE', *, *, #27, .T. ) ;
#155 = DIRECTION ( 'NONE',  ( 0.000000000000000000, 0.000000000000000000, 1.000000000000000000 ) ) ;
#156 = PERSON ( 'NEURÈENÝ', 'NEURÈENÝ', 'NEURÈENÝ', ('NEURÈENÝ'), ('NEURÈENÝ'), ('NEURÈENÝ') ) ;
#157 = ADVANCED_FACE ( 'NONE', ( #219 ), #108, .F. ) ;
#158 = CIRCLE ( 'NONE', #259, 11.00000000000000000 ) ;
#159 = LINE ( 'NONE', #249, #130 ) ;
#160 = CIRCLE ( 'NONE', #66, 11.00000000000000000 ) ;
#161 = CARTESIAN_POINT ( 'NONE',  ( 11.00000000000000000, 1.347111479062088405E-15, 0.000000000000000000 ) ) ;
#162 = MECHANICAL_CONTEXT ( 'NONE', #95, 'mechanical' ) ;
#163 = CARTESIAN_POINT ( 'NONE',  ( 7.000000000000000888, 8.572527594031474176E-16, 507.0000000000000000 ) ) ;
#164 =( NAMED_UNIT ( * ) PLANE_ANGLE_UNIT ( ) SI_UNIT ( $, .RADIAN. ) );
#165 = LINE ( 'NONE', #163, #217 ) ;
#166 = APPROVAL_PERSON_ORGANIZATION ( #216, #283, #261 ) ;
#167 = CARTESIAN_POINT ( 'NONE',  ( 7.000000000000000888, 8.572527594031474176E-16, 7.199999999999984190 ) ) ;
#168 = APPROVAL ( #282, 'NEURÈENÝ' ) ;
#169 = CARTESIAN_POINT ( 'NONE',  ( 0.000000000000000000, 0.000000000000000000, 0.000000000000000000 ) ) ;
#170 = FACE_OUTER_BOUND ( 'NONE', #94, .T. ) ;
#171 = AXIS2_PLACEMENT_3D ( 'NONE', #65, #106, #63 ) ;
#172 = CALENDAR_DATE ( 2022, 20, 6 ) ;
#173 = CC_DESIGN_PERSON_AND_ORGANIZATION_ASSIGNMENT ( #121, #40, ( #123 ) ) ;
#174 = ADVANCED_BREP_SHAPE_REPRESENTATION ( '88ef', ( #229, #244 ), #142 ) ;
#175 = LOCAL_TIME ( 11, 26, 29.00000000000000000, #235 ) ;
#176 = DIRECTION ( 'NONE',  ( 1.000000000000000000, 0.000000000000000000, 0.000000000000000000 ) ) ;
#177 = LINE ( 'NONE', #97, #273 ) ;
#178 = FACE_OUTER_BOUND ( 'NONE', #225, .T. ) ;
#179 = CARTESIAN_POINT ( 'NONE',  ( 7.200000000000001066, 0.000000000000000000, 6.999999999999992006 ) ) ;
#180 = DIRECTION ( 'NONE',  ( 0.000000000000000000, 0.000000000000000000, 1.000000000000000000 ) ) ;
#181 = ADVANCED_FACE ( 'NONE', ( #245 ), #30, .F. ) ;
#182 = DIRECTION ( 'NONE',  ( -1.000000000000000000, 0.000000000000000000, 0.000000000000000000 ) ) ;
#183 = DIRECTION ( 'NONE',  ( -0.000000000000000000, -0.000000000000000000, -1.000000000000000000 ) ) ;
#184 = VERTEX_POINT ( 'NONE', #221 ) ;
#185 = DIRECTION ( 'NONE',  ( 0.000000000000000000, 0.000000000000000000, 1.000000000000000000 ) ) ;
#186 = ORIENTED_EDGE ( 'NONE', *, *, #211, .F. ) ;
#187 = ORIENTED_EDGE ( 'NONE', *, *, #253, .F. ) ;
#188 = DIRECTION ( 'NONE',  ( -1.000000000000000000, 0.000000000000000000, 0.000000000000000000 ) ) ;
#189 = CARTESIAN_POINT ( 'NONE',  ( 0.000000000000000000, 0.000000000000000000, 7.000000000000000000 ) ) ;
#190 = PERSON_AND_ORGANIZATION_ROLE ( 'creator' ) ;
#191 = AXIS2_PLACEMENT_3D ( 'NONE', #295, #42, #182 ) ;
#192 = APPROVAL_STATUS ( 'not_yet_approved' ) ;
#193 = COORDINATED_UNIVERSAL_TIME_OFFSET ( 1, 0, .AHEAD. ) ;
#194 = PERSON_AND_ORGANIZATION ( #156, #153 ) ;
#195 = AXIS2_PLACEMENT_3D ( 'NONE', #151, #67, #101 ) ;
#196 = CARTESIAN_POINT ( 'NONE',  ( 0.000000000000000000, 0.000000000000000000, 0.000000000000000000 ) ) ;
#197 = ORIENTED_EDGE ( 'NONE', *, *, #38, .T. ) ;
#198 = ORIENTED_EDGE ( 'NONE', *, *, #116, .F. ) ;
#199 = DIRECTION ( 'NONE',  ( -0.000000000000000000, -0.000000000000000000, -1.000000000000000000 ) ) ;
#200 = AXIS2_PLACEMENT_3D ( 'NONE', #52, #49, #284 ) ;
#201 = CIRCLE ( 'NONE', #79, 11.00000000000000000 ) ;
#202 = AXIS2_PLACEMENT_3D ( 'NONE', #14, #292, #15 ) ;
#203 = ORIENTED_EDGE ( 'NONE', *, *, #247, .T. ) ;
#204 = APPLICATION_PROTOCOL_DEFINITION ( 'international standard', 'config_control_design', 1994, #265 ) ;
#205 = CARTESIAN_POINT ( 'NONE',  ( 0.000000000000000000, 0.000000000000000000, 7.000000000000000000 ) ) ;
#206 = ORIENTED_EDGE ( 'NONE', *, *, #132, .T. ) ;
#207 = EDGE_LOOP ( 'NONE', ( #74, #55, #112, #144 ) ) ;
#208 = CARTESIAN_POINT ( 'NONE',  ( 0.000000000000000000, 0.000000000000000000, 7.199999999999984190 ) ) ;
#209 = AXIS2_PLACEMENT_3D ( 'NONE', #131, #16, #105 ) ;
#210 = DATE_AND_TIME ( #100, #13 ) ;
#211 = EDGE_CURVE ( 'NONE', #297, #18, #158, .T. ) ;
#212 = AXIS2_PLACEMENT_3D ( 'NONE', #138, #199, #274 ) ;
#213 = PLANE ( 'NONE',  #64 ) ;
#214 = ADVANCED_FACE ( 'NONE', ( #87 ), #242, .T. ) ;
#215 = CC_DESIGN_PERSON_AND_ORGANIZATION_ASSIGNMENT ( #140, #280, ( #39 ) ) ;
#216 = PERSON_AND_ORGANIZATION ( #156, #153 ) ;
#217 = VECTOR ( 'NONE', #183, 1000.000000000000000 ) ;
#218 = LINE ( 'NONE', #12, #54 ) ;
#219 = FACE_OUTER_BOUND ( 'NONE', #19, .T. ) ;
#220 = EDGE_CURVE ( 'NONE', #227, #256, #160, .T. ) ;
#221 = CARTESIAN_POINT ( 'NONE',  ( 7.000000000000000888, 8.572527594031474176E-16, 507.0000000000000000 ) ) ;
#222 = ORIENTED_EDGE ( 'NONE', *, *, #307, .F. ) ;
#223 = DIRECTION ( 'NONE',  ( 1.000000000000000000, 0.000000000000000000, 0.000000000000000000 ) ) ;
#224 = ORIENTED_EDGE ( 'NONE', *, *, #38, .F. ) ;
#225 = EDGE_LOOP ( 'NONE', ( #96, #206 ) ) ;
#226 = ORIENTED_EDGE ( 'NONE', *, *, #20, .F. ) ;
#227 = VERTEX_POINT ( 'NONE', #267 ) ;
#228 = ORIENTED_EDGE ( 'NONE', *, *, #281, .F. ) ;
#229 = MANIFOLD_SOLID_BREP ( 'Zaoblit1', #68 ) ;
#230 = ADVANCED_FACE ( 'NONE', ( #127 ), #60, .T. ) ;
#231 = ORIENTED_EDGE ( 'NONE', *, *, #17, .T. ) ;
#232 = DIRECTION ( 'NONE',  ( 1.000000000000000000, 0.000000000000000000, -0.000000000000000000 ) ) ;
#233 = CIRCLE ( 'NONE', #44, 7.000000000000000888 ) ;
#234 = DIRECTION ( 'NONE',  ( 1.224646799147353207E-16, 1.000000000000000000, -0.000000000000000000 ) ) ;
#235 = COORDINATED_UNIVERSAL_TIME_OFFSET ( 1, 0, .AHEAD. ) ;
#236 = DIRECTION ( 'NONE',  ( 1.000000000000000000, 0.000000000000000000, 0.000000000000000000 ) ) ;
#237 = SECURITY_CLASSIFICATION ( '', '', #1 ) ;
#238 = CARTESIAN_POINT ( 'NONE',  ( 0.000000000000000000, 0.000000000000000000, 7.000000000000000000 ) ) ;
#239 = DATE_AND_TIME ( #172, #23 ) ;
#240 = DIRECTION ( 'NONE',  ( 1.000000000000000000, 0.000000000000000000, 0.000000000000000000 ) ) ;
#241 = AXIS2_PLACEMENT_3D ( 'NONE', #189, #145, #236 ) ;
#242 = PLANE ( 'NONE',  #209 ) ;
#243 = ADVANCED_FACE ( 'NONE', ( #271 ), #86, .T. ) ;
#244 = AXIS2_PLACEMENT_3D ( 'NONE', #169, #53, #88 ) ;
#245 = FACE_OUTER_BOUND ( 'NONE', #300, .T. ) ;
#246 = ORIENTED_EDGE ( 'NONE', *, *, #253, .T. ) ;
#247 = EDGE_CURVE ( 'NONE', #184, #56, #70, .T. ) ;
#248 = CC_DESIGN_APPROVAL ( #110, ( #237 ) ) ;
#249 = CARTESIAN_POINT ( 'NONE',  ( -11.00000000000000000, 0.000000000000000000, 7.000000000000000000 ) ) ;
#250 = ORIENTED_EDGE ( 'NONE', *, *, #211, .T. ) ;
#251 =( NAMED_UNIT ( * ) SI_UNIT ( $, .STERADIAN. ) SOLID_ANGLE_UNIT ( ) );
#252 = FACE_OUTER_BOUND ( 'NONE', #73, .T. ) ;
#253 = EDGE_CURVE ( 'NONE', #56, #184, #233, .T. ) ;
#254 = APPROVAL_PERSON_ORGANIZATION ( #76, #168, #257 ) ;
#255 = VERTEX_POINT ( 'NONE', #179 ) ;
#256 = VERTEX_POINT ( 'NONE', #129 ) ;
#257 = APPROVAL_ROLE ( '' ) ;
#258 = AXIS2_PLACEMENT_3D ( 'NONE', #69, #185, #111 ) ;
#259 = AXIS2_PLACEMENT_3D ( 'NONE', #196, #9, #223 ) ;
#260 = PERSON_AND_ORGANIZATION_ROLE ( 'classification_officer' ) ;
#261 = APPROVAL_ROLE ( '' ) ;
#262 = DIRECTION ( 'NONE',  ( 0.000000000000000000, 0.000000000000000000, 1.000000000000000000 ) ) ;
#263 = CARTESIAN_POINT ( 'NONE',  ( -11.00000000000000000, 0.000000000000000000, 0.000000000000000000 ) ) ;
#264 = APPROVAL_DATE_TIME ( #289, #110 ) ;
#265 = APPLICATION_CONTEXT ( 'configuration controlled 3d designs of mechanical parts and assemblies' ) ;
#266 = AXIS2_PLACEMENT_3D ( 'NONE', #133, #180, #150 ) ;
#267 = CARTESIAN_POINT ( 'NONE',  ( -11.00000000000000000, 0.000000000000000000, 7.000000000000000000 ) ) ;
#268 = PERSON_AND_ORGANIZATION ( #156, #153 ) ;
#269 = CC_DESIGN_PERSON_AND_ORGANIZATION_ASSIGNMENT ( #119, #190, ( #277 ) ) ;
#270 = EDGE_LOOP ( 'NONE', ( #90, #197 ) ) ;
#271 = FACE_OUTER_BOUND ( 'NONE', #114, .T. ) ;
#272 = DIRECTION ( 'NONE',  ( 0.000000000000000000, -1.000000000000000000, 0.000000000000000000 ) ) ;
#273 = VECTOR ( 'NONE', #58, 1000.000000000000000 ) ;
#274 = DIRECTION ( 'NONE',  ( 1.000000000000000000, 0.000000000000000000, 0.000000000000000000 ) ) ;
#275 = CARTESIAN_POINT ( 'NONE',  ( -7.000000000000000888, 0.000000000000000000, 7.199999999999984190 ) ) ;
#276 = ORIENTED_EDGE ( 'NONE', *, *, #296, .T. ) ;
#277 = PRODUCT_DEFINITION ( 'NEZNÁMÝ', '', #123, #26 ) ;
#278 = APPROVAL_PERSON_ORGANIZATION ( #268, #110, #99 ) ;
#279 = ORIENTED_EDGE ( 'NONE', *, *, #17, .F. ) ;
#280 = PERSON_AND_ORGANIZATION_ROLE ( 'design_owner' ) ;
#281 = EDGE_CURVE ( 'NONE', #256, #18, #218, .T. ) ;
#282 = APPROVAL_STATUS ( 'not_yet_approved' ) ;
#283 = APPROVAL ( #192, 'NEURÈENÝ' ) ;
#284 = DIRECTION ( 'NONE',  ( -1.000000000000000000, 0.000000000000000000, 0.000000000000000000 ) ) ;
#285 = CIRCLE ( 'NONE', #91, 0.1999999999999996503 ) ;
#286 = PERSON_AND_ORGANIZATION_ROLE ( 'design_supplier' ) ;
#287 = PERSON_AND_ORGANIZATION ( #156, #153 ) ;
#288 = CC_DESIGN_PERSON_AND_ORGANIZATION_ASSIGNMENT ( #194, #260, ( #237 ) ) ;
#289 = DATE_AND_TIME ( #61, #46 ) ;
#290 = ADVANCED_FACE ( 'NONE', ( #103, #178 ), #24, .T. ) ;
#291 = CARTESIAN_POINT ( 'NONE',  ( 0.000000000000000000, 0.000000000000000000, 507.0000000000000000 ) ) ;
#292 = DIRECTION ( 'NONE',  ( -0.000000000000000000, -0.000000000000000000, -1.000000000000000000 ) ) ;
#293 = DIRECTION ( 'NONE',  ( -0.000000000000000000, -0.000000000000000000, -1.000000000000000000 ) ) ;
#294 = UNCERTAINTY_MEASURE_WITH_UNIT (LENGTH_MEASURE( 1.000000000000000082E-05 ), #305, 'distance_accuracy_value', 'NONE');
#295 = CARTESIAN_POINT ( 'NONE',  ( 0.000000000000000000, 0.000000000000000000, 7.000000000000000000 ) ) ;
#296 = EDGE_CURVE ( 'NONE', #25, #22, #83, .T. ) ;
#297 = VERTEX_POINT ( 'NONE', #263 ) ;
#298 = VERTEX_POINT ( 'NONE', #59 ) ;
#299 = EDGE_CURVE ( 'NONE', #22, #25, #80, .T. ) ;
#300 = EDGE_LOOP ( 'NONE', ( #152, #115, #231, #224 ) ) ;
#301 = PRODUCT_DEFINITION_SHAPE ( 'NONE', 'NONE',  #277 ) ;
#302 = DIRECTION ( 'NONE',  ( 0.000000000000000000, 0.000000000000000000, 1.000000000000000000 ) ) ;
#303 = ORIENTED_EDGE ( 'NONE', *, *, #307, .T. ) ;
#304 = ORIENTED_EDGE ( 'NONE', *, *, #247, .F. ) ;
#305 =( LENGTH_UNIT ( ) NAMED_UNIT ( * ) SI_UNIT ( .MILLI., .METRE. ) );
#306 = DIRECTION ( 'NONE',  ( 0.000000000000000000, 0.000000000000000000, 1.000000000000000000 ) ) ;
#307 = EDGE_CURVE ( 'NONE', #56, #22, #177, .T. ) ;
ENDSEC;
END-ISO-10303-21;
