ISO-10303-21;
HEADER;
FILE_DESCRIPTION (( 'STEP AP203' ),
    '1' );
FILE_NAME ('16de.STEP',
    '2022-06-20T10:23:42',
    ( '' ),
    ( '' ),
    'SwSTEP 2.0',
    'SolidWorks 2019',
    '' );
FILE_SCHEMA (( 'CONFIG_CONTROL_DESIGN' ));
ENDSEC;

DATA;
#1 = CARTESIAN_POINT ( 'NONE',  ( 0.9000000000000000222, 0.000000000000000000, 1.500000000000003553 ) ) ;
#2 = EDGE_CURVE ( 'NONE', #257, #215, #10, .T. ) ;
#3 = PLANE ( 'NONE',  #108 ) ;
#4 = DIRECTION ( 'NONE',  ( 1.000000000000000000, 0.000000000000000000, 0.000000000000000000 ) ) ;
#5 = DIRECTION ( 'NONE',  ( -1.000000000000000000, 1.224646799147353207E-16, 0.000000000000000000 ) ) ;
#6 = FACE_OUTER_BOUND ( 'NONE', #163, .T. ) ;
#7 = VECTOR ( 'NONE', #291, 1000.000000000000000 ) ;
#8 = EDGE_CURVE ( 'NONE', #69, #139, #237, .T. ) ;
#9 = DIRECTION ( 'NONE',  ( 0.000000000000000000, 0.000000000000000000, 1.000000000000000000 ) ) ;
#10 = CIRCLE ( 'NONE', #295, 1.500000000000000222 ) ;
#11 = CC_DESIGN_PERSON_AND_ORGANIZATION_ASSIGNMENT ( #132, #35, ( #192 ) ) ;
#12 = APPROVAL_STATUS ( 'not_yet_approved' ) ;
#13 = DIRECTION ( 'NONE',  ( 1.000000000000000000, 0.000000000000000000, 0.000000000000000000 ) ) ;
#14 = DIRECTION ( 'NONE',  ( 0.000000000000000000, -1.000000000000000000, 0.000000000000000000 ) ) ;
#15 = DATE_AND_TIME ( #277, #304 ) ;
#16 = PERSON_AND_ORGANIZATION ( #97, #244 ) ;
#17 = DIRECTION ( 'NONE',  ( 0.000000000000000000, 0.000000000000000000, 1.000000000000000000 ) ) ;
#18 = SECURITY_CLASSIFICATION_LEVEL ( 'unclassified' ) ;
#19 = ORIENTED_EDGE ( 'NONE', *, *, #56, .F. ) ;
#20 = EDGE_CURVE ( 'NONE', #153, #232, #300, .T. ) ;
#21 = ORIENTED_EDGE ( 'NONE', *, *, #288, .F. ) ;
#22 = LOCAL_TIME ( 12, 23, 42.00000000000000000, #81 ) ;
#23 = VERTEX_POINT ( 'NONE', #307 ) ;
#24 = FACE_OUTER_BOUND ( 'NONE', #87, .T. ) ;
#25 = EDGE_CURVE ( 'NONE', #257, #303, #168, .T. ) ;
#26 = DIRECTION ( 'NONE',  ( -0.000000000000000000, -0.000000000000000000, -1.000000000000000000 ) ) ;
#27 = APPROVAL_PERSON_ORGANIZATION ( #231, #245, #210 ) ;
#28 = DIRECTION ( 'NONE',  ( 0.000000000000000000, 0.000000000000000000, 1.000000000000000000 ) ) ;
#29 = ADVANCED_FACE ( 'NONE', ( #44 ), #159, .T. ) ;
#30 = TOROIDAL_SURFACE ( 'NONE', #226, 0.9000000000000000222, 0.2000000000000000111 ) ;
#31 = CIRCLE ( 'NONE', #70, 1.500000000000000222 ) ;
#32 =( LENGTH_UNIT ( ) NAMED_UNIT ( * ) SI_UNIT ( .MILLI., .METRE. ) );
#33 = APPLICATION_CONTEXT ( 'configuration controlled 3d designs of mechanical parts and assemblies' ) ;
#34 = CARTESIAN_POINT ( 'NONE',  ( 0.000000000000000000, 0.000000000000000000, 0.000000000000000000 ) ) ;
#35 = PERSON_AND_ORGANIZATION_ROLE ( 'creator' ) ;
#36 = COORDINATED_UNIVERSAL_TIME_OFFSET ( 1, 0, .AHEAD. ) ;
#37 = EDGE_LOOP ( 'NONE', ( #183, #42 ) ) ;
#38 = CIRCLE ( 'NONE', #219, 1.500000000000000222 ) ;
#39 = DATE_TIME_ROLE ( 'classification_date' ) ;
#40 = ORIENTED_EDGE ( 'NONE', *, *, #8, .T. ) ;
#41 = ADVANCED_FACE ( 'NONE', ( #6 ), #30, .F. ) ;
#42 = ORIENTED_EDGE ( 'NONE', *, *, #2, .T. ) ;
#43 = DIRECTION ( 'NONE',  ( 1.000000000000000000, 0.000000000000000000, 0.000000000000000000 ) ) ;
#44 = FACE_OUTER_BOUND ( 'NONE', #118, .T. ) ;
#45 = EDGE_CURVE ( 'NONE', #232, #55, #91, .T. ) ;
#46 = CARTESIAN_POINT ( 'NONE',  ( 0.000000000000000000, 0.000000000000000000, 1.500000000000000000 ) ) ;
#47 = LINE ( 'NONE', #243, #7 ) ;
#48 = CIRCLE ( 'NONE', #75, 0.6999999999999999556 ) ;
#49 = LOCAL_TIME ( 12, 23, 42.00000000000000000, #86 ) ;
#50 = DIRECTION ( 'NONE',  ( 0.000000000000000000, 0.000000000000000000, 1.000000000000000000 ) ) ;
#51 = CC_DESIGN_APPROVAL ( #245, ( #199 ) ) ;
#52 = CARTESIAN_POINT ( 'NONE',  ( 0.000000000000000000, 0.000000000000000000, 101.5000000000000000 ) ) ;
#53 = CARTESIAN_POINT ( 'NONE',  ( 0.000000000000000000, 0.000000000000000000, 101.5000000000000000 ) ) ;
#54 = MECHANICAL_CONTEXT ( 'NONE', #261, 'mechanical' ) ;
#55 = VERTEX_POINT ( 'NONE', #221 ) ;
#56 = EDGE_CURVE ( 'NONE', #239, #153, #156, .T. ) ;
#57 = CARTESIAN_POINT ( 'NONE',  ( -0.6999999999999999556, 0.000000000000000000, 1.700000000000007061 ) ) ;
#58 = APPROVAL_DATE_TIME ( #274, #142 ) ;
#59 = AXIS2_PLACEMENT_3D ( 'NONE', #124, #147, #267 ) ;
#60 = AXIS2_PLACEMENT_3D ( 'NONE', #80, #126, #13 ) ;
#61 = EDGE_CURVE ( 'NONE', #232, #69, #268, .T. ) ;
#62 = CARTESIAN_POINT ( 'NONE',  ( 0.000000000000000000, 0.000000000000000000, 101.5000000000000000 ) ) ;
#63 = DATE_AND_TIME ( #184, #49 ) ;
#64 = CARTESIAN_POINT ( 'NONE',  ( -0.6999999999999999556, 0.000000000000000000, 101.5000000000000000 ) ) ;
#65 = PERSON_AND_ORGANIZATION_ROLE ( 'design_supplier' ) ;
#66 = ORIENTED_EDGE ( 'NONE', *, *, #102, .F. ) ;
#67 = ORIENTED_EDGE ( 'NONE', *, *, #306, .F. ) ;
#68 = ORIENTED_EDGE ( 'NONE', *, *, #20, .F. ) ;
#69 = VERTEX_POINT ( 'NONE', #193 ) ;
#70 = AXIS2_PLACEMENT_3D ( 'NONE', #203, #178, #252 ) ;
#71 = CARTESIAN_POINT ( 'NONE',  ( -0.6999999999999999556, 0.000000000000000000, 101.5000000000000000 ) ) ;
#72 = DIRECTION ( 'NONE',  ( -1.000000000000000000, 0.000000000000000000, 0.000000000000000000 ) ) ;
#73 = DIRECTION ( 'NONE',  ( -0.000000000000000000, -0.000000000000000000, -1.000000000000000000 ) ) ;
#74 = AXIS2_PLACEMENT_3D ( 'NONE', #177, #50, #287 ) ;
#75 = AXIS2_PLACEMENT_3D ( 'NONE', #106, #9, #109 ) ;
#76 = LOCAL_TIME ( 12, 23, 42.00000000000000000, #36 ) ;
#77 = CARTESIAN_POINT ( 'NONE',  ( 0.000000000000000000, 0.000000000000000000, 1.500000000000000000 ) ) ;
#78 = FACE_BOUND ( 'NONE', #207, .T. ) ;
#79 = CARTESIAN_POINT ( 'NONE',  ( 1.500000000000000222, 1.836970198721030181E-16, 0.000000000000000000 ) ) ;
#80 = CARTESIAN_POINT ( 'NONE',  ( 0.000000000000000000, 0.000000000000000000, 1.700000000000007061 ) ) ;
#81 = COORDINATED_UNIVERSAL_TIME_OFFSET ( 1, 0, .AHEAD. ) ;
#82 = DIRECTION ( 'NONE',  ( 1.000000000000000000, 0.000000000000000000, 0.000000000000000000 ) ) ;
#83 = ADVANCED_FACE ( 'NONE', ( #269 ), #103, .F. ) ;
#84 = PERSON_AND_ORGANIZATION ( #97, #244 ) ;
#85 = CIRCLE ( 'NONE', #264, 0.2000000000000000944 ) ;
#86 = COORDINATED_UNIVERSAL_TIME_OFFSET ( 1, 0, .AHEAD. ) ;
#87 = EDGE_LOOP ( 'NONE', ( #19, #214, #96, #68 ) ) ;
#88 = APPROVAL_ROLE ( '' ) ;
#89 = CC_DESIGN_PERSON_AND_ORGANIZATION_ASSIGNMENT ( #259, #111, ( #199 ) ) ;
#90 = ORIENTED_EDGE ( 'NONE', *, *, #293, .F. ) ;
#91 = CIRCLE ( 'NONE', #59, 0.6999999999999999556 ) ;
#92 = PRODUCT ( '16de', '16de', '', ( #54 ) ) ;
#93 = EDGE_LOOP ( 'NONE', ( #211, #67, #260, #236 ) ) ;
#94 = LOCAL_TIME ( 12, 23, 42.00000000000000000, #158 ) ;
#95 = DIRECTION ( 'NONE',  ( 1.000000000000000000, 0.000000000000000000, 0.000000000000000000 ) ) ;
#96 = ORIENTED_EDGE ( 'NONE', *, *, #288, .T. ) ;
#97 = PERSON ( 'NEURÈENÝ', 'NEURÈENÝ', 'NEURÈENÝ', ('NEURÈENÝ'), ('NEURÈENÝ'), ('NEURÈENÝ') ) ;
#98 = DIRECTION ( 'NONE',  ( 1.000000000000000000, 0.000000000000000000, 0.000000000000000000 ) ) ;
#99 = APPROVAL_PERSON_ORGANIZATION ( #16, #134, #88 ) ;
#100 = DIRECTION ( 'NONE',  ( -0.000000000000000000, -0.000000000000000000, -1.000000000000000000 ) ) ;
#101 = FACE_OUTER_BOUND ( 'NONE', #190, .T. ) ;
#102 = EDGE_CURVE ( 'NONE', #239, #55, #200, .T. ) ;
#103 = PLANE ( 'NONE',  #129 ) ;
#104 = DIRECTION ( 'NONE',  ( 0.000000000000000000, 0.000000000000000000, 1.000000000000000000 ) ) ;
#105 = ADVANCED_FACE ( 'NONE', ( #101 ), #222, .T. ) ;
#106 = CARTESIAN_POINT ( 'NONE',  ( 0.000000000000000000, 0.000000000000000000, 1.700000000000007061 ) ) ;
#107 = APPROVAL_ROLE ( '' ) ;
#108 = AXIS2_PLACEMENT_3D ( 'NONE', #77, #241, #272 ) ;
#109 = DIRECTION ( 'NONE',  ( 1.000000000000000000, 0.000000000000000000, 0.000000000000000000 ) ) ;
#110 = AXIS2_PLACEMENT_3D ( 'NONE', #266, #173, #196 ) ;
#111 = PERSON_AND_ORGANIZATION_ROLE ( 'creator' ) ;
#112 = ORIENTED_EDGE ( 'NONE', *, *, #8, .F. ) ;
#113 = ADVANCED_FACE ( 'NONE', ( #148 ), #286, .T. ) ;
#114 = CALENDAR_DATE ( 2022, 20, 6 ) ;
#115 = ORIENTED_EDGE ( 'NONE', *, *, #61, .T. ) ;
#116 = ORIENTED_EDGE ( 'NONE', *, *, #56, .T. ) ;
#117 = ORIENTED_EDGE ( 'NONE', *, *, #20, .T. ) ;
#118 = EDGE_LOOP ( 'NONE', ( #185, #238, #191, #262 ) ) ;
#119 = PRODUCT_RELATED_PRODUCT_CATEGORY ( 'detail', '', ( #92 ) ) ;
#120 = CYLINDRICAL_SURFACE ( 'NONE', #297, 0.6999999999999999556 ) ;
#121 = CARTESIAN_POINT ( 'NONE',  ( -0.9000000000000000222, 1.102182119232617788E-16, 1.700000000000007061 ) ) ;
#122 = CIRCLE ( 'NONE', #223, 1.500000000000000222 ) ;
#123 = CARTESIAN_POINT ( 'NONE',  ( -1.500000000000000222, 0.000000000000000000, 1.500000000000000000 ) ) ;
#124 = CARTESIAN_POINT ( 'NONE',  ( 0.000000000000000000, 0.000000000000000000, 1.700000000000007061 ) ) ;
#125 = CARTESIAN_POINT ( 'NONE',  ( 0.000000000000000000, 0.000000000000000000, 0.000000000000000000 ) ) ;
#126 = DIRECTION ( 'NONE',  ( 0.000000000000000000, 0.000000000000000000, 1.000000000000000000 ) ) ;
#127 = DIRECTION ( 'NONE',  ( 0.000000000000000000, 0.000000000000000000, 1.000000000000000000 ) ) ;
#128 = APPLICATION_PROTOCOL_DEFINITION ( 'international standard', 'config_control_design', 1994, #261 ) ;
#129 = AXIS2_PLACEMENT_3D ( 'NONE', #125, #104, #175 ) ;
#130 = EDGE_CURVE ( 'NONE', #215, #23, #47, .T. ) ;
#131 = DIRECTION ( 'NONE',  ( 1.000000000000000000, 0.000000000000000000, 0.000000000000000000 ) ) ;
#132 = PERSON_AND_ORGANIZATION ( #97, #244 ) ;
#133 = APPROVAL_STATUS ( 'not_yet_approved' ) ;
#134 = APPROVAL ( #138, 'NEURÈENÝ' ) ;
#135 = PERSON_AND_ORGANIZATION_ROLE ( 'classification_officer' ) ;
#136 = ORIENTED_EDGE ( 'NONE', *, *, #61, .F. ) ;
#137 = AXIS2_PLACEMENT_3D ( 'NONE', #46, #73, #72 ) ;
#138 = APPROVAL_STATUS ( 'not_yet_approved' ) ;
#139 = VERTEX_POINT ( 'NONE', #1 ) ;
#140 = UNCERTAINTY_MEASURE_WITH_UNIT (LENGTH_MEASURE( 1.000000000000000082E-05 ), #32, 'distance_accuracy_value', 'NONE');
#141 = ORIENTED_EDGE ( 'NONE', *, *, #224, .F. ) ;
#142 = APPROVAL ( #12, 'NEURÈENÝ' ) ;
#143 = EDGE_LOOP ( 'NONE', ( #66, #263, #117, #187 ) ) ;
#144 = ORIENTED_EDGE ( 'NONE', *, *, #271, .F. ) ;
#145 = DIRECTION ( 'NONE',  ( -1.000000000000000000, 0.000000000000000000, 0.000000000000000000 ) ) ;
#146 = VECTOR ( 'NONE', #302, 1000.000000000000000 ) ;
#147 = DIRECTION ( 'NONE',  ( 0.000000000000000000, 0.000000000000000000, 1.000000000000000000 ) ) ;
#148 = FACE_OUTER_BOUND ( 'NONE', #143, .T. ) ;
#149 = CARTESIAN_POINT ( 'NONE',  ( 0.000000000000000000, 0.000000000000000000, 0.000000000000000000 ) ) ;
#150 = DIRECTION ( 'NONE',  ( 1.000000000000000000, 0.000000000000000000, 0.000000000000000000 ) ) ;
#151 = CC_DESIGN_APPROVAL ( #134, ( #254 ) ) ;
#152 = CARTESIAN_POINT ( 'NONE',  ( 0.6999999999999999556, 8.572527594031471957E-17, 101.5000000000000000 ) ) ;
#153 = VERTEX_POINT ( 'NONE', #71 ) ;
#154 = DIRECTION ( 'NONE',  ( 0.000000000000000000, 0.000000000000000000, 1.000000000000000000 ) ) ;
#155 = CC_DESIGN_DATE_AND_TIME_ASSIGNMENT ( #205, #182, ( #192 ) ) ;
#156 = CIRCLE ( 'NONE', #167, 0.6999999999999999556 ) ;
#157 = TOROIDAL_SURFACE ( 'NONE', #60, 0.9000000000000000222, 0.2000000000000000111 ) ;
#158 = COORDINATED_UNIVERSAL_TIME_OFFSET ( 1, 0, .AHEAD. ) ;
#159 = CYLINDRICAL_SURFACE ( 'NONE', #110, 1.500000000000000222 ) ;
#160 = CLOSED_SHELL ( 'NONE', ( #298, #216, #29, #171, #189, #83, #113, #105, #41 ) ) ;
#161 = PRODUCT_DEFINITION_SHAPE ( 'NONE', 'NONE',  #192 ) ;
#162 = PERSON_AND_ORGANIZATION ( #97, #244 ) ;
#163 = EDGE_LOOP ( 'NONE', ( #136, #21, #250, #112 ) ) ;
#164 = ORIENTED_EDGE ( 'NONE', *, *, #45, .F. ) ;
#165 = CC_DESIGN_PERSON_AND_ORGANIZATION_ASSIGNMENT ( #84, #227, ( #92 ) ) ;
#166 = ORIENTED_EDGE ( 'NONE', *, *, #198, .F. ) ;
#167 = AXIS2_PLACEMENT_3D ( 'NONE', #52, #195, #98 ) ;
#168 = LINE ( 'NONE', #279, #181 ) ;
#169 = AXIS2_PLACEMENT_3D ( 'NONE', #273, #296, #180 ) ;
#170 = CC_DESIGN_APPROVAL ( #142, ( #192 ) ) ;
#171 = ADVANCED_FACE ( 'NONE', ( #247 ), #218, .T. ) ;
#172 = CARTESIAN_POINT ( 'NONE',  ( 0.6999999999999999556, 8.572527594031471957E-17, 101.5000000000000000 ) ) ;
#173 = DIRECTION ( 'NONE',  ( -0.000000000000000000, -0.000000000000000000, -1.000000000000000000 ) ) ;
#174 = AXIS2_PLACEMENT_3D ( 'NONE', #53, #26, #289 ) ;
#175 = DIRECTION ( 'NONE',  ( 1.000000000000000000, 0.000000000000000000, -0.000000000000000000 ) ) ;
#176 = CC_DESIGN_DATE_AND_TIME_ASSIGNMENT ( #15, #39, ( #254 ) ) ;
#177 = CARTESIAN_POINT ( 'NONE',  ( 0.000000000000000000, 0.000000000000000000, 101.5000000000000000 ) ) ;
#178 = DIRECTION ( 'NONE',  ( 0.000000000000000000, 0.000000000000000000, 1.000000000000000000 ) ) ;
#179 =( NAMED_UNIT ( * ) PLANE_ANGLE_UNIT ( ) SI_UNIT ( $, .RADIAN. ) );
#180 = DIRECTION ( 'NONE',  ( 1.000000000000000000, 0.000000000000000000, 0.000000000000000000 ) ) ;
#181 = VECTOR ( 'NONE', #281, 1000.000000000000000 ) ;
#182 = DATE_TIME_ROLE ( 'creation_date' ) ;
#183 = ORIENTED_EDGE ( 'NONE', *, *, #306, .T. ) ;
#184 = CALENDAR_DATE ( 2022, 20, 6 ) ;
#185 = ORIENTED_EDGE ( 'NONE', *, *, #2, .F. ) ;
#186 = AXIS2_PLACEMENT_3D ( 'NONE', #62, #154, #131 ) ;
#187 = ORIENTED_EDGE ( 'NONE', *, *, #45, .T. ) ;
#188 = AXIS2_PLACEMENT_3D ( 'NONE', #228, #127, #225 ) ;
#189 = ADVANCED_FACE ( 'NONE', ( #78, #270 ), #3, .T. ) ;
#190 = EDGE_LOOP ( 'NONE', ( #265, #116 ) ) ;
#191 = ORIENTED_EDGE ( 'NONE', *, *, #198, .T. ) ;
#192 = PRODUCT_DEFINITION ( 'NEZNÁMÝ', '', #199, #234 ) ;
#193 = CARTESIAN_POINT ( 'NONE',  ( -0.9000000000000000222, 1.102182119232617788E-16, 1.500000000000003553 ) ) ;
#194 = APPROVAL_PERSON_ORGANIZATION ( #275, #142, #107 ) ;
#195 = DIRECTION ( 'NONE',  ( 0.000000000000000000, 0.000000000000000000, 1.000000000000000000 ) ) ;
#196 = DIRECTION ( 'NONE',  ( -1.000000000000000000, 0.000000000000000000, 0.000000000000000000 ) ) ;
#197 = CARTESIAN_POINT ( 'NONE',  ( 0.000000000000000000, 0.000000000000000000, 1.700000000000007061 ) ) ;
#198 = EDGE_CURVE ( 'NONE', #303, #23, #38, .T. ) ;
#199 = PRODUCT_DEFINITION_FORMATION_WITH_SPECIFIED_SOURCE ( 'LIBOVOLNÝ', '', #92, .NOT_KNOWN. ) ;
#200 = LINE ( 'NONE', #172, #212 ) ;
#201 = CC_DESIGN_PERSON_AND_ORGANIZATION_ASSIGNMENT ( #256, #65, ( #199 ) ) ;
#202 = DIRECTION ( 'NONE',  ( 0.000000000000000000, 0.000000000000000000, -1.000000000000000000 ) ) ;
#203 = CARTESIAN_POINT ( 'NONE',  ( 0.000000000000000000, 0.000000000000000000, 1.500000000000000000 ) ) ;
#204 = AXIS2_PLACEMENT_3D ( 'NONE', #121, #246, #5 ) ;
#205 = DATE_AND_TIME ( #301, #76 ) ;
#206 =( GEOMETRIC_REPRESENTATION_CONTEXT ( 3 ) GLOBAL_UNCERTAINTY_ASSIGNED_CONTEXT ( ( #140 ) ) GLOBAL_UNIT_ASSIGNED_CONTEXT ( ( #32, #179, #294 ) ) REPRESENTATION_CONTEXT ( 'NONE', 'WORKASPACE' ) );
#207 = EDGE_LOOP ( 'NONE', ( #283, #40 ) ) ;
#208 = DATE_AND_TIME ( #114, #94 ) ;
#209 = DIRECTION ( 'NONE',  ( -0.000000000000000000, -0.000000000000000000, -1.000000000000000000 ) ) ;
#210 = APPROVAL_ROLE ( '' ) ;
#211 = ORIENTED_EDGE ( 'NONE', *, *, #25, .F. ) ;
#212 = VECTOR ( 'NONE', #290, 1000.000000000000000 ) ;
#213 = MANIFOLD_SOLID_BREP ( 'Zaoblit1', #160 ) ;
#214 = ORIENTED_EDGE ( 'NONE', *, *, #102, .T. ) ;
#215 = VERTEX_POINT ( 'NONE', #123 ) ;
#216 = ADVANCED_FACE ( 'NONE', ( #24 ), #120, .T. ) ;
#217 = CARTESIAN_POINT ( 'NONE',  ( 0.000000000000000000, 0.000000000000000000, 101.5000000000000000 ) ) ;
#218 = CYLINDRICAL_SURFACE ( 'NONE', #137, 1.500000000000000222 ) ;
#219 = AXIS2_PLACEMENT_3D ( 'NONE', #149, #28, #150 ) ;
#220 = DIRECTION ( 'NONE',  ( 0.000000000000000000, 0.000000000000000000, 1.000000000000000000 ) ) ;
#221 = CARTESIAN_POINT ( 'NONE',  ( 0.6999999999999999556, 8.572527594031471957E-17, 1.700000000000007061 ) ) ;
#222 = PLANE ( 'NONE',  #74 ) ;
#223 = AXIS2_PLACEMENT_3D ( 'NONE', #34, #229, #82 ) ;
#224 = EDGE_CURVE ( 'NONE', #23, #303, #122, .T. ) ;
#225 = DIRECTION ( 'NONE',  ( 1.000000000000000000, 0.000000000000000000, 0.000000000000000000 ) ) ;
#226 = AXIS2_PLACEMENT_3D ( 'NONE', #197, #220, #4 ) ;
#227 = PERSON_AND_ORGANIZATION_ROLE ( 'design_owner' ) ;
#228 = CARTESIAN_POINT ( 'NONE',  ( 0.000000000000000000, 0.000000000000000000, 0.000000000000000000 ) ) ;
#229 = DIRECTION ( 'NONE',  ( 0.000000000000000000, 0.000000000000000000, 1.000000000000000000 ) ) ;
#230 = COORDINATED_UNIVERSAL_TIME_OFFSET ( 1, 0, .AHEAD. ) ;
#231 = PERSON_AND_ORGANIZATION ( #97, #244 ) ;
#232 = VERTEX_POINT ( 'NONE', #57 ) ;
#233 = SHAPE_DEFINITION_REPRESENTATION ( #161, #240 ) ;
#234 = DESIGN_CONTEXT ( 'detailed design', #33, 'design' ) ;
#235 = CARTESIAN_POINT ( 'NONE',  ( 0.000000000000000000, 0.000000000000000000, 1.500000000000000000 ) ) ;
#236 = ORIENTED_EDGE ( 'NONE', *, *, #224, .T. ) ;
#237 = CIRCLE ( 'NONE', #242, 0.9000000000000000222 ) ;
#238 = ORIENTED_EDGE ( 'NONE', *, *, #25, .T. ) ;
#239 = VERTEX_POINT ( 'NONE', #152 ) ;
#240 = ADVANCED_BREP_SHAPE_REPRESENTATION ( '16de', ( #213, #188 ), #206 ) ;
#241 = DIRECTION ( 'NONE',  ( 0.000000000000000000, 0.000000000000000000, 1.000000000000000000 ) ) ;
#242 = AXIS2_PLACEMENT_3D ( 'NONE', #285, #209, #43 ) ;
#243 = CARTESIAN_POINT ( 'NONE',  ( -1.500000000000000222, 0.000000000000000000, 1.500000000000000000 ) ) ;
#244 = ORGANIZATION ( 'NEURÈENÝ', 'NEURÈENÝ', '' ) ;
#245 = APPROVAL ( #133, 'NEURÈENÝ' ) ;
#246 = DIRECTION ( 'NONE',  ( 1.224646799147353207E-16, 1.000000000000000000, -0.000000000000000000 ) ) ;
#247 = FACE_OUTER_BOUND ( 'NONE', #93, .T. ) ;
#248 = CC_DESIGN_SECURITY_CLASSIFICATION ( #254, ( #199 ) ) ;
#249 = FACE_OUTER_BOUND ( 'NONE', #284, .T. ) ;
#250 = ORIENTED_EDGE ( 'NONE', *, *, #271, .T. ) ;
#251 = CARTESIAN_POINT ( 'NONE',  ( 0.9000000000000000222, 0.000000000000000000, 1.700000000000007061 ) ) ;
#252 = DIRECTION ( 'NONE',  ( 1.000000000000000000, 0.000000000000000000, 0.000000000000000000 ) ) ;
#253 = CIRCLE ( 'NONE', #169, 0.9000000000000000222 ) ;
#254 = SECURITY_CLASSIFICATION ( '', '', #18 ) ;
#255 = CALENDAR_DATE ( 2022, 20, 6 ) ;
#256 = PERSON_AND_ORGANIZATION ( #97, #244 ) ;
#257 = VERTEX_POINT ( 'NONE', #276 ) ;
#258 = EDGE_CURVE ( 'NONE', #153, #239, #282, .T. ) ;
#259 = PERSON_AND_ORGANIZATION ( #97, #244 ) ;
#260 = ORIENTED_EDGE ( 'NONE', *, *, #130, .T. ) ;
#261 = APPLICATION_CONTEXT ( 'configuration controlled 3d designs of mechanical parts and assemblies' ) ;
#262 = ORIENTED_EDGE ( 'NONE', *, *, #130, .F. ) ;
#263 = ORIENTED_EDGE ( 'NONE', *, *, #258, .F. ) ;
#264 = AXIS2_PLACEMENT_3D ( 'NONE', #251, #14, #202 ) ;
#265 = ORIENTED_EDGE ( 'NONE', *, *, #258, .T. ) ;
#266 = CARTESIAN_POINT ( 'NONE',  ( 0.000000000000000000, 0.000000000000000000, 1.500000000000000000 ) ) ;
#267 = DIRECTION ( 'NONE',  ( 1.000000000000000000, 0.000000000000000000, 0.000000000000000000 ) ) ;
#268 = CIRCLE ( 'NONE', #204, 0.2000000000000000944 ) ;
#269 = FACE_OUTER_BOUND ( 'NONE', #305, .T. ) ;
#270 = FACE_OUTER_BOUND ( 'NONE', #37, .T. ) ;
#271 = EDGE_CURVE ( 'NONE', #55, #139, #85, .T. ) ;
#272 = DIRECTION ( 'NONE',  ( 1.000000000000000000, 0.000000000000000000, -0.000000000000000000 ) ) ;
#273 = CARTESIAN_POINT ( 'NONE',  ( 0.000000000000000000, 0.000000000000000000, 1.500000000000000000 ) ) ;
#274 = DATE_AND_TIME ( #255, #22 ) ;
#275 = PERSON_AND_ORGANIZATION ( #97, #244 ) ;
#276 = CARTESIAN_POINT ( 'NONE',  ( 1.500000000000000222, 1.836970198721030181E-16, 1.500000000000000000 ) ) ;
#277 = CALENDAR_DATE ( 2022, 20, 6 ) ;
#278 = CC_DESIGN_PERSON_AND_ORGANIZATION_ASSIGNMENT ( #162, #135, ( #254 ) ) ;
#279 = CARTESIAN_POINT ( 'NONE',  ( 1.500000000000000222, 1.836970198721030181E-16, 1.500000000000000000 ) ) ;
#280 = APPROVAL_DATE_TIME ( #63, #134 ) ;
#281 = DIRECTION ( 'NONE',  ( -0.000000000000000000, -0.000000000000000000, -1.000000000000000000 ) ) ;
#282 = CIRCLE ( 'NONE', #186, 0.6999999999999999556 ) ;
#283 = ORIENTED_EDGE ( 'NONE', *, *, #293, .T. ) ;
#284 = EDGE_LOOP ( 'NONE', ( #164, #115, #90, #144 ) ) ;
#285 = CARTESIAN_POINT ( 'NONE',  ( 0.000000000000000000, 0.000000000000000000, 1.500000000000000000 ) ) ;
#286 = CYLINDRICAL_SURFACE ( 'NONE', #174, 0.6999999999999999556 ) ;
#287 = DIRECTION ( 'NONE',  ( 1.000000000000000000, 0.000000000000000000, -0.000000000000000000 ) ) ;
#288 = EDGE_CURVE ( 'NONE', #55, #232, #48, .T. ) ;
#289 = DIRECTION ( 'NONE',  ( -1.000000000000000000, 0.000000000000000000, 0.000000000000000000 ) ) ;
#290 = DIRECTION ( 'NONE',  ( -0.000000000000000000, -0.000000000000000000, -1.000000000000000000 ) ) ;
#291 = DIRECTION ( 'NONE',  ( -0.000000000000000000, -0.000000000000000000, -1.000000000000000000 ) ) ;
#292 = APPLICATION_PROTOCOL_DEFINITION ( 'international standard', 'config_control_design', 1994, #33 ) ;
#293 = EDGE_CURVE ( 'NONE', #139, #69, #253, .T. ) ;
#294 =( NAMED_UNIT ( * ) SI_UNIT ( $, .STERADIAN. ) SOLID_ANGLE_UNIT ( ) );
#295 = AXIS2_PLACEMENT_3D ( 'NONE', #235, #17, #95 ) ;
#296 = DIRECTION ( 'NONE',  ( -0.000000000000000000, -0.000000000000000000, -1.000000000000000000 ) ) ;
#297 = AXIS2_PLACEMENT_3D ( 'NONE', #217, #100, #145 ) ;
#298 = ADVANCED_FACE ( 'NONE', ( #249 ), #157, .F. ) ;
#299 = APPROVAL_DATE_TIME ( #208, #245 ) ;
#300 = LINE ( 'NONE', #64, #146 ) ;
#301 = CALENDAR_DATE ( 2022, 20, 6 ) ;
#302 = DIRECTION ( 'NONE',  ( -0.000000000000000000, -0.000000000000000000, -1.000000000000000000 ) ) ;
#303 = VERTEX_POINT ( 'NONE', #79 ) ;
#304 = LOCAL_TIME ( 12, 23, 42.00000000000000000, #230 ) ;
#305 = EDGE_LOOP ( 'NONE', ( #141, #166 ) ) ;
#306 = EDGE_CURVE ( 'NONE', #215, #257, #31, .T. ) ;
#307 = CARTESIAN_POINT ( 'NONE',  ( -1.500000000000000222, 0.000000000000000000, 0.000000000000000000 ) ) ;
ENDSEC;
END-ISO-10303-21;
