ISO-10303-21;
HEADER;
FILE_DESCRIPTION (( 'STEP AP203' ),
    '1' );
FILE_NAME ('001e.STEP',
    '2022-06-20T10:19:01',
    ( '' ),
    ( '' ),
    'SwSTEP 2.0',
    'SolidWorks 2019',
    '' );
FILE_SCHEMA (( 'CONFIG_CONTROL_DESIGN' ));
ENDSEC;

DATA;
#1 = VERTEX_POINT ( 'NONE', #18 ) ;
#2 = CARTESIAN_POINT ( 'NONE',  ( -2.000000000000000000, 0.000000000000000000, 0.000000000000000000 ) ) ;
#3 = AXIS2_PLACEMENT_3D ( 'NONE', #73, #170, #261 ) ;
#4 = ORIENTED_EDGE ( 'NONE', *, *, #177, .F. ) ;
#5 = ORIENTED_EDGE ( 'NONE', *, *, #76, .T. ) ;
#6 = CIRCLE ( 'NONE', #24, 1.100000000000000089 ) ;
#7 = APPROVAL_PERSON_ORGANIZATION ( #228, #84, #35 ) ;
#8 = CIRCLE ( 'NONE', #46, 2.000000000000000000 ) ;
#9 = LINE ( 'NONE', #195, #183 ) ;
#10 = DIRECTION ( 'NONE',  ( 1.000000000000000000, 0.000000000000000000, -0.000000000000000000 ) ) ;
#11 = DIRECTION ( 'NONE',  ( 0.000000000000000000, -1.000000000000000000, 0.000000000000000000 ) ) ;
#12 = PRODUCT ( '001e', '001e', '', ( #125 ) ) ;
#13 = APPROVAL_ROLE ( '' ) ;
#14 = CALENDAR_DATE ( 2022, 20, 6 ) ;
#15 = ORGANIZATION ( 'NEURÈENÝ', 'NEURÈENÝ', '' ) ;
#16 = PERSON_AND_ORGANIZATION_ROLE ( 'creator' ) ;
#17 = CARTESIAN_POINT ( 'NONE',  ( 0.000000000000000000, 0.000000000000000000, 2.000000000000000000 ) ) ;
#18 = CARTESIAN_POINT ( 'NONE',  ( -1.300000000000000266, 1.592040838891559342E-16, 2.000000000000003553 ) ) ;
#19 = EDGE_LOOP ( 'NONE', ( #179, #162 ) ) ;
#20 = CARTESIAN_POINT ( 'NONE',  ( 0.000000000000000000, 0.000000000000000000, 202.0000000000000000 ) ) ;
#21 = CARTESIAN_POINT ( 'NONE',  ( 0.000000000000000000, 0.000000000000000000, 202.0000000000000000 ) ) ;
#22 = CIRCLE ( 'NONE', #141, 2.000000000000000000 ) ;
#23 = LOCAL_TIME ( 12, 19, 1.000000000000000000, #128 ) ;
#24 = AXIS2_PLACEMENT_3D ( 'NONE', #80, #40, #90 ) ;
#25 = ORIENTED_EDGE ( 'NONE', *, *, #32, .T. ) ;
#26 = DIRECTION ( 'NONE',  ( 1.000000000000000000, 0.000000000000000000, 0.000000000000000000 ) ) ;
#27 = EDGE_CURVE ( 'NONE', #28, #110, #6, .T. ) ;
#28 = VERTEX_POINT ( 'NONE', #163 ) ;
#29 = CC_DESIGN_APPROVAL ( #87, ( #259 ) ) ;
#30 = ORIENTED_EDGE ( 'NONE', *, *, #120, .F. ) ;
#31 = ORIENTED_EDGE ( 'NONE', *, *, #285, .F. ) ;
#32 = EDGE_CURVE ( 'NONE', #48, #113, #65, .T. ) ;
#33 = DIRECTION ( 'NONE',  ( 1.000000000000000000, 0.000000000000000000, 0.000000000000000000 ) ) ;
#34 = DIRECTION ( 'NONE',  ( -0.000000000000000000, -0.000000000000000000, -1.000000000000000000 ) ) ;
#35 = APPROVAL_ROLE ( '' ) ;
#36 = ORIENTED_EDGE ( 'NONE', *, *, #298, .F. ) ;
#37 = VERTEX_POINT ( 'NONE', #173 ) ;
#38 = CARTESIAN_POINT ( 'NONE',  ( -1.300000000000000266, 1.592040838891559342E-16, 2.200000000000007283 ) ) ;
#39 = ORIENTED_EDGE ( 'NONE', *, *, #76, .F. ) ;
#40 = DIRECTION ( 'NONE',  ( 0.000000000000000000, 0.000000000000000000, 1.000000000000000000 ) ) ;
#41 = CARTESIAN_POINT ( 'NONE',  ( -1.100000000000000089, 0.000000000000000000, 2.200000000000007283 ) ) ;
#42 = DIRECTION ( 'NONE',  ( 0.000000000000000000, 0.000000000000000000, 1.000000000000000000 ) ) ;
#43 = AXIS2_PLACEMENT_3D ( 'NONE', #267, #234, #62 ) ;
#44 = PLANE ( 'NONE',  #221 ) ;
#45 =( GEOMETRIC_REPRESENTATION_CONTEXT ( 3 ) GLOBAL_UNCERTAINTY_ASSIGNED_CONTEXT ( ( #185 ) ) GLOBAL_UNIT_ASSIGNED_CONTEXT ( ( #223, #168, #70 ) ) REPRESENTATION_CONTEXT ( 'NONE', 'WORKASPACE' ) );
#46 = AXIS2_PLACEMENT_3D ( 'NONE', #149, #152, #229 ) ;
#47 = ADVANCED_FACE ( 'NONE', ( #121 ), #300, .T. ) ;
#48 = VERTEX_POINT ( 'NONE', #284 ) ;
#49 = CARTESIAN_POINT ( 'NONE',  ( 0.000000000000000000, 0.000000000000000000, 2.000000000000000000 ) ) ;
#50 = DIRECTION ( 'NONE',  ( 0.000000000000000000, 0.000000000000000000, 1.000000000000000000 ) ) ;
#51 = LOCAL_TIME ( 12, 19, 1.000000000000000000, #266 ) ;
#52 = EDGE_CURVE ( 'NONE', #232, #37, #8, .T. ) ;
#53 = DIRECTION ( 'NONE',  ( -1.000000000000000000, 0.000000000000000000, 0.000000000000000000 ) ) ;
#54 = CIRCLE ( 'NONE', #292, 1.100000000000000089 ) ;
#55 = CC_DESIGN_PERSON_AND_ORGANIZATION_ASSIGNMENT ( #144, #295, ( #12 ) ) ;
#56 = DIRECTION ( 'NONE',  ( -0.000000000000000000, -0.000000000000000000, -1.000000000000000000 ) ) ;
#57 = ORIENTED_EDGE ( 'NONE', *, *, #237, .F. ) ;
#58 = PRODUCT_RELATED_PRODUCT_CATEGORY ( 'detail', '', ( #12 ) ) ;
#59 = FACE_OUTER_BOUND ( 'NONE', #196, .T. ) ;
#60 = CC_DESIGN_PERSON_AND_ORGANIZATION_ASSIGNMENT ( #61, #85, ( #259 ) ) ;
#61 = PERSON_AND_ORGANIZATION ( #154, #15 ) ;
#62 = DIRECTION ( 'NONE',  ( 1.000000000000000000, 0.000000000000000000, 0.000000000000000000 ) ) ;
#63 = ORIENTED_EDGE ( 'NONE', *, *, #71, .F. ) ;
#64 = DIRECTION ( 'NONE',  ( -0.000000000000000000, -0.000000000000000000, -1.000000000000000000 ) ) ;
#65 = CIRCLE ( 'NONE', #198, 2.000000000000000000 ) ;
#66 = CARTESIAN_POINT ( 'NONE',  ( -1.100000000000000089, 0.000000000000000000, 202.0000000000000000 ) ) ;
#67 = ORIENTED_EDGE ( 'NONE', *, *, #298, .T. ) ;
#68 = FACE_OUTER_BOUND ( 'NONE', #136, .T. ) ;
#69 = CARTESIAN_POINT ( 'NONE',  ( 1.100000000000000089, 1.347111479062088503E-16, 202.0000000000000000 ) ) ;
#70 =( NAMED_UNIT ( * ) SI_UNIT ( $, .STERADIAN. ) SOLID_ANGLE_UNIT ( ) );
#71 = EDGE_CURVE ( 'NONE', #150, #1, #79, .T. ) ;
#72 = AXIS2_PLACEMENT_3D ( 'NONE', #38, #86, #265 ) ;
#73 = CARTESIAN_POINT ( 'NONE',  ( 0.000000000000000000, 0.000000000000000000, 0.000000000000000000 ) ) ;
#74 = CARTESIAN_POINT ( 'NONE',  ( 0.000000000000000000, 0.000000000000000000, 0.000000000000000000 ) ) ;
#75 = ORIENTED_EDGE ( 'NONE', *, *, #264, .T. ) ;
#76 = EDGE_CURVE ( 'NONE', #207, #150, #305, .T. ) ;
#77 = COORDINATED_UNIVERSAL_TIME_OFFSET ( 1, 0, .AHEAD. ) ;
#78 = CC_DESIGN_APPROVAL ( #84, ( #249 ) ) ;
#79 = CIRCLE ( 'NONE', #270, 1.300000000000000266 ) ;
#80 = CARTESIAN_POINT ( 'NONE',  ( 0.000000000000000000, 0.000000000000000000, 202.0000000000000000 ) ) ;
#81 = EDGE_LOOP ( 'NONE', ( #215, #246 ) ) ;
#82 = ORIENTED_EDGE ( 'NONE', *, *, #252, .T. ) ;
#83 = APPROVAL_STATUS ( 'not_yet_approved' ) ;
#84 = APPROVAL ( #200, 'NEURÈENÝ' ) ;
#85 = PERSON_AND_ORGANIZATION_ROLE ( 'creator' ) ;
#86 = DIRECTION ( 'NONE',  ( 1.224646799147353207E-16, 1.000000000000000000, -0.000000000000000000 ) ) ;
#87 = APPROVAL ( #251, 'NEURÈENÝ' ) ;
#88 = EDGE_LOOP ( 'NONE', ( #126, #175, #5, #260 ) ) ;
#89 = AXIS2_PLACEMENT_3D ( 'NONE', #74, #204, #10 ) ;
#90 = DIRECTION ( 'NONE',  ( 1.000000000000000000, 0.000000000000000000, 0.000000000000000000 ) ) ;
#91 = ORIENTED_EDGE ( 'NONE', *, *, #32, .F. ) ;
#92 = DIRECTION ( 'NONE',  ( 1.000000000000000000, 0.000000000000000000, 0.000000000000000000 ) ) ;
#93 = AXIS2_PLACEMENT_3D ( 'NONE', #123, #117, #255 ) ;
#94 = DIRECTION ( 'NONE',  ( -0.000000000000000000, -0.000000000000000000, -1.000000000000000000 ) ) ;
#95 = EDGE_CURVE ( 'NONE', #113, #232, #277, .T. ) ;
#96 = CALENDAR_DATE ( 2022, 20, 6 ) ;
#97 = DIRECTION ( 'NONE',  ( 0.000000000000000000, 0.000000000000000000, -1.000000000000000000 ) ) ;
#98 = DATE_AND_TIME ( #14, #296 ) ;
#99 = PLANE ( 'NONE',  #146 ) ;
#100 = CIRCLE ( 'NONE', #288, 1.300000000000000266 ) ;
#101 = APPROVAL_DATE_TIME ( #98, #87 ) ;
#102 = PERSON_AND_ORGANIZATION ( #154, #15 ) ;
#103 = PERSON_AND_ORGANIZATION ( #154, #15 ) ;
#104 = ORIENTED_EDGE ( 'NONE', *, *, #27, .F. ) ;
#105 = ADVANCED_FACE ( 'NONE', ( #226 ), #99, .T. ) ;
#106 = DIRECTION ( 'NONE',  ( 0.000000000000000000, 0.000000000000000000, 1.000000000000000000 ) ) ;
#107 = APPROVAL_DATE_TIME ( #283, #245 ) ;
#108 = FACE_OUTER_BOUND ( 'NONE', #190, .T. ) ;
#109 = CYLINDRICAL_SURFACE ( 'NONE', #122, 1.100000000000000089 ) ;
#110 = VERTEX_POINT ( 'NONE', #66 ) ;
#111 = CARTESIAN_POINT ( 'NONE',  ( 0.000000000000000000, 0.000000000000000000, 2.000000000000000000 ) ) ;
#112 = LOCAL_TIME ( 12, 19, 1.000000000000000000, #77 ) ;
#113 = VERTEX_POINT ( 'NONE', #187 ) ;
#114 = CC_DESIGN_DATE_AND_TIME_ASSIGNMENT ( #119, #172, ( #249 ) ) ;
#115 = LINE ( 'NONE', #69, #273 ) ;
#116 = ADVANCED_FACE ( 'NONE', ( #108 ), #174, .F. ) ;
#117 = DIRECTION ( 'NONE',  ( 0.000000000000000000, 0.000000000000000000, 1.000000000000000000 ) ) ;
#118 = CARTESIAN_POINT ( 'NONE',  ( 1.300000000000000266, 0.000000000000000000, 2.200000000000007283 ) ) ;
#119 = DATE_AND_TIME ( #142, #112 ) ;
#120 = EDGE_CURVE ( 'NONE', #110, #171, #159, .T. ) ;
#121 = FACE_OUTER_BOUND ( 'NONE', #268, .T. ) ;
#122 = AXIS2_PLACEMENT_3D ( 'NONE', #21, #189, #153 ) ;
#123 = CARTESIAN_POINT ( 'NONE',  ( 0.000000000000000000, 0.000000000000000000, 0.000000000000000000 ) ) ;
#124 = ORIENTED_EDGE ( 'NONE', *, *, #95, .F. ) ;
#125 = MECHANICAL_CONTEXT ( 'NONE', #222, 'mechanical' ) ;
#126 = ORIENTED_EDGE ( 'NONE', *, *, #212, .F. ) ;
#127 = ORIENTED_EDGE ( 'NONE', *, *, #237, .T. ) ;
#128 = COORDINATED_UNIVERSAL_TIME_OFFSET ( 1, 0, .AHEAD. ) ;
#129 = FACE_BOUND ( 'NONE', #81, .T. ) ;
#130 = DIRECTION ( 'NONE',  ( 0.000000000000000000, 0.000000000000000000, 1.000000000000000000 ) ) ;
#131 = AXIS2_PLACEMENT_3D ( 'NONE', #118, #11, #97 ) ;
#132 = ORIENTED_EDGE ( 'NONE', *, *, #95, .T. ) ;
#133 = CALENDAR_DATE ( 2022, 20, 6 ) ;
#134 = CARTESIAN_POINT ( 'NONE',  ( 0.000000000000000000, 0.000000000000000000, 2.000000000000000000 ) ) ;
#135 = CC_DESIGN_SECURITY_CLASSIFICATION ( #184, ( #259 ) ) ;
#136 = EDGE_LOOP ( 'NONE', ( #303, #36 ) ) ;
#137 = DESIGN_CONTEXT ( 'detailed design', #167, 'design' ) ;
#138 = AXIS2_PLACEMENT_3D ( 'NONE', #20, #106, #209 ) ;
#139 = DIRECTION ( 'NONE',  ( -0.000000000000000000, -0.000000000000000000, -1.000000000000000000 ) ) ;
#140 = CC_DESIGN_PERSON_AND_ORGANIZATION_ASSIGNMENT ( #151, #236, ( #259 ) ) ;
#141 = AXIS2_PLACEMENT_3D ( 'NONE', #111, #218, #92 ) ;
#142 = CALENDAR_DATE ( 2022, 20, 6 ) ;
#143 = PRODUCT_DEFINITION_SHAPE ( 'NONE', 'NONE',  #249 ) ;
#144 = PERSON_AND_ORGANIZATION ( #154, #15 ) ;
#145 = CARTESIAN_POINT ( 'NONE',  ( 0.000000000000000000, 0.000000000000000000, 202.0000000000000000 ) ) ;
#146 = AXIS2_PLACEMENT_3D ( 'NONE', #297, #42, #206 ) ;
#147 = TOROIDAL_SURFACE ( 'NONE', #161, 1.300000000000000266, 0.2000000000000000111 ) ;
#148 = FACE_OUTER_BOUND ( 'NONE', #193, .T. ) ;
#149 = CARTESIAN_POINT ( 'NONE',  ( 0.000000000000000000, 0.000000000000000000, 0.000000000000000000 ) ) ;
#150 = VERTEX_POINT ( 'NONE', #263 ) ;
#151 = PERSON_AND_ORGANIZATION ( #154, #15 ) ;
#152 = DIRECTION ( 'NONE',  ( 0.000000000000000000, 0.000000000000000000, 1.000000000000000000 ) ) ;
#153 = DIRECTION ( 'NONE',  ( -1.000000000000000000, 0.000000000000000000, 0.000000000000000000 ) ) ;
#154 = PERSON ( 'NEURÈENÝ', 'NEURÈENÝ', 'NEURÈENÝ', ('NEURÈENÝ'), ('NEURÈENÝ'), ('NEURÈENÝ') ) ;
#155 = DIRECTION ( 'NONE',  ( -0.000000000000000000, -0.000000000000000000, -1.000000000000000000 ) ) ;
#156 = CC_DESIGN_PERSON_AND_ORGANIZATION_ASSIGNMENT ( #102, #16, ( #249 ) ) ;
#157 = CALENDAR_DATE ( 2022, 20, 6 ) ;
#158 = DIRECTION ( 'NONE',  ( -1.000000000000000000, 0.000000000000000000, 0.000000000000000000 ) ) ;
#159 = LINE ( 'NONE', #231, #182 ) ;
#160 = ORIENTED_EDGE ( 'NONE', *, *, #224, .T. ) ;
#161 = AXIS2_PLACEMENT_3D ( 'NONE', #247, #291, #26 ) ;
#162 = ORIENTED_EDGE ( 'NONE', *, *, #27, .T. ) ;
#163 = CARTESIAN_POINT ( 'NONE',  ( 1.100000000000000089, 1.347111479062088503E-16, 202.0000000000000000 ) ) ;
#164 = CC_DESIGN_DATE_AND_TIME_ASSIGNMENT ( #178, #243, ( #184 ) ) ;
#165 = DIRECTION ( 'NONE',  ( 1.000000000000000000, 0.000000000000000000, 0.000000000000000000 ) ) ;
#166 = ADVANCED_FACE ( 'NONE', ( #129, #59 ), #44, .T. ) ;
#167 = APPLICATION_CONTEXT ( 'configuration controlled 3d designs of mechanical parts and assemblies' ) ;
#168 =( NAMED_UNIT ( * ) PLANE_ANGLE_UNIT ( ) SI_UNIT ( $, .RADIAN. ) );
#169 = ADVANCED_FACE ( 'NONE', ( #244 ), #109, .T. ) ;
#170 = DIRECTION ( 'NONE',  ( 0.000000000000000000, 0.000000000000000000, 1.000000000000000000 ) ) ;
#171 = VERTEX_POINT ( 'NONE', #41 ) ;
#172 = DATE_TIME_ROLE ( 'creation_date' ) ;
#173 = CARTESIAN_POINT ( 'NONE',  ( 2.000000000000000000, 2.449293598294706414E-16, 0.000000000000000000 ) ) ;
#174 = TOROIDAL_SURFACE ( 'NONE', #43, 1.300000000000000266, 0.2000000000000000111 ) ;
#175 = ORIENTED_EDGE ( 'NONE', *, *, #252, .F. ) ;
#176 = LOCAL_TIME ( 12, 19, 1.000000000000000000, #225 ) ;
#177 = EDGE_CURVE ( 'NONE', #110, #28, #213, .T. ) ;
#178 = DATE_AND_TIME ( #157, #23 ) ;
#179 = ORIENTED_EDGE ( 'NONE', *, *, #177, .T. ) ;
#180 = CARTESIAN_POINT ( 'NONE',  ( 0.000000000000000000, 0.000000000000000000, 2.000000000000000000 ) ) ;
#181 = ADVANCED_FACE ( 'NONE', ( #287 ), #262, .T. ) ;
#182 = VECTOR ( 'NONE', #64, 1000.000000000000000 ) ;
#183 = VECTOR ( 'NONE', #94, 1000.000000000000000 ) ;
#184 = SECURITY_CLASSIFICATION ( '', '', #233 ) ;
#185 = UNCERTAINTY_MEASURE_WITH_UNIT (LENGTH_MEASURE( 1.000000000000000082E-05 ), #223, 'distance_accuracy_value', 'NONE');
#186 = CARTESIAN_POINT ( 'NONE',  ( 0.000000000000000000, 0.000000000000000000, 2.200000000000007283 ) ) ;
#187 = CARTESIAN_POINT ( 'NONE',  ( -2.000000000000000000, 0.000000000000000000, 2.000000000000000000 ) ) ;
#188 = ORIENTED_EDGE ( 'NONE', *, *, #224, .F. ) ;
#189 = DIRECTION ( 'NONE',  ( -0.000000000000000000, -0.000000000000000000, -1.000000000000000000 ) ) ;
#190 = EDGE_LOOP ( 'NONE', ( #188, #279, #63, #39 ) ) ;
#191 = AXIS2_PLACEMENT_3D ( 'NONE', #278, #56, #53 ) ;
#192 = DIRECTION ( 'NONE',  ( 1.000000000000000000, 0.000000000000000000, 0.000000000000000000 ) ) ;
#193 = EDGE_LOOP ( 'NONE', ( #241, #31, #132, #214 ) ) ;
#194 = DIRECTION ( 'NONE',  ( 1.000000000000000000, 0.000000000000000000, 0.000000000000000000 ) ) ;
#195 = CARTESIAN_POINT ( 'NONE',  ( 2.000000000000000000, 2.449293598294706414E-16, 2.000000000000000000 ) ) ;
#196 = EDGE_LOOP ( 'NONE', ( #289, #25 ) ) ;
#197 = APPROVAL_PERSON_ORGANIZATION ( #239, #245, #230 ) ;
#198 = AXIS2_PLACEMENT_3D ( 'NONE', #49, #219, #194 ) ;
#199 = FACE_OUTER_BOUND ( 'NONE', #88, .T. ) ;
#200 = APPROVAL_STATUS ( 'not_yet_approved' ) ;
#201 = APPLICATION_PROTOCOL_DEFINITION ( 'international standard', 'config_control_design', 1994, #167 ) ;
#202 = CC_DESIGN_PERSON_AND_ORGANIZATION_ASSIGNMENT ( #208, #307, ( #184 ) ) ;
#203 = CYLINDRICAL_SURFACE ( 'NONE', #191, 2.000000000000000000 ) ;
#204 = DIRECTION ( 'NONE',  ( 0.000000000000000000, 0.000000000000000000, 1.000000000000000000 ) ) ;
#205 = DIRECTION ( 'NONE',  ( -0.000000000000000000, -0.000000000000000000, -1.000000000000000000 ) ) ;
#206 = DIRECTION ( 'NONE',  ( 1.000000000000000000, 0.000000000000000000, -0.000000000000000000 ) ) ;
#207 = VERTEX_POINT ( 'NONE', #304 ) ;
#208 = PERSON_AND_ORGANIZATION ( #154, #15 ) ;
#209 = DIRECTION ( 'NONE',  ( 1.000000000000000000, 0.000000000000000000, 0.000000000000000000 ) ) ;
#210 = ADVANCED_BREP_SHAPE_REPRESENTATION ( '001e', ( #235, #93 ), #45 ) ;
#211 = SHAPE_DEFINITION_REPRESENTATION ( #143, #210 ) ;
#212 = EDGE_CURVE ( 'NONE', #171, #1, #286, .T. ) ;
#213 = CIRCLE ( 'NONE', #138, 1.100000000000000089 ) ;
#214 = ORIENTED_EDGE ( 'NONE', *, *, #52, .T. ) ;
#215 = ORIENTED_EDGE ( 'NONE', *, *, #71, .T. ) ;
#216 = DIRECTION ( 'NONE',  ( -0.000000000000000000, -0.000000000000000000, -1.000000000000000000 ) ) ;
#217 = ORIENTED_EDGE ( 'NONE', *, *, #120, .T. ) ;
#218 = DIRECTION ( 'NONE',  ( 0.000000000000000000, 0.000000000000000000, 1.000000000000000000 ) ) ;
#219 = DIRECTION ( 'NONE',  ( 0.000000000000000000, 0.000000000000000000, 1.000000000000000000 ) ) ;
#220 = EDGE_LOOP ( 'NONE', ( #57, #4, #217, #160 ) ) ;
#221 = AXIS2_PLACEMENT_3D ( 'NONE', #134, #238, #306 ) ;
#222 = APPLICATION_CONTEXT ( 'configuration controlled 3d designs of mechanical parts and assemblies' ) ;
#223 =( LENGTH_UNIT ( ) NAMED_UNIT ( * ) SI_UNIT ( .MILLI., .METRE. ) );
#224 = EDGE_CURVE ( 'NONE', #171, #207, #248, .T. ) ;
#225 = COORDINATED_UNIVERSAL_TIME_OFFSET ( 1, 0, .AHEAD. ) ;
#226 = FACE_OUTER_BOUND ( 'NONE', #19, .T. ) ;
#227 = COORDINATED_UNIVERSAL_TIME_OFFSET ( 1, 0, .AHEAD. ) ;
#228 = PERSON_AND_ORGANIZATION ( #154, #15 ) ;
#229 = DIRECTION ( 'NONE',  ( 1.000000000000000000, 0.000000000000000000, 0.000000000000000000 ) ) ;
#230 = APPROVAL_ROLE ( '' ) ;
#231 = CARTESIAN_POINT ( 'NONE',  ( -1.100000000000000089, 0.000000000000000000, 202.0000000000000000 ) ) ;
#232 = VERTEX_POINT ( 'NONE', #2 ) ;
#233 = SECURITY_CLASSIFICATION_LEVEL ( 'unclassified' ) ;
#234 = DIRECTION ( 'NONE',  ( 0.000000000000000000, 0.000000000000000000, 1.000000000000000000 ) ) ;
#235 = MANIFOLD_SOLID_BREP ( 'Zaoblit1', #282 ) ;
#236 = PERSON_AND_ORGANIZATION_ROLE ( 'design_supplier' ) ;
#237 = EDGE_CURVE ( 'NONE', #28, #207, #115, .T. ) ;
#238 = DIRECTION ( 'NONE',  ( 0.000000000000000000, 0.000000000000000000, 1.000000000000000000 ) ) ;
#239 = PERSON_AND_ORGANIZATION ( #154, #15 ) ;
#240 = DIRECTION ( 'NONE',  ( 1.000000000000000000, 0.000000000000000000, 0.000000000000000000 ) ) ;
#241 = ORIENTED_EDGE ( 'NONE', *, *, #264, .F. ) ;
#242 = CC_DESIGN_APPROVAL ( #245, ( #184 ) ) ;
#243 = DATE_TIME_ROLE ( 'classification_date' ) ;
#244 = FACE_OUTER_BOUND ( 'NONE', #220, .T. ) ;
#245 = APPROVAL ( #83, 'NEURÈENÝ' ) ;
#246 = ORIENTED_EDGE ( 'NONE', *, *, #274, .T. ) ;
#247 = CARTESIAN_POINT ( 'NONE',  ( 0.000000000000000000, 0.000000000000000000, 2.200000000000007283 ) ) ;
#248 = CIRCLE ( 'NONE', #302, 1.100000000000000089 ) ;
#249 = PRODUCT_DEFINITION ( 'NEZNÁMÝ', '', #259, #137 ) ;
#250 = CARTESIAN_POINT ( 'NONE',  ( 0.000000000000000000, 0.000000000000000000, 2.200000000000007283 ) ) ;
#251 = APPROVAL_STATUS ( 'not_yet_approved' ) ;
#252 = EDGE_CURVE ( 'NONE', #207, #171, #54, .T. ) ;
#253 = CARTESIAN_POINT ( 'NONE',  ( -2.000000000000000000, 0.000000000000000000, 2.000000000000000000 ) ) ;
#254 = APPLICATION_PROTOCOL_DEFINITION ( 'international standard', 'config_control_design', 1994, #222 ) ;
#255 = DIRECTION ( 'NONE',  ( 1.000000000000000000, 0.000000000000000000, 0.000000000000000000 ) ) ;
#256 = VECTOR ( 'NONE', #34, 1000.000000000000000 ) ;
#257 = DIRECTION ( 'NONE',  ( -0.000000000000000000, -0.000000000000000000, -1.000000000000000000 ) ) ;
#258 = AXIS2_PLACEMENT_3D ( 'NONE', #180, #155, #158 ) ;
#259 = PRODUCT_DEFINITION_FORMATION_WITH_SPECIFIED_SOURCE ( 'LIBOVOLNÝ', '', #12, .NOT_KNOWN. ) ;
#260 = ORIENTED_EDGE ( 'NONE', *, *, #274, .F. ) ;
#261 = DIRECTION ( 'NONE',  ( 1.000000000000000000, 0.000000000000000000, 0.000000000000000000 ) ) ;
#262 = CYLINDRICAL_SURFACE ( 'NONE', #258, 2.000000000000000000 ) ;
#263 = CARTESIAN_POINT ( 'NONE',  ( 1.300000000000000266, 0.000000000000000000, 2.000000000000003553 ) ) ;
#264 = EDGE_CURVE ( 'NONE', #48, #37, #9, .T. ) ;
#265 = DIRECTION ( 'NONE',  ( -1.000000000000000000, 1.224646799147353207E-16, 0.000000000000000000 ) ) ;
#266 = COORDINATED_UNIVERSAL_TIME_OFFSET ( 1, 0, .AHEAD. ) ;
#267 = CARTESIAN_POINT ( 'NONE',  ( 0.000000000000000000, 0.000000000000000000, 2.200000000000007283 ) ) ;
#268 = EDGE_LOOP ( 'NONE', ( #104, #127, #82, #30 ) ) ;
#269 = APPROVAL_PERSON_ORGANIZATION ( #103, #87, #13 ) ;
#270 = AXIS2_PLACEMENT_3D ( 'NONE', #17, #205, #33 ) ;
#271 = CARTESIAN_POINT ( 'NONE',  ( 0.000000000000000000, 0.000000000000000000, 2.000000000000000000 ) ) ;
#272 = ADVANCED_FACE ( 'NONE', ( #199 ), #147, .F. ) ;
#273 = VECTOR ( 'NONE', #139, 1000.000000000000000 ) ;
#274 = EDGE_CURVE ( 'NONE', #1, #150, #100, .T. ) ;
#275 = CIRCLE ( 'NONE', #3, 2.000000000000000000 ) ;
#276 = APPROVAL_DATE_TIME ( #294, #84 ) ;
#277 = LINE ( 'NONE', #253, #256 ) ;
#278 = CARTESIAN_POINT ( 'NONE',  ( 0.000000000000000000, 0.000000000000000000, 2.000000000000000000 ) ) ;
#279 = ORIENTED_EDGE ( 'NONE', *, *, #212, .T. ) ;
#280 = AXIS2_PLACEMENT_3D ( 'NONE', #145, #257, #281 ) ;
#281 = DIRECTION ( 'NONE',  ( -1.000000000000000000, 0.000000000000000000, 0.000000000000000000 ) ) ;
#282 = CLOSED_SHELL ( 'NONE', ( #116, #47, #181, #293, #166, #290, #169, #105, #272 ) ) ;
#283 = DATE_AND_TIME ( #133, #51 ) ;
#284 = CARTESIAN_POINT ( 'NONE',  ( 2.000000000000000000, 2.449293598294706414E-16, 2.000000000000000000 ) ) ;
#285 = EDGE_CURVE ( 'NONE', #113, #48, #22, .T. ) ;
#286 = CIRCLE ( 'NONE', #72, 0.2000000000000000944 ) ;
#287 = FACE_OUTER_BOUND ( 'NONE', #301, .T. ) ;
#288 = AXIS2_PLACEMENT_3D ( 'NONE', #271, #216, #192 ) ;
#289 = ORIENTED_EDGE ( 'NONE', *, *, #285, .T. ) ;
#290 = ADVANCED_FACE ( 'NONE', ( #68 ), #299, .F. ) ;
#291 = DIRECTION ( 'NONE',  ( 0.000000000000000000, 0.000000000000000000, 1.000000000000000000 ) ) ;
#292 = AXIS2_PLACEMENT_3D ( 'NONE', #250, #50, #165 ) ;
#293 = ADVANCED_FACE ( 'NONE', ( #148 ), #203, .T. ) ;
#294 = DATE_AND_TIME ( #96, #176 ) ;
#295 = PERSON_AND_ORGANIZATION_ROLE ( 'design_owner' ) ;
#296 = LOCAL_TIME ( 12, 19, 1.000000000000000000, #227 ) ;
#297 = CARTESIAN_POINT ( 'NONE',  ( 0.000000000000000000, 0.000000000000000000, 202.0000000000000000 ) ) ;
#298 = EDGE_CURVE ( 'NONE', #37, #232, #275, .T. ) ;
#299 = PLANE ( 'NONE',  #89 ) ;
#300 = CYLINDRICAL_SURFACE ( 'NONE', #280, 1.100000000000000089 ) ;
#301 = EDGE_LOOP ( 'NONE', ( #91, #75, #67, #124 ) ) ;
#302 = AXIS2_PLACEMENT_3D ( 'NONE', #186, #130, #240 ) ;
#303 = ORIENTED_EDGE ( 'NONE', *, *, #52, .F. ) ;
#304 = CARTESIAN_POINT ( 'NONE',  ( 1.100000000000000089, 1.347111479062088503E-16, 2.200000000000007283 ) ) ;
#305 = CIRCLE ( 'NONE', #131, 0.2000000000000000944 ) ;
#306 = DIRECTION ( 'NONE',  ( 1.000000000000000000, 0.000000000000000000, -0.000000000000000000 ) ) ;
#307 = PERSON_AND_ORGANIZATION_ROLE ( 'classification_officer' ) ;
ENDSEC;
END-ISO-10303-21;
