ISO-10303-21;
HEADER;
FILE_DESCRIPTION (( 'STEP AP203' ),
    '1' );
FILE_NAME ('aee6.STEP',
    '2022-06-20T09:43:22',
    ( '' ),
    ( '' ),
    'SwSTEP 2.0',
    'SolidWorks 2019',
    '' );
FILE_SCHEMA (( 'CONFIG_CONTROL_DESIGN' ));
ENDSEC;

DATA;
#1 = DIRECTION ( 'NONE',  ( -0.000000000000000000, -0.000000000000000000, -1.000000000000000000 ) ) ;
#2 = VECTOR ( 'NONE', #153, 1000.000000000000000 ) ;
#3 = ADVANCED_FACE ( 'NONE', ( #64, #40 ), #138, .T. ) ;
#4 = CARTESIAN_POINT ( 'NONE',  ( -7.000000000000000000, 0.000000000000000000, 5.000000000000000000 ) ) ;
#5 = CARTESIAN_POINT ( 'NONE',  ( 0.000000000000000000, 0.000000000000000000, 5.200000000000009948 ) ) ;
#6 = LOCAL_TIME ( 11, 43, 22.00000000000000000, #35 ) ;
#7 = CARTESIAN_POINT ( 'NONE',  ( 0.000000000000000000, 0.000000000000000000, 255.0000000000000000 ) ) ;
#8 = ADVANCED_FACE ( 'NONE', ( #145 ), #122, .T. ) ;
#9 = CARTESIAN_POINT ( 'NONE',  ( 0.000000000000000000, 0.000000000000000000, 0.000000000000000000 ) ) ;
#10 = PERSON_AND_ORGANIZATION_ROLE ( 'classification_officer' ) ;
#11 = ORIENTED_EDGE ( 'NONE', *, *, #149, .F. ) ;
#12 = VERTEX_POINT ( 'NONE', #302 ) ;
#13 = AXIS2_PLACEMENT_3D ( 'NONE', #170, #47, #190 ) ;
#14 = CC_DESIGN_APPROVAL ( #89, ( #169 ) ) ;
#15 = COORDINATED_UNIVERSAL_TIME_OFFSET ( 1, 0, .AHEAD. ) ;
#16 = ORIENTED_EDGE ( 'NONE', *, *, #179, .F. ) ;
#17 = EDGE_LOOP ( 'NONE', ( #39, #91, #36, #162 ) ) ;
#18 = UNCERTAINTY_MEASURE_WITH_UNIT (LENGTH_MEASURE( 1.000000000000000082E-05 ), #261, 'distance_accuracy_value', 'NONE');
#19 = VERTEX_POINT ( 'NONE', #52 ) ;
#20 = EDGE_LOOP ( 'NONE', ( #243, #93 ) ) ;
#21 = DIRECTION ( 'NONE',  ( -0.000000000000000000, -0.000000000000000000, -1.000000000000000000 ) ) ;
#22 = CARTESIAN_POINT ( 'NONE',  ( 0.000000000000000000, 0.000000000000000000, 5.200000000000009948 ) ) ;
#23 = DIRECTION ( 'NONE',  ( 1.000000000000000000, 0.000000000000000000, 0.000000000000000000 ) ) ;
#24 = MANIFOLD_SOLID_BREP ( 'Zaoblit1', #85 ) ;
#25 = DIRECTION ( 'NONE',  ( 0.000000000000000000, 0.000000000000000000, 1.000000000000000000 ) ) ;
#26 = CC_DESIGN_PERSON_AND_ORGANIZATION_ASSIGNMENT ( #157, #10, ( #169 ) ) ;
#27 = CIRCLE ( 'NONE', #70, 7.000000000000000000 ) ;
#28 = CARTESIAN_POINT ( 'NONE',  ( 0.000000000000000000, 0.000000000000000000, 255.0000000000000000 ) ) ;
#29 = LINE ( 'NONE', #214, #2 ) ;
#30 = CARTESIAN_POINT ( 'NONE',  ( 0.000000000000000000, 0.000000000000000000, 5.000000000000000000 ) ) ;
#31 = DIRECTION ( 'NONE',  ( 1.000000000000000000, 0.000000000000000000, 0.000000000000000000 ) ) ;
#32 = DIRECTION ( 'NONE',  ( 0.000000000000000000, 0.000000000000000000, 1.000000000000000000 ) ) ;
#33 = APPROVAL_PERSON_ORGANIZATION ( #178, #89, #221 ) ;
#34 = LINE ( 'NONE', #58, #146 ) ;
#35 = COORDINATED_UNIVERSAL_TIME_OFFSET ( 1, 0, .AHEAD. ) ;
#36 = ORIENTED_EDGE ( 'NONE', *, *, #147, .T. ) ;
#37 = ADVANCED_FACE ( 'NONE', ( #275 ), #148, .T. ) ;
#38 = PERSON_AND_ORGANIZATION_ROLE ( 'creator' ) ;
#39 = ORIENTED_EDGE ( 'NONE', *, *, #272, .F. ) ;
#40 = FACE_OUTER_BOUND ( 'NONE', #246, .T. ) ;
#41 = COORDINATED_UNIVERSAL_TIME_OFFSET ( 1, 0, .AHEAD. ) ;
#42 = APPROVAL_ROLE ( '' ) ;
#43 = ORIENTED_EDGE ( 'NONE', *, *, #116, .F. ) ;
#44 = PERSON_AND_ORGANIZATION_ROLE ( 'design_owner' ) ;
#45 = CARTESIAN_POINT ( 'NONE',  ( 0.000000000000000000, 0.000000000000000000, 255.0000000000000000 ) ) ;
#46 = EDGE_CURVE ( 'NONE', #200, #164, #27, .T. ) ;
#47 = DIRECTION ( 'NONE',  ( -0.000000000000000000, -0.000000000000000000, -1.000000000000000000 ) ) ;
#48 = DIRECTION ( 'NONE',  ( -1.000000000000000000, 0.000000000000000000, 0.000000000000000000 ) ) ;
#49 = APPROVAL_PERSON_ORGANIZATION ( #273, #198, #42 ) ;
#50 = ORIENTED_EDGE ( 'NONE', *, *, #182, .F. ) ;
#51 = DIRECTION ( 'NONE',  ( 1.000000000000000000, 0.000000000000000000, 0.000000000000000000 ) ) ;
#52 = CARTESIAN_POINT ( 'NONE',  ( 4.500000000000000888, 5.510910596163089556E-16, 255.0000000000000000 ) ) ;
#53 = AXIS2_PLACEMENT_3D ( 'NONE', #168, #252, #102 ) ;
#54 = AXIS2_PLACEMENT_3D ( 'NONE', #77, #167, #121 ) ;
#55 = DIRECTION ( 'NONE',  ( 1.000000000000000000, 0.000000000000000000, 0.000000000000000000 ) ) ;
#56 = CYLINDRICAL_SURFACE ( 'NONE', #264, 7.000000000000000000 ) ;
#57 = CARTESIAN_POINT ( 'NONE',  ( 0.000000000000000000, 0.000000000000000000, 255.0000000000000000 ) ) ;
#58 = CARTESIAN_POINT ( 'NONE',  ( -4.500000000000000888, 0.000000000000000000, 255.0000000000000000 ) ) ;
#59 = PRODUCT_DEFINITION_FORMATION_WITH_SPECIFIED_SOURCE ( 'LIBOVOLNÝ', '', #73, .NOT_KNOWN. ) ;
#60 = CALENDAR_DATE ( 2022, 20, 6 ) ;
#61 = ORIENTED_EDGE ( 'NONE', *, *, #46, .T. ) ;
#62 = EDGE_CURVE ( 'NONE', #109, #112, #197, .T. ) ;
#63 = APPROVAL_STATUS ( 'not_yet_approved' ) ;
#64 = FACE_BOUND ( 'NONE', #108, .T. ) ;
#65 = VERTEX_POINT ( 'NONE', #98 ) ;
#66 = APPROVAL_PERSON_ORGANIZATION ( #180, #278, #111 ) ;
#67 = DATE_TIME_ROLE ( 'creation_date' ) ;
#68 = APPROVAL_DATE_TIME ( #136, #278 ) ;
#69 = ADVANCED_FACE ( 'NONE', ( #235 ), #194, .F. ) ;
#70 = AXIS2_PLACEMENT_3D ( 'NONE', #79, #25, #254 ) ;
#71 = DIRECTION ( 'NONE',  ( 1.224646799147353207E-16, 1.000000000000000000, -0.000000000000000000 ) ) ;
#72 = AXIS2_PLACEMENT_3D ( 'NONE', #231, #124, #23 ) ;
#73 = PRODUCT ( 'aee6', 'aee6', '', ( #104 ) ) ;
#74 = AXIS2_PLACEMENT_3D ( 'NONE', #5, #86, #285 ) ;
#75 = CYLINDRICAL_SURFACE ( 'NONE', #13, 7.000000000000000000 ) ;
#76 = EDGE_CURVE ( 'NONE', #114, #96, #220, .T. ) ;
#77 = CARTESIAN_POINT ( 'NONE',  ( 4.700000000000000178, 0.000000000000000000, 5.200000000000009948 ) ) ;
#78 = CARTESIAN_POINT ( 'NONE',  ( -4.500000000000000888, 0.000000000000000000, 5.200000000000009948 ) ) ;
#79 = CARTESIAN_POINT ( 'NONE',  ( 0.000000000000000000, 0.000000000000000000, 0.000000000000000000 ) ) ;
#80 = CIRCLE ( 'NONE', #244, 4.500000000000000888 ) ;
#81 = TOROIDAL_SURFACE ( 'NONE', #159, 4.700000000000000178, 0.2000000000000000111 ) ;
#82 = AXIS2_PLACEMENT_3D ( 'NONE', #131, #176, #31 ) ;
#83 = DIRECTION ( 'NONE',  ( 1.000000000000000000, 0.000000000000000000, -0.000000000000000000 ) ) ;
#84 = APPLICATION_PROTOCOL_DEFINITION ( 'international standard', 'config_control_design', 1994, #196 ) ;
#85 = CLOSED_SHELL ( 'NONE', ( #154, #8, #260, #123, #3, #258, #37, #305, #69 ) ) ;
#86 = DIRECTION ( 'NONE',  ( 0.000000000000000000, 0.000000000000000000, 1.000000000000000000 ) ) ;
#87 = CC_DESIGN_SECURITY_CLASSIFICATION ( #169, ( #59 ) ) ;
#88 = PERSON_AND_ORGANIZATION ( #133, #296 ) ;
#89 = APPROVAL ( #140, 'NEURÈENÝ' ) ;
#90 = SECURITY_CLASSIFICATION_LEVEL ( 'unclassified' ) ;
#91 = ORIENTED_EDGE ( 'NONE', *, *, #230, .T. ) ;
#92 = ORIENTED_EDGE ( 'NONE', *, *, #62, .F. ) ;
#93 = ORIENTED_EDGE ( 'NONE', *, *, #272, .T. ) ;
#94 = ORIENTED_EDGE ( 'NONE', *, *, #113, .T. ) ;
#95 = EDGE_LOOP ( 'NONE', ( #271, #115 ) ) ;
#96 = VERTEX_POINT ( 'NONE', #188 ) ;
#97 = EDGE_CURVE ( 'NONE', #110, #19, #80, .T. ) ;
#98 = CARTESIAN_POINT ( 'NONE',  ( 4.700000000000000178, 0.000000000000000000, 5.000000000000005329 ) ) ;
#99 = CARTESIAN_POINT ( 'NONE',  ( -4.700000000000000178, 5.755839955992559655E-16, 5.000000000000005329 ) ) ;
#100 = CARTESIAN_POINT ( 'NONE',  ( 0.000000000000000000, 0.000000000000000000, 5.200000000000009948 ) ) ;
#101 = PRODUCT_DEFINITION_SHAPE ( 'NONE', 'NONE',  #128 ) ;
#102 = DIRECTION ( 'NONE',  ( 1.000000000000000000, 0.000000000000000000, 0.000000000000000000 ) ) ;
#103 = VECTOR ( 'NONE', #132, 1000.000000000000000 ) ;
#104 = MECHANICAL_CONTEXT ( 'NONE', #196, 'mechanical' ) ;
#105 = CARTESIAN_POINT ( 'NONE',  ( -7.000000000000000000, 0.000000000000000000, 0.000000000000000000 ) ) ;
#106 = DIRECTION ( 'NONE',  ( -0.000000000000000000, -0.000000000000000000, -1.000000000000000000 ) ) ;
#107 = CALENDAR_DATE ( 2022, 20, 6 ) ;
#108 = EDGE_LOOP ( 'NONE', ( #303, #201 ) ) ;
#109 = VERTEX_POINT ( 'NONE', #78 ) ;
#110 = VERTEX_POINT ( 'NONE', #304 ) ;
#111 = APPROVAL_ROLE ( '' ) ;
#112 = VERTEX_POINT ( 'NONE', #99 ) ;
#113 = EDGE_CURVE ( 'NONE', #96, #164, #232, .T. ) ;
#114 = VERTEX_POINT ( 'NONE', #166 ) ;
#115 = ORIENTED_EDGE ( 'NONE', *, *, #175, .F. ) ;
#116 = EDGE_CURVE ( 'NONE', #65, #112, #284, .T. ) ;
#117 = VECTOR ( 'NONE', #257, 1000.000000000000000 ) ;
#118 = CC_DESIGN_PERSON_AND_ORGANIZATION_ASSIGNMENT ( #202, #242, ( #59 ) ) ;
#119 = DIRECTION ( 'NONE',  ( 0.000000000000000000, 0.000000000000000000, 1.000000000000000000 ) ) ;
#120 = CIRCLE ( 'NONE', #227, 4.700000000000000178 ) ;
#121 = DIRECTION ( 'NONE',  ( 0.000000000000000000, 0.000000000000000000, -1.000000000000000000 ) ) ;
#122 = CYLINDRICAL_SURFACE ( 'NONE', #289, 4.500000000000000888 ) ;
#123 = ADVANCED_FACE ( 'NONE', ( #143 ), #75, .T. ) ;
#124 = DIRECTION ( 'NONE',  ( 0.000000000000000000, 0.000000000000000000, 1.000000000000000000 ) ) ;
#125 = CC_DESIGN_DATE_AND_TIME_ASSIGNMENT ( #139, #293, ( #169 ) ) ;
#126 = DIRECTION ( 'NONE',  ( 0.000000000000000000, 0.000000000000000000, 1.000000000000000000 ) ) ;
#127 = AXIS2_PLACEMENT_3D ( 'NONE', #45, #1, #192 ) ;
#128 = PRODUCT_DEFINITION ( 'NEZNÁMÝ', '', #59, #161 ) ;
#129 = DIRECTION ( 'NONE',  ( 1.000000000000000000, 0.000000000000000000, 0.000000000000000000 ) ) ;
#130 = LOCAL_TIME ( 11, 43, 22.00000000000000000, #41 ) ;
#131 = CARTESIAN_POINT ( 'NONE',  ( 0.000000000000000000, 0.000000000000000000, 0.000000000000000000 ) ) ;
#132 = DIRECTION ( 'NONE',  ( -0.000000000000000000, -0.000000000000000000, -1.000000000000000000 ) ) ;
#133 = PERSON ( 'NEURÈENÝ', 'NEURÈENÝ', 'NEURÈENÝ', ('NEURÈENÝ'), ('NEURÈENÝ'), ('NEURÈENÝ') ) ;
#134 = SHAPE_DEFINITION_REPRESENTATION ( #101, #251 ) ;
#135 = EDGE_LOOP ( 'NONE', ( #156, #206, #137, #181 ) ) ;
#136 = DATE_AND_TIME ( #60, #151 ) ;
#137 = ORIENTED_EDGE ( 'NONE', *, *, #287, .T. ) ;
#138 = PLANE ( 'NONE',  #239 ) ;
#139 = DATE_AND_TIME ( #163, #6 ) ;
#140 = APPROVAL_STATUS ( 'not_yet_approved' ) ;
#141 = COORDINATED_UNIVERSAL_TIME_OFFSET ( 1, 0, .AHEAD. ) ;
#142 = EDGE_CURVE ( 'NONE', #96, #114, #286, .T. ) ;
#143 = FACE_OUTER_BOUND ( 'NONE', #295, .T. ) ;
#144 = DIRECTION ( 'NONE',  ( 0.000000000000000000, 0.000000000000000000, 1.000000000000000000 ) ) ;
#145 = FACE_OUTER_BOUND ( 'NONE', #17, .T. ) ;
#146 = VECTOR ( 'NONE', #106, 1000.000000000000000 ) ;
#147 = EDGE_CURVE ( 'NONE', #12, #109, #276, .T. ) ;
#148 = CYLINDRICAL_SURFACE ( 'NONE', #127, 4.500000000000000888 ) ;
#149 = EDGE_CURVE ( 'NONE', #12, #65, #187, .T. ) ;
#150 = AXIS2_PLACEMENT_3D ( 'NONE', #22, #279, #51 ) ;
#151 = LOCAL_TIME ( 11, 43, 22.00000000000000000, #141 ) ;
#152 = DIRECTION ( 'NONE',  ( 0.000000000000000000, 0.000000000000000000, 1.000000000000000000 ) ) ;
#153 = DIRECTION ( 'NONE',  ( -0.000000000000000000, -0.000000000000000000, -1.000000000000000000 ) ) ;
#154 = ADVANCED_FACE ( 'NONE', ( #210 ), #81, .F. ) ;
#155 = APPROVAL_STATUS ( 'not_yet_approved' ) ;
#156 = ORIENTED_EDGE ( 'NONE', *, *, #230, .F. ) ;
#157 = PERSON_AND_ORGANIZATION ( #133, #296 ) ;
#158 = ORIENTED_EDGE ( 'NONE', *, *, #142, .F. ) ;
#159 = AXIS2_PLACEMENT_3D ( 'NONE', #100, #191, #216 ) ;
#160 = AXIS2_PLACEMENT_3D ( 'NONE', #7, #126, #83 ) ;
#161 = DESIGN_CONTEXT ( 'detailed design', #212, 'design' ) ;
#162 = ORIENTED_EDGE ( 'NONE', *, *, #287, .F. ) ;
#163 = CALENDAR_DATE ( 2022, 20, 6 ) ;
#164 = VERTEX_POINT ( 'NONE', #255 ) ;
#165 = CC_DESIGN_DATE_AND_TIME_ASSIGNMENT ( #297, #67, ( #128 ) ) ;
#166 = CARTESIAN_POINT ( 'NONE',  ( -7.000000000000000000, 0.000000000000000000, 5.000000000000000000 ) ) ;
#167 = DIRECTION ( 'NONE',  ( 0.000000000000000000, -1.000000000000000000, 0.000000000000000000 ) ) ;
#168 = CARTESIAN_POINT ( 'NONE',  ( 0.000000000000000000, 0.000000000000000000, 5.200000000000009948 ) ) ;
#169 = SECURITY_CLASSIFICATION ( '', '', #90 ) ;
#170 = CARTESIAN_POINT ( 'NONE',  ( 0.000000000000000000, 0.000000000000000000, 5.000000000000000000 ) ) ;
#171 = PLANE ( 'NONE',  #290 ) ;
#172 = CARTESIAN_POINT ( 'NONE',  ( 0.000000000000000000, 0.000000000000000000, 0.000000000000000000 ) ) ;
#173 = EDGE_CURVE ( 'NONE', #112, #65, #120, .T. ) ;
#174 = LINE ( 'NONE', #4, #103 ) ;
#175 = EDGE_CURVE ( 'NONE', #164, #200, #256, .T. ) ;
#176 = DIRECTION ( 'NONE',  ( 0.000000000000000000, 0.000000000000000000, 1.000000000000000000 ) ) ;
#177 = CIRCLE ( 'NONE', #184, 4.500000000000000888 ) ;
#178 = PERSON_AND_ORGANIZATION ( #133, #296 ) ;
#179 = EDGE_CURVE ( 'NONE', #109, #12, #269, .T. ) ;
#180 = PERSON_AND_ORGANIZATION ( #133, #296 ) ;
#181 = ORIENTED_EDGE ( 'NONE', *, *, #179, .T. ) ;
#182 = EDGE_CURVE ( 'NONE', #114, #200, #174, .T. ) ;
#183 = COORDINATED_UNIVERSAL_TIME_OFFSET ( 1, 0, .AHEAD. ) ;
#184 = AXIS2_PLACEMENT_3D ( 'NONE', #57, #32, #129 ) ;
#185 = DATE_AND_TIME ( #249, #233 ) ;
#186 = AXIS2_PLACEMENT_3D ( 'NONE', #281, #71, #229 ) ;
#187 = CIRCLE ( 'NONE', #54, 0.1999999999999996503 ) ;
#188 = CARTESIAN_POINT ( 'NONE',  ( 7.000000000000000000, 8.572527594031473190E-16, 5.000000000000000000 ) ) ;
#189 = AXIS2_PLACEMENT_3D ( 'NONE', #172, #259, #55 ) ;
#190 = DIRECTION ( 'NONE',  ( -1.000000000000000000, 0.000000000000000000, 0.000000000000000000 ) ) ;
#191 = DIRECTION ( 'NONE',  ( 0.000000000000000000, 0.000000000000000000, 1.000000000000000000 ) ) ;
#192 = DIRECTION ( 'NONE',  ( -1.000000000000000000, 0.000000000000000000, 0.000000000000000000 ) ) ;
#193 = PLANE ( 'NONE',  #160 ) ;
#194 = TOROIDAL_SURFACE ( 'NONE', #53, 4.700000000000000178, 0.2000000000000000111 ) ;
#195 = FACE_OUTER_BOUND ( 'NONE', #250, .T. ) ;
#196 = APPLICATION_CONTEXT ( 'configuration controlled 3d designs of mechanical parts and assemblies' ) ;
#197 = CIRCLE ( 'NONE', #186, 0.1999999999999996503 ) ;
#198 = APPROVAL ( #155, 'NEURÈENÝ' ) ;
#199 = CC_DESIGN_APPROVAL ( #198, ( #128 ) ) ;
#200 = VERTEX_POINT ( 'NONE', #105 ) ;
#201 = ORIENTED_EDGE ( 'NONE', *, *, #173, .T. ) ;
#202 = PERSON_AND_ORGANIZATION ( #133, #296 ) ;
#203 = APPROVAL_DATE_TIME ( #225, #89 ) ;
#204 = ORIENTED_EDGE ( 'NONE', *, *, #113, .F. ) ;
#205 = PERSON_AND_ORGANIZATION ( #133, #296 ) ;
#206 = ORIENTED_EDGE ( 'NONE', *, *, #97, .F. ) ;
#207 = PRODUCT_RELATED_PRODUCT_CATEGORY ( 'detail', '', ( #73 ) ) ;
#208 = DIRECTION ( 'NONE',  ( -0.000000000000000000, -0.000000000000000000, -1.000000000000000000 ) ) ;
#209 = DIRECTION ( 'NONE',  ( 1.000000000000000000, 0.000000000000000000, 0.000000000000000000 ) ) ;
#210 = FACE_OUTER_BOUND ( 'NONE', #222, .T. ) ;
#211 = CARTESIAN_POINT ( 'NONE',  ( 0.000000000000000000, 0.000000000000000000, 5.000000000000000000 ) ) ;
#212 = APPLICATION_CONTEXT ( 'configuration controlled 3d designs of mechanical parts and assemblies' ) ;
#213 = DIRECTION ( 'NONE',  ( 1.000000000000000000, 0.000000000000000000, -0.000000000000000000 ) ) ;
#214 = CARTESIAN_POINT ( 'NONE',  ( 4.500000000000000888, 5.510910596163089556E-16, 255.0000000000000000 ) ) ;
#215 = DIRECTION ( 'NONE',  ( -0.000000000000000000, -0.000000000000000000, -1.000000000000000000 ) ) ;
#216 = DIRECTION ( 'NONE',  ( 1.000000000000000000, 0.000000000000000000, 0.000000000000000000 ) ) ;
#217 = LOCAL_TIME ( 11, 43, 22.00000000000000000, #15 ) ;
#218 = FACE_OUTER_BOUND ( 'NONE', #20, .T. ) ;
#219 = DIRECTION ( 'NONE',  ( -0.000000000000000000, -0.000000000000000000, -1.000000000000000000 ) ) ;
#220 = CIRCLE ( 'NONE', #301, 7.000000000000000000 ) ;
#221 = APPROVAL_ROLE ( '' ) ;
#222 = EDGE_LOOP ( 'NONE', ( #16, #224, #43, #11 ) ) ;
#223 = CARTESIAN_POINT ( 'NONE',  ( 0.000000000000000000, 0.000000000000000000, 5.000000000000000000 ) ) ;
#224 = ORIENTED_EDGE ( 'NONE', *, *, #62, .T. ) ;
#225 = DATE_AND_TIME ( #107, #217 ) ;
#226 = ORIENTED_EDGE ( 'NONE', *, *, #76, .F. ) ;
#227 = AXIS2_PLACEMENT_3D ( 'NONE', #283, #215, #262 ) ;
#228 = ORIENTED_EDGE ( 'NONE', *, *, #175, .T. ) ;
#229 = DIRECTION ( 'NONE',  ( -1.000000000000000000, 1.224646799147353454E-16, 0.000000000000000000 ) ) ;
#230 = EDGE_CURVE ( 'NONE', #19, #12, #29, .T. ) ;
#231 = CARTESIAN_POINT ( 'NONE',  ( 0.000000000000000000, 0.000000000000000000, 5.000000000000000000 ) ) ;
#232 = LINE ( 'NONE', #277, #117 ) ;
#233 = LOCAL_TIME ( 11, 43, 22.00000000000000000, #183 ) ;
#234 = CARTESIAN_POINT ( 'NONE',  ( 0.000000000000000000, 0.000000000000000000, 255.0000000000000000 ) ) ;
#235 = FACE_OUTER_BOUND ( 'NONE', #274, .T. ) ;
#236 =( NAMED_UNIT ( * ) SI_UNIT ( $, .STERADIAN. ) SOLID_ANGLE_UNIT ( ) );
#237 = CC_DESIGN_PERSON_AND_ORGANIZATION_ASSIGNMENT ( #292, #270, ( #59 ) ) ;
#238 =( NAMED_UNIT ( * ) PLANE_ANGLE_UNIT ( ) SI_UNIT ( $, .RADIAN. ) );
#239 = AXIS2_PLACEMENT_3D ( 'NONE', #223, #268, #213 ) ;
#240 = DIRECTION ( 'NONE',  ( -1.000000000000000000, 0.000000000000000000, 0.000000000000000000 ) ) ;
#241 = CC_DESIGN_APPROVAL ( #278, ( #59 ) ) ;
#242 = PERSON_AND_ORGANIZATION_ROLE ( 'creator' ) ;
#243 = ORIENTED_EDGE ( 'NONE', *, *, #97, .T. ) ;
#244 = AXIS2_PLACEMENT_3D ( 'NONE', #28, #144, #282 ) ;
#245 = APPLICATION_PROTOCOL_DEFINITION ( 'international standard', 'config_control_design', 1994, #212 ) ;
#246 = EDGE_LOOP ( 'NONE', ( #294, #300 ) ) ;
#247 =( GEOMETRIC_REPRESENTATION_CONTEXT ( 3 ) GLOBAL_UNCERTAINTY_ASSIGNED_CONTEXT ( ( #18 ) ) GLOBAL_UNIT_ASSIGNED_CONTEXT ( ( #261, #238, #236 ) ) REPRESENTATION_CONTEXT ( 'NONE', 'WORKASPACE' ) );
#248 = APPROVAL_DATE_TIME ( #185, #198 ) ;
#249 = CALENDAR_DATE ( 2022, 20, 6 ) ;
#250 = EDGE_LOOP ( 'NONE', ( #158, #94, #228, #50 ) ) ;
#251 = ADVANCED_BREP_SHAPE_REPRESENTATION ( 'aee6', ( #24, #189 ), #247 ) ;
#252 = DIRECTION ( 'NONE',  ( 0.000000000000000000, 0.000000000000000000, 1.000000000000000000 ) ) ;
#253 = CARTESIAN_POINT ( 'NONE',  ( 0.000000000000000000, 0.000000000000000000, 5.000000000000000000 ) ) ;
#254 = DIRECTION ( 'NONE',  ( 1.000000000000000000, 0.000000000000000000, 0.000000000000000000 ) ) ;
#255 = CARTESIAN_POINT ( 'NONE',  ( 7.000000000000000000, 8.572527594031473190E-16, 0.000000000000000000 ) ) ;
#256 = CIRCLE ( 'NONE', #82, 7.000000000000000000 ) ;
#257 = DIRECTION ( 'NONE',  ( -0.000000000000000000, -0.000000000000000000, -1.000000000000000000 ) ) ;
#258 = ADVANCED_FACE ( 'NONE', ( #288 ), #171, .F. ) ;
#259 = DIRECTION ( 'NONE',  ( 0.000000000000000000, 0.000000000000000000, 1.000000000000000000 ) ) ;
#260 = ADVANCED_FACE ( 'NONE', ( #195 ), #56, .T. ) ;
#261 =( LENGTH_UNIT ( ) NAMED_UNIT ( * ) SI_UNIT ( .MILLI., .METRE. ) );
#262 = DIRECTION ( 'NONE',  ( 1.000000000000000000, 0.000000000000000000, 0.000000000000000000 ) ) ;
#263 = DIRECTION ( 'NONE',  ( 1.000000000000000000, 0.000000000000000000, -0.000000000000000000 ) ) ;
#264 = AXIS2_PLACEMENT_3D ( 'NONE', #30, #219, #240 ) ;
#265 = CALENDAR_DATE ( 2022, 20, 6 ) ;
#266 = ORIENTED_EDGE ( 'NONE', *, *, #147, .F. ) ;
#267 = ORIENTED_EDGE ( 'NONE', *, *, #173, .F. ) ;
#268 = DIRECTION ( 'NONE',  ( 0.000000000000000000, 0.000000000000000000, 1.000000000000000000 ) ) ;
#269 = CIRCLE ( 'NONE', #74, 4.500000000000000888 ) ;
#270 = PERSON_AND_ORGANIZATION_ROLE ( 'design_supplier' ) ;
#271 = ORIENTED_EDGE ( 'NONE', *, *, #46, .F. ) ;
#272 = EDGE_CURVE ( 'NONE', #19, #110, #177, .T. ) ;
#273 = PERSON_AND_ORGANIZATION ( #133, #296 ) ;
#274 = EDGE_LOOP ( 'NONE', ( #92, #266, #298, #267 ) ) ;
#275 = FACE_OUTER_BOUND ( 'NONE', #135, .T. ) ;
#276 = CIRCLE ( 'NONE', #150, 4.500000000000000888 ) ;
#277 = CARTESIAN_POINT ( 'NONE',  ( 7.000000000000000000, 8.572527594031473190E-16, 5.000000000000000000 ) ) ;
#278 = APPROVAL ( #63, 'NEURÈENÝ' ) ;
#279 = DIRECTION ( 'NONE',  ( 0.000000000000000000, 0.000000000000000000, 1.000000000000000000 ) ) ;
#280 = AXIS2_PLACEMENT_3D ( 'NONE', #253, #21, #306 ) ;
#281 = CARTESIAN_POINT ( 'NONE',  ( -4.700000000000000178, 5.755839955992559655E-16, 5.200000000000009948 ) ) ;
#282 = DIRECTION ( 'NONE',  ( 1.000000000000000000, 0.000000000000000000, 0.000000000000000000 ) ) ;
#283 = CARTESIAN_POINT ( 'NONE',  ( 0.000000000000000000, 0.000000000000000000, 5.000000000000000000 ) ) ;
#284 = CIRCLE ( 'NONE', #280, 4.700000000000000178 ) ;
#285 = DIRECTION ( 'NONE',  ( 1.000000000000000000, 0.000000000000000000, 0.000000000000000000 ) ) ;
#286 = CIRCLE ( 'NONE', #72, 7.000000000000000000 ) ;
#287 = EDGE_CURVE ( 'NONE', #110, #109, #34, .T. ) ;
#288 = FACE_OUTER_BOUND ( 'NONE', #95, .T. ) ;
#289 = AXIS2_PLACEMENT_3D ( 'NONE', #234, #208, #48 ) ;
#290 = AXIS2_PLACEMENT_3D ( 'NONE', #9, #152, #263 ) ;
#291 = CC_DESIGN_PERSON_AND_ORGANIZATION_ASSIGNMENT ( #88, #38, ( #128 ) ) ;
#292 = PERSON_AND_ORGANIZATION ( #133, #296 ) ;
#293 = DATE_TIME_ROLE ( 'classification_date' ) ;
#294 = ORIENTED_EDGE ( 'NONE', *, *, #76, .T. ) ;
#295 = EDGE_LOOP ( 'NONE', ( #204, #226, #299, #61 ) ) ;
#296 = ORGANIZATION ( 'NEURÈENÝ', 'NEURÈENÝ', '' ) ;
#297 = DATE_AND_TIME ( #265, #130 ) ;
#298 = ORIENTED_EDGE ( 'NONE', *, *, #149, .T. ) ;
#299 = ORIENTED_EDGE ( 'NONE', *, *, #182, .T. ) ;
#300 = ORIENTED_EDGE ( 'NONE', *, *, #142, .T. ) ;
#301 = AXIS2_PLACEMENT_3D ( 'NONE', #211, #119, #209 ) ;
#302 = CARTESIAN_POINT ( 'NONE',  ( 4.500000000000000888, 5.510910596163089556E-16, 5.200000000000009948 ) ) ;
#303 = ORIENTED_EDGE ( 'NONE', *, *, #116, .T. ) ;
#304 = CARTESIAN_POINT ( 'NONE',  ( -4.500000000000000888, 0.000000000000000000, 255.0000000000000000 ) ) ;
#305 = ADVANCED_FACE ( 'NONE', ( #218 ), #193, .T. ) ;
#306 = DIRECTION ( 'NONE',  ( 1.000000000000000000, 0.000000000000000000, 0.000000000000000000 ) ) ;
#307 = CC_DESIGN_PERSON_AND_ORGANIZATION_ASSIGNMENT ( #205, #44, ( #73 ) ) ;
ENDSEC;
END-ISO-10303-21;
