ISO-10303-21;
HEADER;
FILE_DESCRIPTION (( 'STEP AP203' ),
    '1' );
FILE_NAME ('d819.STEP',
    '2022-06-20T09:27:37',
    ( '' ),
    ( '' ),
    'SwSTEP 2.0',
    'SolidWorks 2019',
    '' );
FILE_SCHEMA (( 'CONFIG_CONTROL_DESIGN' ));
ENDSEC;

DATA;
#1 = APPROVAL ( #229, 'NEURÈENÝ' ) ;
#2 = PERSON_AND_ORGANIZATION ( #52, #203 ) ;
#3 =( NAMED_UNIT ( * ) SI_UNIT ( $, .STERADIAN. ) SOLID_ANGLE_UNIT ( ) );
#4 = ADVANCED_FACE ( 'NONE', ( #293 ), #30, .T. ) ;
#5 = LINE ( 'NONE', #68, #287 ) ;
#6 = ORIENTED_EDGE ( 'NONE', *, *, #60, .F. ) ;
#7 =( GEOMETRIC_REPRESENTATION_CONTEXT ( 3 ) GLOBAL_UNCERTAINTY_ASSIGNED_CONTEXT ( ( #298 ) ) GLOBAL_UNIT_ASSIGNED_CONTEXT ( ( #142, #24, #3 ) ) REPRESENTATION_CONTEXT ( 'NONE', 'WORKASPACE' ) );
#8 = ADVANCED_FACE ( 'NONE', ( #50 ), #143, .F. ) ;
#9 = EDGE_LOOP ( 'NONE', ( #102, #56, #197, #292 ) ) ;
#10 = PRODUCT_DEFINITION_SHAPE ( 'NONE', 'NONE',  #44 ) ;
#11 = VERTEX_POINT ( 'NONE', #150 ) ;
#12 = APPROVAL_STATUS ( 'not_yet_approved' ) ;
#13 = ORIENTED_EDGE ( 'NONE', *, *, #279, .T. ) ;
#14 = CARTESIAN_POINT ( 'NONE',  ( 0.000000000000000000, 0.000000000000000000, 7.199999999999984190 ) ) ;
#15 = DIRECTION ( 'NONE',  ( 0.000000000000000000, 0.000000000000000000, 1.000000000000000000 ) ) ;
#16 = APPROVAL_PERSON_ORGANIZATION ( #141, #1, #22 ) ;
#17 = CARTESIAN_POINT ( 'NONE',  ( 0.000000000000000000, 0.000000000000000000, 7.000000000000000000 ) ) ;
#18 = CARTESIAN_POINT ( 'NONE',  ( 0.000000000000000000, 0.000000000000000000, 1006.999999999999886 ) ) ;
#19 = DIRECTION ( 'NONE',  ( -0.000000000000000000, -0.000000000000000000, -1.000000000000000000 ) ) ;
#20 = CARTESIAN_POINT ( 'NONE',  ( 0.000000000000000000, 0.000000000000000000, 0.000000000000000000 ) ) ;
#21 = AXIS2_PLACEMENT_3D ( 'NONE', #183, #263, #144 ) ;
#22 = APPROVAL_ROLE ( '' ) ;
#23 = CIRCLE ( 'NONE', #192, 9.000000000000000000 ) ;
#24 =( NAMED_UNIT ( * ) PLANE_ANGLE_UNIT ( ) SI_UNIT ( $, .RADIAN. ) );
#25 = DIRECTION ( 'NONE',  ( 0.000000000000000000, -1.000000000000000000, 0.000000000000000000 ) ) ;
#26 = DIRECTION ( 'NONE',  ( 0.000000000000000000, 0.000000000000000000, -1.000000000000000000 ) ) ;
#27 = DATE_AND_TIME ( #149, #58 ) ;
#28 = VERTEX_POINT ( 'NONE', #43 ) ;
#29 = CC_DESIGN_DATE_AND_TIME_ASSIGNMENT ( #32, #212, ( #44 ) ) ;
#30 = CYLINDRICAL_SURFACE ( 'NONE', #157, 6.250000000000000000 ) ;
#31 = CC_DESIGN_DATE_AND_TIME_ASSIGNMENT ( #27, #190, ( #258 ) ) ;
#32 = DATE_AND_TIME ( #49, #247 ) ;
#33 = ORIENTED_EDGE ( 'NONE', *, *, #268, .F. ) ;
#34 = ORIENTED_EDGE ( 'NONE', *, *, #230, .F. ) ;
#35 = ORIENTED_EDGE ( 'NONE', *, *, #137, .T. ) ;
#36 = LOCAL_TIME ( 11, 27, 37.00000000000000000, #237 ) ;
#37 = DIRECTION ( 'NONE',  ( -1.000000000000000000, 0.000000000000000000, 0.000000000000000000 ) ) ;
#38 = DIRECTION ( 'NONE',  ( 1.000000000000000000, 0.000000000000000000, 0.000000000000000000 ) ) ;
#39 = CIRCLE ( 'NONE', #261, 6.250000000000000000 ) ;
#40 = ADVANCED_FACE ( 'NONE', ( #299 ), #57, .F. ) ;
#41 = DIRECTION ( 'NONE',  ( -0.000000000000000000, -0.000000000000000000, -1.000000000000000000 ) ) ;
#42 = DIRECTION ( 'NONE',  ( 1.000000000000000000, 0.000000000000000000, 0.000000000000000000 ) ) ;
#43 = CARTESIAN_POINT ( 'NONE',  ( 6.450000000000000178, 0.000000000000000000, 6.999999999999992006 ) ) ;
#44 = PRODUCT_DEFINITION ( 'NEZNÁMÝ', '', #307, #121 ) ;
#45 = FACE_OUTER_BOUND ( 'NONE', #128, .T. ) ;
#46 = AXIS2_PLACEMENT_3D ( 'NONE', #20, #208, #119 ) ;
#47 = CC_DESIGN_PERSON_AND_ORGANIZATION_ASSIGNMENT ( #168, #122, ( #258 ) ) ;
#48 = APPROVAL_PERSON_ORGANIZATION ( #264, #163, #210 ) ;
#49 = CALENDAR_DATE ( 2022, 20, 6 ) ;
#50 = FACE_OUTER_BOUND ( 'NONE', #51, .T. ) ;
#51 = EDGE_LOOP ( 'NONE', ( #33, #77, #105, #196 ) ) ;
#52 = PERSON ( 'NEURÈENÝ', 'NEURÈENÝ', 'NEURÈENÝ', ('NEURÈENÝ'), ('NEURÈENÝ'), ('NEURÈENÝ') ) ;
#53 = VERTEX_POINT ( 'NONE', #113 ) ;
#54 = APPROVAL_DATE_TIME ( #101, #285 ) ;
#55 = EDGE_CURVE ( 'NONE', #152, #123, #39, .T. ) ;
#56 = ORIENTED_EDGE ( 'NONE', *, *, #55, .F. ) ;
#57 = PLANE ( 'NONE',  #170 ) ;
#58 = LOCAL_TIME ( 11, 27, 37.00000000000000000, #289 ) ;
#59 = DIRECTION ( 'NONE',  ( 0.000000000000000000, 0.000000000000000000, 1.000000000000000000 ) ) ;
#60 = EDGE_CURVE ( 'NONE', #11, #211, #216, .T. ) ;
#61 = CARTESIAN_POINT ( 'NONE',  ( 6.250000000000000000, 7.654042494670957606E-16, 1006.999999999999886 ) ) ;
#62 = VECTOR ( 'NONE', #86, 1000.000000000000000 ) ;
#63 = DIRECTION ( 'NONE',  ( 1.000000000000000000, 0.000000000000000000, 0.000000000000000000 ) ) ;
#64 = AXIS2_PLACEMENT_3D ( 'NONE', #14, #59, #38 ) ;
#65 = CC_DESIGN_SECURITY_CLASSIFICATION ( #258, ( #307 ) ) ;
#66 = FACE_OUTER_BOUND ( 'NONE', #9, .T. ) ;
#67 = DIRECTION ( 'NONE',  ( -1.000000000000000000, 1.224646799147353454E-16, 0.000000000000000000 ) ) ;
#68 = CARTESIAN_POINT ( 'NONE',  ( -9.000000000000000000, 0.000000000000000000, 7.000000000000000000 ) ) ;
#69 = ADVANCED_FACE ( 'NONE', ( #66 ), #202, .T. ) ;
#70 = CARTESIAN_POINT ( 'NONE',  ( -9.000000000000000000, 0.000000000000000000, 7.000000000000000000 ) ) ;
#71 = APPLICATION_CONTEXT ( 'configuration controlled 3d designs of mechanical parts and assemblies' ) ;
#72 = AXIS2_PLACEMENT_3D ( 'NONE', #239, #125, #42 ) ;
#73 = DIRECTION ( 'NONE',  ( 1.000000000000000000, 0.000000000000000000, 0.000000000000000000 ) ) ;
#74 = VERTEX_POINT ( 'NONE', #85 ) ;
#75 = APPROVAL_STATUS ( 'not_yet_approved' ) ;
#76 = VERTEX_POINT ( 'NONE', #160 ) ;
#77 = ORIENTED_EDGE ( 'NONE', *, *, #303, .T. ) ;
#78 = AXIS2_PLACEMENT_3D ( 'NONE', #166, #146, #206 ) ;
#79 = PERSON_AND_ORGANIZATION_ROLE ( 'design_supplier' ) ;
#80 = ORIENTED_EDGE ( 'NONE', *, *, #235, .F. ) ;
#81 = ADVANCED_BREP_SHAPE_REPRESENTATION ( 'd819', ( #233, #228 ), #7 ) ;
#82 = ORIENTED_EDGE ( 'NONE', *, *, #274, .T. ) ;
#83 = FACE_OUTER_BOUND ( 'NONE', #297, .T. ) ;
#84 = EDGE_CURVE ( 'NONE', #211, #11, #23, .T. ) ;
#85 = CARTESIAN_POINT ( 'NONE',  ( 6.250000000000000000, 7.654042494670957606E-16, 7.199999999999984190 ) ) ;
#86 = DIRECTION ( 'NONE',  ( -0.000000000000000000, -0.000000000000000000, -1.000000000000000000 ) ) ;
#87 = DIRECTION ( 'NONE',  ( 0.000000000000000000, 0.000000000000000000, 1.000000000000000000 ) ) ;
#88 = CIRCLE ( 'NONE', #78, 6.450000000000000178 ) ;
#89 = TOROIDAL_SURFACE ( 'NONE', #21, 6.450000000000000178, 0.2000000000000000111 ) ;
#90 = FACE_OUTER_BOUND ( 'NONE', #173, .T. ) ;
#91 = PERSON_AND_ORGANIZATION_ROLE ( 'design_owner' ) ;
#92 = CARTESIAN_POINT ( 'NONE',  ( 0.000000000000000000, 0.000000000000000000, 0.000000000000000000 ) ) ;
#93 = EDGE_CURVE ( 'NONE', #152, #53, #198, .T. ) ;
#94 = CARTESIAN_POINT ( 'NONE',  ( 6.450000000000000178, 0.000000000000000000, 7.199999999999984190 ) ) ;
#95 = CLOSED_SHELL ( 'NONE', ( #8, #4, #139, #174, #112, #40, #69, #167, #255 ) ) ;
#96 = AXIS2_PLACEMENT_3D ( 'NONE', #281, #108, #178 ) ;
#97 = EDGE_CURVE ( 'NONE', #123, #152, #231, .T. ) ;
#98 = CARTESIAN_POINT ( 'NONE',  ( 0.000000000000000000, 0.000000000000000000, 0.000000000000000000 ) ) ;
#99 = COORDINATED_UNIVERSAL_TIME_OFFSET ( 1, 0, .AHEAD. ) ;
#100 = ORIENTED_EDGE ( 'NONE', *, *, #274, .F. ) ;
#101 = DATE_AND_TIME ( #188, #36 ) ;
#102 = ORIENTED_EDGE ( 'NONE', *, *, #137, .F. ) ;
#103 = COORDINATED_UNIVERSAL_TIME_OFFSET ( 1, 0, .AHEAD. ) ;
#104 = EDGE_LOOP ( 'NONE', ( #272, #295 ) ) ;
#105 = ORIENTED_EDGE ( 'NONE', *, *, #120, .F. ) ;
#106 = ORIENTED_EDGE ( 'NONE', *, *, #97, .F. ) ;
#107 = CC_DESIGN_PERSON_AND_ORGANIZATION_ASSIGNMENT ( #2, #91, ( #238 ) ) ;
#108 = DIRECTION ( 'NONE',  ( -0.000000000000000000, -0.000000000000000000, -1.000000000000000000 ) ) ;
#109 = DIRECTION ( 'NONE',  ( 1.000000000000000000, 0.000000000000000000, -0.000000000000000000 ) ) ;
#110 = FACE_BOUND ( 'NONE', #104, .T. ) ;
#111 = CARTESIAN_POINT ( 'NONE',  ( 0.000000000000000000, 0.000000000000000000, 1006.999999999999886 ) ) ;
#112 = ADVANCED_FACE ( 'NONE', ( #110, #83 ), #155, .T. ) ;
#113 = CARTESIAN_POINT ( 'NONE',  ( -6.250000000000000000, 0.000000000000000000, 7.199999999999984190 ) ) ;
#114 = APPLICATION_PROTOCOL_DEFINITION ( 'international standard', 'config_control_design', 1994, #118 ) ;
#115 = COORDINATED_UNIVERSAL_TIME_OFFSET ( 1, 0, .AHEAD. ) ;
#116 = DATE_AND_TIME ( #259, #187 ) ;
#117 = DIRECTION ( 'NONE',  ( 1.000000000000000000, 0.000000000000000000, 0.000000000000000000 ) ) ;
#118 = APPLICATION_CONTEXT ( 'configuration controlled 3d designs of mechanical parts and assemblies' ) ;
#119 = DIRECTION ( 'NONE',  ( 1.000000000000000000, 0.000000000000000000, 0.000000000000000000 ) ) ;
#120 = EDGE_CURVE ( 'NONE', #28, #76, #304, .T. ) ;
#121 = DESIGN_CONTEXT ( 'detailed design', #71, 'design' ) ;
#122 = PERSON_AND_ORGANIZATION_ROLE ( 'classification_officer' ) ;
#123 = VERTEX_POINT ( 'NONE', #306 ) ;
#124 = AXIS2_PLACEMENT_3D ( 'NONE', #283, #207, #67 ) ;
#125 = DIRECTION ( 'NONE',  ( 0.000000000000000000, 0.000000000000000000, 1.000000000000000000 ) ) ;
#126 = PERSON_AND_ORGANIZATION_ROLE ( 'creator' ) ;
#127 = CC_DESIGN_PERSON_AND_ORGANIZATION_ASSIGNMENT ( #294, #236, ( #44 ) ) ;
#128 = EDGE_LOOP ( 'NONE', ( #194, #273, #148, #34 ) ) ;
#129 = AXIS2_PLACEMENT_3D ( 'NONE', #301, #176, #200 ) ;
#130 = EDGE_LOOP ( 'NONE', ( #215, #191 ) ) ;
#131 = VERTEX_POINT ( 'NONE', #276 ) ;
#132 = LINE ( 'NONE', #61, #251 ) ;
#133 = FACE_OUTER_BOUND ( 'NONE', #130, .T. ) ;
#134 = CARTESIAN_POINT ( 'NONE',  ( -6.250000000000000000, 0.000000000000000000, 1006.999999999999886 ) ) ;
#135 = APPROVAL_PERSON_ORGANIZATION ( #271, #285, #193 ) ;
#136 = DIRECTION ( 'NONE',  ( -1.000000000000000000, 0.000000000000000000, 0.000000000000000000 ) ) ;
#137 = EDGE_CURVE ( 'NONE', #123, #74, #132, .T. ) ;
#138 = DIRECTION ( 'NONE',  ( 0.000000000000000000, 0.000000000000000000, 1.000000000000000000 ) ) ;
#139 = ADVANCED_FACE ( 'NONE', ( #90 ), #248, .T. ) ;
#140 = CIRCLE ( 'NONE', #240, 6.250000000000000000 ) ;
#141 = PERSON_AND_ORGANIZATION ( #52, #203 ) ;
#142 =( LENGTH_UNIT ( ) NAMED_UNIT ( * ) SI_UNIT ( .MILLI., .METRE. ) );
#143 = TOROIDAL_SURFACE ( 'NONE', #72, 6.450000000000000178, 0.2000000000000000111 ) ;
#144 = DIRECTION ( 'NONE',  ( 1.000000000000000000, 0.000000000000000000, 0.000000000000000000 ) ) ;
#145 = AXIS2_PLACEMENT_3D ( 'NONE', #250, #41, #136 ) ;
#146 = DIRECTION ( 'NONE',  ( -0.000000000000000000, -0.000000000000000000, -1.000000000000000000 ) ) ;
#147 = APPROVAL_DATE_TIME ( #243, #163 ) ;
#148 = ORIENTED_EDGE ( 'NONE', *, *, #209, .T. ) ;
#149 = CALENDAR_DATE ( 2022, 20, 6 ) ;
#150 = CARTESIAN_POINT ( 'NONE',  ( 9.000000000000000000, 1.102182119232617714E-15, 7.000000000000000000 ) ) ;
#151 = CIRCLE ( 'NONE', #282, 9.000000000000000000 ) ;
#152 = VERTEX_POINT ( 'NONE', #156 ) ;
#153 = ORIENTED_EDGE ( 'NONE', *, *, #296, .T. ) ;
#154 = EDGE_LOOP ( 'NONE', ( #80, #175, #153, #13 ) ) ;
#155 = PLANE ( 'NONE',  #129 ) ;
#156 = CARTESIAN_POINT ( 'NONE',  ( -6.250000000000000000, 0.000000000000000000, 1006.999999999999886 ) ) ;
#157 = AXIS2_PLACEMENT_3D ( 'NONE', #217, #290, #265 ) ;
#158 = CYLINDRICAL_SURFACE ( 'NONE', #145, 9.000000000000000000 ) ;
#159 = EDGE_CURVE ( 'NONE', #74, #53, #161, .T. ) ;
#160 = CARTESIAN_POINT ( 'NONE',  ( -6.450000000000000178, 7.898971854500428692E-16, 6.999999999999992006 ) ) ;
#161 = CIRCLE ( 'NONE', #64, 6.250000000000000000 ) ;
#162 = DIRECTION ( 'NONE',  ( -0.000000000000000000, -0.000000000000000000, -1.000000000000000000 ) ) ;
#163 = APPROVAL ( #75, 'NEURÈENÝ' ) ;
#164 = CIRCLE ( 'NONE', #124, 0.1999999999999996503 ) ;
#165 = DIRECTION ( 'NONE',  ( 0.000000000000000000, 0.000000000000000000, 1.000000000000000000 ) ) ;
#166 = CARTESIAN_POINT ( 'NONE',  ( 0.000000000000000000, 0.000000000000000000, 7.000000000000000000 ) ) ;
#167 = ADVANCED_FACE ( 'NONE', ( #133 ), #225, .T. ) ;
#168 = PERSON_AND_ORGANIZATION ( #52, #203 ) ;
#169 = ORIENTED_EDGE ( 'NONE', *, *, #235, .T. ) ;
#170 = AXIS2_PLACEMENT_3D ( 'NONE', #223, #87, #201 ) ;
#171 = VERTEX_POINT ( 'NONE', #278 ) ;
#172 = PERSON_AND_ORGANIZATION ( #52, #203 ) ;
#173 = EDGE_LOOP ( 'NONE', ( #6, #169, #82, #246 ) ) ;
#174 = ADVANCED_FACE ( 'NONE', ( #199 ), #158, .T. ) ;
#175 = ORIENTED_EDGE ( 'NONE', *, *, #84, .F. ) ;
#176 = DIRECTION ( 'NONE',  ( 0.000000000000000000, 0.000000000000000000, 1.000000000000000000 ) ) ;
#177 = CIRCLE ( 'NONE', #46, 9.000000000000000000 ) ;
#178 = DIRECTION ( 'NONE',  ( 1.000000000000000000, 0.000000000000000000, 0.000000000000000000 ) ) ;
#179 = AXIS2_PLACEMENT_3D ( 'NONE', #111, #305, #275 ) ;
#180 = DIRECTION ( 'NONE',  ( -0.000000000000000000, -0.000000000000000000, -1.000000000000000000 ) ) ;
#181 = CARTESIAN_POINT ( 'NONE',  ( 0.000000000000000000, 0.000000000000000000, 1006.999999999999886 ) ) ;
#182 = DIRECTION ( 'NONE',  ( 0.000000000000000000, 0.000000000000000000, 1.000000000000000000 ) ) ;
#183 = CARTESIAN_POINT ( 'NONE',  ( 0.000000000000000000, 0.000000000000000000, 7.199999999999984190 ) ) ;
#184 = MECHANICAL_CONTEXT ( 'NONE', #118, 'mechanical' ) ;
#185 = CARTESIAN_POINT ( 'NONE',  ( 0.000000000000000000, 0.000000000000000000, 7.199999999999984190 ) ) ;
#186 = DIRECTION ( 'NONE',  ( 0.000000000000000000, 0.000000000000000000, 1.000000000000000000 ) ) ;
#187 = LOCAL_TIME ( 11, 27, 37.00000000000000000, #115 ) ;
#188 = CALENDAR_DATE ( 2022, 20, 6 ) ;
#189 = ORIENTED_EDGE ( 'NONE', *, *, #279, .F. ) ;
#190 = DATE_TIME_ROLE ( 'classification_date' ) ;
#191 = ORIENTED_EDGE ( 'NONE', *, *, #97, .T. ) ;
#192 = AXIS2_PLACEMENT_3D ( 'NONE', #252, #226, #302 ) ;
#193 = APPROVAL_ROLE ( '' ) ;
#194 = ORIENTED_EDGE ( 'NONE', *, *, #303, .F. ) ;
#195 = AXIS2_PLACEMENT_3D ( 'NONE', #249, #180, #37 ) ;
#196 = ORIENTED_EDGE ( 'NONE', *, *, #209, .F. ) ;
#197 = ORIENTED_EDGE ( 'NONE', *, *, #93, .T. ) ;
#198 = LINE ( 'NONE', #134, #62 ) ;
#199 = FACE_OUTER_BOUND ( 'NONE', #154, .T. ) ;
#200 = DIRECTION ( 'NONE',  ( 1.000000000000000000, 0.000000000000000000, -0.000000000000000000 ) ) ;
#201 = DIRECTION ( 'NONE',  ( 1.000000000000000000, 0.000000000000000000, -0.000000000000000000 ) ) ;
#202 = CYLINDRICAL_SURFACE ( 'NONE', #277, 6.250000000000000000 ) ;
#203 = ORGANIZATION ( 'NEURÈENÝ', 'NEURÈENÝ', '' ) ;
#204 = DIRECTION ( 'NONE',  ( -0.000000000000000000, -0.000000000000000000, -1.000000000000000000 ) ) ;
#205 = AXIS2_PLACEMENT_3D ( 'NONE', #17, #182, #63 ) ;
#206 = DIRECTION ( 'NONE',  ( 1.000000000000000000, 0.000000000000000000, 0.000000000000000000 ) ) ;
#207 = DIRECTION ( 'NONE',  ( 1.224646799147353207E-16, 1.000000000000000000, -0.000000000000000000 ) ) ;
#208 = DIRECTION ( 'NONE',  ( 0.000000000000000000, 0.000000000000000000, 1.000000000000000000 ) ) ;
#209 = EDGE_CURVE ( 'NONE', #74, #28, #280, .T. ) ;
#210 = APPROVAL_ROLE ( '' ) ;
#211 = VERTEX_POINT ( 'NONE', #70 ) ;
#212 = DATE_TIME_ROLE ( 'creation_date' ) ;
#213 = EDGE_LOOP ( 'NONE', ( #106, #35, #242, #219 ) ) ;
#214 = CALENDAR_DATE ( 2022, 20, 6 ) ;
#215 = ORIENTED_EDGE ( 'NONE', *, *, #55, .T. ) ;
#216 = CIRCLE ( 'NONE', #205, 9.000000000000000000 ) ;
#217 = CARTESIAN_POINT ( 'NONE',  ( 0.000000000000000000, 0.000000000000000000, 1006.999999999999886 ) ) ;
#218 = AXIS2_PLACEMENT_3D ( 'NONE', #94, #25, #26 ) ;
#219 = ORIENTED_EDGE ( 'NONE', *, *, #93, .F. ) ;
#220 = DIRECTION ( 'NONE',  ( 1.000000000000000000, 0.000000000000000000, 0.000000000000000000 ) ) ;
#221 = CC_DESIGN_PERSON_AND_ORGANIZATION_ASSIGNMENT ( #269, #126, ( #307 ) ) ;
#222 = CARTESIAN_POINT ( 'NONE',  ( 0.000000000000000000, 0.000000000000000000, 1006.999999999999886 ) ) ;
#223 = CARTESIAN_POINT ( 'NONE',  ( 0.000000000000000000, 0.000000000000000000, 0.000000000000000000 ) ) ;
#224 = CC_DESIGN_APPROVAL ( #163, ( #258 ) ) ;
#225 = PLANE ( 'NONE',  #232 ) ;
#226 = DIRECTION ( 'NONE',  ( 0.000000000000000000, 0.000000000000000000, 1.000000000000000000 ) ) ;
#227 = DIRECTION ( 'NONE',  ( 1.000000000000000000, 0.000000000000000000, 0.000000000000000000 ) ) ;
#228 = AXIS2_PLACEMENT_3D ( 'NONE', #92, #165, #227 ) ;
#229 = APPROVAL_STATUS ( 'not_yet_approved' ) ;
#230 = EDGE_CURVE ( 'NONE', #76, #28, #88, .T. ) ;
#231 = CIRCLE ( 'NONE', #179, 6.250000000000000000 ) ;
#232 = AXIS2_PLACEMENT_3D ( 'NONE', #222, #15, #109 ) ;
#233 = MANIFOLD_SOLID_BREP ( 'Zaoblit1', #95 ) ;
#234 = DIRECTION ( 'NONE',  ( -0.000000000000000000, -0.000000000000000000, -1.000000000000000000 ) ) ;
#235 = EDGE_CURVE ( 'NONE', #11, #131, #262, .T. ) ;
#236 = PERSON_AND_ORGANIZATION_ROLE ( 'creator' ) ;
#237 = COORDINATED_UNIVERSAL_TIME_OFFSET ( 1, 0, .AHEAD. ) ;
#238 = PRODUCT ( 'd819', 'd819', '', ( #184 ) ) ;
#239 = CARTESIAN_POINT ( 'NONE',  ( 0.000000000000000000, 0.000000000000000000, 7.199999999999984190 ) ) ;
#240 = AXIS2_PLACEMENT_3D ( 'NONE', #185, #186, #117 ) ;
#241 = CC_DESIGN_APPROVAL ( #1, ( #44 ) ) ;
#242 = ORIENTED_EDGE ( 'NONE', *, *, #159, .T. ) ;
#243 = DATE_AND_TIME ( #214, #267 ) ;
#244 = ORIENTED_EDGE ( 'NONE', *, *, #60, .T. ) ;
#245 = SHAPE_DEFINITION_REPRESENTATION ( #10, #81 ) ;
#246 = ORIENTED_EDGE ( 'NONE', *, *, #296, .F. ) ;
#247 = LOCAL_TIME ( 11, 27, 37.00000000000000000, #103 ) ;
#248 = CYLINDRICAL_SURFACE ( 'NONE', #195, 9.000000000000000000 ) ;
#249 = CARTESIAN_POINT ( 'NONE',  ( 0.000000000000000000, 0.000000000000000000, 7.000000000000000000 ) ) ;
#250 = CARTESIAN_POINT ( 'NONE',  ( 0.000000000000000000, 0.000000000000000000, 7.000000000000000000 ) ) ;
#251 = VECTOR ( 'NONE', #19, 1000.000000000000000 ) ;
#252 = CARTESIAN_POINT ( 'NONE',  ( 0.000000000000000000, 0.000000000000000000, 7.000000000000000000 ) ) ;
#253 = CC_DESIGN_APPROVAL ( #285, ( #307 ) ) ;
#254 = DIRECTION ( 'NONE',  ( -1.000000000000000000, 0.000000000000000000, 0.000000000000000000 ) ) ;
#255 = ADVANCED_FACE ( 'NONE', ( #45 ), #89, .F. ) ;
#256 = PRODUCT_RELATED_PRODUCT_CATEGORY ( 'detail', '', ( #238 ) ) ;
#257 = APPLICATION_PROTOCOL_DEFINITION ( 'international standard', 'config_control_design', 1994, #71 ) ;
#258 = SECURITY_CLASSIFICATION ( '', '', #291 ) ;
#259 = CALENDAR_DATE ( 2022, 20, 6 ) ;
#260 = CC_DESIGN_PERSON_AND_ORGANIZATION_ASSIGNMENT ( #172, #79, ( #307 ) ) ;
#261 = AXIS2_PLACEMENT_3D ( 'NONE', #181, #138, #220 ) ;
#262 = LINE ( 'NONE', #286, #300 ) ;
#263 = DIRECTION ( 'NONE',  ( 0.000000000000000000, 0.000000000000000000, 1.000000000000000000 ) ) ;
#264 = PERSON_AND_ORGANIZATION ( #52, #203 ) ;
#265 = DIRECTION ( 'NONE',  ( -1.000000000000000000, 0.000000000000000000, 0.000000000000000000 ) ) ;
#266 = EDGE_LOOP ( 'NONE', ( #189, #100 ) ) ;
#267 = LOCAL_TIME ( 11, 27, 37.00000000000000000, #99 ) ;
#268 = EDGE_CURVE ( 'NONE', #53, #74, #140, .T. ) ;
#269 = PERSON_AND_ORGANIZATION ( #52, #203 ) ;
#270 = ORIENTED_EDGE ( 'NONE', *, *, #84, .T. ) ;
#271 = PERSON_AND_ORGANIZATION ( #52, #203 ) ;
#272 = ORIENTED_EDGE ( 'NONE', *, *, #120, .T. ) ;
#273 = ORIENTED_EDGE ( 'NONE', *, *, #159, .F. ) ;
#274 = EDGE_CURVE ( 'NONE', #131, #171, #151, .T. ) ;
#275 = DIRECTION ( 'NONE',  ( 1.000000000000000000, 0.000000000000000000, 0.000000000000000000 ) ) ;
#276 = CARTESIAN_POINT ( 'NONE',  ( 9.000000000000000000, 1.102182119232617714E-15, 0.000000000000000000 ) ) ;
#277 = AXIS2_PLACEMENT_3D ( 'NONE', #18, #162, #254 ) ;
#278 = CARTESIAN_POINT ( 'NONE',  ( -9.000000000000000000, 0.000000000000000000, 0.000000000000000000 ) ) ;
#279 = EDGE_CURVE ( 'NONE', #171, #131, #177, .T. ) ;
#280 = CIRCLE ( 'NONE', #218, 0.1999999999999996503 ) ;
#281 = CARTESIAN_POINT ( 'NONE',  ( 0.000000000000000000, 0.000000000000000000, 7.000000000000000000 ) ) ;
#282 = AXIS2_PLACEMENT_3D ( 'NONE', #98, #284, #73 ) ;
#283 = CARTESIAN_POINT ( 'NONE',  ( -6.450000000000000178, 7.898971854500428692E-16, 7.199999999999984190 ) ) ;
#284 = DIRECTION ( 'NONE',  ( 0.000000000000000000, 0.000000000000000000, 1.000000000000000000 ) ) ;
#285 = APPROVAL ( #12, 'NEURÈENÝ' ) ;
#286 = CARTESIAN_POINT ( 'NONE',  ( 9.000000000000000000, 1.102182119232617714E-15, 7.000000000000000000 ) ) ;
#287 = VECTOR ( 'NONE', #204, 1000.000000000000000 ) ;
#288 = APPROVAL_DATE_TIME ( #116, #1 ) ;
#289 = COORDINATED_UNIVERSAL_TIME_OFFSET ( 1, 0, .AHEAD. ) ;
#290 = DIRECTION ( 'NONE',  ( -0.000000000000000000, -0.000000000000000000, -1.000000000000000000 ) ) ;
#291 = SECURITY_CLASSIFICATION_LEVEL ( 'unclassified' ) ;
#292 = ORIENTED_EDGE ( 'NONE', *, *, #268, .T. ) ;
#293 = FACE_OUTER_BOUND ( 'NONE', #213, .T. ) ;
#294 = PERSON_AND_ORGANIZATION ( #52, #203 ) ;
#295 = ORIENTED_EDGE ( 'NONE', *, *, #230, .T. ) ;
#296 = EDGE_CURVE ( 'NONE', #211, #171, #5, .T. ) ;
#297 = EDGE_LOOP ( 'NONE', ( #270, #244 ) ) ;
#298 = UNCERTAINTY_MEASURE_WITH_UNIT (LENGTH_MEASURE( 1.000000000000000082E-05 ), #142, 'distance_accuracy_value', 'NONE');
#299 = FACE_OUTER_BOUND ( 'NONE', #266, .T. ) ;
#300 = VECTOR ( 'NONE', #234, 1000.000000000000000 ) ;
#301 = CARTESIAN_POINT ( 'NONE',  ( 0.000000000000000000, 0.000000000000000000, 7.000000000000000000 ) ) ;
#302 = DIRECTION ( 'NONE',  ( 1.000000000000000000, 0.000000000000000000, 0.000000000000000000 ) ) ;
#303 = EDGE_CURVE ( 'NONE', #53, #76, #164, .T. ) ;
#304 = CIRCLE ( 'NONE', #96, 6.450000000000000178 ) ;
#305 = DIRECTION ( 'NONE',  ( 0.000000000000000000, 0.000000000000000000, 1.000000000000000000 ) ) ;
#306 = CARTESIAN_POINT ( 'NONE',  ( 6.250000000000000000, 7.654042494670957606E-16, 1006.999999999999886 ) ) ;
#307 = PRODUCT_DEFINITION_FORMATION_WITH_SPECIFIED_SOURCE ( 'LIBOVOLNÝ', '', #238, .NOT_KNOWN. ) ;
ENDSEC;
END-ISO-10303-21;
