ISO-10303-21;
HEADER;
FILE_DESCRIPTION (( 'STEP AP203' ),
    '1' );
FILE_NAME ('f100.STEP',
    '2022-06-20T10:10:03',
    ( '' ),
    ( '' ),
    'SwSTEP 2.0',
    'SolidWorks 2019',
    '' );
FILE_SCHEMA (( 'CONFIG_CONTROL_DESIGN' ));
ENDSEC;

DATA;
#1 = CARTESIAN_POINT ( 'NONE',  ( 4.000000000000000000, 4.898587196589412829E-16, 3.000000000000000000 ) ) ;
#2 = DIRECTION ( 'NONE',  ( 1.000000000000000000, 0.000000000000000000, 0.000000000000000000 ) ) ;
#3 = DATE_AND_TIME ( #238, #120 ) ;
#4 = CIRCLE ( 'NONE', #12, 4.000000000000000000 ) ;
#5 = AXIS2_PLACEMENT_3D ( 'NONE', #279, #111, #185 ) ;
#6 = COORDINATED_UNIVERSAL_TIME_OFFSET ( 1, 0, .AHEAD. ) ;
#7 = CC_DESIGN_DATE_AND_TIME_ASSIGNMENT ( #165, #170, ( #236 ) ) ;
#8 = APPROVAL_DATE_TIME ( #3, #116 ) ;
#9 = APPLICATION_CONTEXT ( 'configuration controlled 3d designs of mechanical parts and assemblies' ) ;
#10 = MANIFOLD_SOLID_BREP ( 'Zaoblit1', #183 ) ;
#11 = CC_DESIGN_DATE_AND_TIME_ASSIGNMENT ( #123, #216, ( #71 ) ) ;
#12 = AXIS2_PLACEMENT_3D ( 'NONE', #225, #298, #127 ) ;
#13 = AXIS2_PLACEMENT_3D ( 'NONE', #206, #187, #160 ) ;
#14 = AXIS2_PLACEMENT_3D ( 'NONE', #109, #177, #41 ) ;
#15 = CARTESIAN_POINT ( 'NONE',  ( 0.000000000000000000, 0.000000000000000000, 3.000000000000000000 ) ) ;
#16 = CARTESIAN_POINT ( 'NONE',  ( 2.200000000000000178, 0.000000000000000000, 3.199999999999994404 ) ) ;
#17 = DIRECTION ( 'NONE',  ( 1.000000000000000000, 0.000000000000000000, -0.000000000000000000 ) ) ;
#18 = ORIENTED_EDGE ( 'NONE', *, *, #284, .T. ) ;
#19 = DIRECTION ( 'NONE',  ( -0.000000000000000000, -0.000000000000000000, -1.000000000000000000 ) ) ;
#20 = VERTEX_POINT ( 'NONE', #244 ) ;
#21 = CARTESIAN_POINT ( 'NONE',  ( 0.000000000000000000, 0.000000000000000000, 0.000000000000000000 ) ) ;
#22 = EDGE_LOOP ( 'NONE', ( #299, #18, #87, #40 ) ) ;
#23 = VERTEX_POINT ( 'NONE', #147 ) ;
#24 = EDGE_CURVE ( 'NONE', #152, #23, #34, .T. ) ;
#25 = DIRECTION ( 'NONE',  ( 0.000000000000000000, 0.000000000000000000, 1.000000000000000000 ) ) ;
#26 = DESIGN_CONTEXT ( 'detailed design', #215, 'design' ) ;
#27 = DIRECTION ( 'NONE',  ( -0.000000000000000000, -0.000000000000000000, -1.000000000000000000 ) ) ;
#28 = CARTESIAN_POINT ( 'NONE',  ( -4.000000000000000000, 0.000000000000000000, 3.000000000000000000 ) ) ;
#29 = AXIS2_PLACEMENT_3D ( 'NONE', #255, #158, #162 ) ;
#30 = APPROVAL_DATE_TIME ( #240, #102 ) ;
#31 = ADVANCED_FACE ( 'NONE', ( #201 ), #135, .T. ) ;
#32 = ADVANCED_FACE ( 'NONE', ( #294 ), #300, .T. ) ;
#33 = CARTESIAN_POINT ( 'NONE',  ( -4.000000000000000000, 0.000000000000000000, 3.000000000000000000 ) ) ;
#34 = CIRCLE ( 'NONE', #303, 2.200000000000000178 ) ;
#35 = DIRECTION ( 'NONE',  ( -0.000000000000000000, -0.000000000000000000, -1.000000000000000000 ) ) ;
#36 = CARTESIAN_POINT ( 'NONE',  ( 0.000000000000000000, 0.000000000000000000, 128.0000000000000000 ) ) ;
#37 = ORIENTED_EDGE ( 'NONE', *, *, #38, .T. ) ;
#38 = EDGE_CURVE ( 'NONE', #20, #23, #269, .T. ) ;
#39 = CARTESIAN_POINT ( 'NONE',  ( 0.000000000000000000, 0.000000000000000000, 3.000000000000000000 ) ) ;
#40 = ORIENTED_EDGE ( 'NONE', *, *, #200, .F. ) ;
#41 = DIRECTION ( 'NONE',  ( -1.000000000000000000, 0.000000000000000000, 0.000000000000000000 ) ) ;
#42 = VERTEX_POINT ( 'NONE', #272 ) ;
#43 = CC_DESIGN_PERSON_AND_ORGANIZATION_ASSIGNMENT ( #50, #285, ( #150 ) ) ;
#44 = ORIENTED_EDGE ( 'NONE', *, *, #307, .T. ) ;
#45 = DIRECTION ( 'NONE',  ( -0.000000000000000000, -0.000000000000000000, -1.000000000000000000 ) ) ;
#46 = CARTESIAN_POINT ( 'NONE',  ( -2.000000000000000000, 0.000000000000000000, 128.0000000000000000 ) ) ;
#47 = CC_DESIGN_APPROVAL ( #186, ( #71 ) ) ;
#48 = DIRECTION ( 'NONE',  ( 0.000000000000000000, 0.000000000000000000, 1.000000000000000000 ) ) ;
#49 = CARTESIAN_POINT ( 'NONE',  ( 0.000000000000000000, 0.000000000000000000, 0.000000000000000000 ) ) ;
#50 = PERSON_AND_ORGANIZATION ( #292, #114 ) ;
#51 = TOROIDAL_SURFACE ( 'NONE', #124, 2.200000000000000178, 0.2000000000000000111 ) ;
#52 = APPROVAL_PERSON_ORGANIZATION ( #214, #116, #96 ) ;
#53 = AXIS2_PLACEMENT_3D ( 'NONE', #15, #267, #17 ) ;
#54 = COORDINATED_UNIVERSAL_TIME_OFFSET ( 1, 0, .AHEAD. ) ;
#55 = ADVANCED_FACE ( 'NONE', ( #133, #276 ), #242, .T. ) ;
#56 = APPROVAL_ROLE ( '' ) ;
#57 = DIRECTION ( 'NONE',  ( -1.000000000000000000, 0.000000000000000000, 0.000000000000000000 ) ) ;
#58 = AXIS2_PLACEMENT_3D ( 'NONE', #138, #89, #91 ) ;
#59 = FACE_OUTER_BOUND ( 'NONE', #204, .T. ) ;
#60 = PRODUCT_RELATED_PRODUCT_CATEGORY ( 'detail', '', ( #289 ) ) ;
#61 = ORIENTED_EDGE ( 'NONE', *, *, #296, .F. ) ;
#62 = DIRECTION ( 'NONE',  ( 1.000000000000000000, 0.000000000000000000, 0.000000000000000000 ) ) ;
#63 = DIRECTION ( 'NONE',  ( -0.000000000000000000, -0.000000000000000000, -1.000000000000000000 ) ) ;
#64 = ORIENTED_EDGE ( 'NONE', *, *, #38, .F. ) ;
#65 = VECTOR ( 'NONE', #302, 1000.000000000000000 ) ;
#66 = LINE ( 'NONE', #28, #65 ) ;
#67 = VERTEX_POINT ( 'NONE', #107 ) ;
#68 = CARTESIAN_POINT ( 'NONE',  ( 2.000000000000000000, 2.449293598294706414E-16, 128.0000000000000000 ) ) ;
#69 =( NAMED_UNIT ( * ) SI_UNIT ( $, .STERADIAN. ) SOLID_ANGLE_UNIT ( ) );
#70 = UNCERTAINTY_MEASURE_WITH_UNIT (LENGTH_MEASURE( 1.000000000000000082E-05 ), #256, 'distance_accuracy_value', 'NONE');
#71 = PRODUCT_DEFINITION ( 'NEZNÁMÝ', '', #150, #26 ) ;
#72 = CARTESIAN_POINT ( 'NONE',  ( 0.000000000000000000, 0.000000000000000000, 3.199999999999994404 ) ) ;
#73 = APPROVAL_STATUS ( 'not_yet_approved' ) ;
#74 = AXIS2_PLACEMENT_3D ( 'NONE', #79, #222, #173 ) ;
#75 = AXIS2_PLACEMENT_3D ( 'NONE', #258, #262, #2 ) ;
#76 = PERSON_AND_ORGANIZATION ( #292, #114 ) ;
#77 = PERSON_AND_ORGANIZATION_ROLE ( 'creator' ) ;
#78 = DIRECTION ( 'NONE',  ( -0.000000000000000000, -0.000000000000000000, -1.000000000000000000 ) ) ;
#79 = CARTESIAN_POINT ( 'NONE',  ( -2.200000000000000178, 2.694222958124177006E-16, 3.199999999999994404 ) ) ;
#80 = TOROIDAL_SURFACE ( 'NONE', #257, 2.200000000000000178, 0.2000000000000000111 ) ;
#81 = EDGE_LOOP ( 'NONE', ( #253, #37, #301, #136 ) ) ;
#82 = ORIENTED_EDGE ( 'NONE', *, *, #161, .T. ) ;
#83 = ORIENTED_EDGE ( 'NONE', *, *, #268, .T. ) ;
#84 = DIRECTION ( 'NONE',  ( 0.000000000000000000, -1.000000000000000000, 0.000000000000000000 ) ) ;
#85 = ORIENTED_EDGE ( 'NONE', *, *, #250, .F. ) ;
#86 = CYLINDRICAL_SURFACE ( 'NONE', #94, 4.000000000000000000 ) ;
#87 = ORIENTED_EDGE ( 'NONE', *, *, #192, .T. ) ;
#88 = FACE_OUTER_BOUND ( 'NONE', #81, .T. ) ;
#89 = DIRECTION ( 'NONE',  ( 0.000000000000000000, 0.000000000000000000, 1.000000000000000000 ) ) ;
#90 = FACE_OUTER_BOUND ( 'NONE', #297, .T. ) ;
#91 = DIRECTION ( 'NONE',  ( 1.000000000000000000, 0.000000000000000000, 0.000000000000000000 ) ) ;
#92 = PERSON_AND_ORGANIZATION ( #292, #114 ) ;
#93 = PERSON_AND_ORGANIZATION ( #292, #114 ) ;
#94 = AXIS2_PLACEMENT_3D ( 'NONE', #203, #224, #104 ) ;
#95 = CC_DESIGN_APPROVAL ( #102, ( #236 ) ) ;
#96 = APPROVAL_ROLE ( '' ) ;
#97 = EDGE_CURVE ( 'NONE', #172, #152, #189, .T. ) ;
#98 = MECHANICAL_CONTEXT ( 'NONE', #9, 'mechanical' ) ;
#99 = EDGE_LOOP ( 'NONE', ( #275, #226 ) ) ;
#100 = PERSON_AND_ORGANIZATION ( #292, #114 ) ;
#101 = APPROVAL_PERSON_ORGANIZATION ( #100, #102, #266 ) ;
#102 = APPROVAL ( #190, 'NEURÈENÝ' ) ;
#103 = DIRECTION ( 'NONE',  ( 0.000000000000000000, 0.000000000000000000, -1.000000000000000000 ) ) ;
#104 = DIRECTION ( 'NONE',  ( -1.000000000000000000, 0.000000000000000000, 0.000000000000000000 ) ) ;
#105 = ORIENTED_EDGE ( 'NONE', *, *, #268, .F. ) ;
#106 =( GEOMETRIC_REPRESENTATION_CONTEXT ( 3 ) GLOBAL_UNCERTAINTY_ASSIGNED_CONTEXT ( ( #70 ) ) GLOBAL_UNIT_ASSIGNED_CONTEXT ( ( #256, #254, #69 ) ) REPRESENTATION_CONTEXT ( 'NONE', 'WORKASPACE' ) );
#107 = CARTESIAN_POINT ( 'NONE',  ( 4.000000000000000000, 4.898587196589412829E-16, 3.000000000000000000 ) ) ;
#108 = ORIENTED_EDGE ( 'NONE', *, *, #223, .F. ) ;
#109 = CARTESIAN_POINT ( 'NONE',  ( 0.000000000000000000, 0.000000000000000000, 128.0000000000000000 ) ) ;
#110 = ORIENTED_EDGE ( 'NONE', *, *, #97, .T. ) ;
#111 = DIRECTION ( 'NONE',  ( 0.000000000000000000, 0.000000000000000000, 1.000000000000000000 ) ) ;
#112 = VERTEX_POINT ( 'NONE', #33 ) ;
#113 = AXIS2_PLACEMENT_3D ( 'NONE', #251, #180, #293 ) ;
#114 = ORGANIZATION ( 'NEURÈENÝ', 'NEURÈENÝ', '' ) ;
#115 = DIRECTION ( 'NONE',  ( -0.000000000000000000, -0.000000000000000000, -1.000000000000000000 ) ) ;
#116 = APPROVAL ( #73, 'NEURÈENÝ' ) ;
#117 = APPLICATION_PROTOCOL_DEFINITION ( 'international standard', 'config_control_design', 1994, #9 ) ;
#118 = CARTESIAN_POINT ( 'NONE',  ( 0.000000000000000000, 0.000000000000000000, 3.000000000000000000 ) ) ;
#119 = FACE_OUTER_BOUND ( 'NONE', #157, .T. ) ;
#120 = LOCAL_TIME ( 12, 10, 3.000000000000000000, #169 ) ;
#121 = APPROVAL_STATUS ( 'not_yet_approved' ) ;
#122 = SHAPE_DEFINITION_REPRESENTATION ( #263, #126 ) ;
#123 = DATE_AND_TIME ( #241, #252 ) ;
#124 = AXIS2_PLACEMENT_3D ( 'NONE', #153, #198, #248 ) ;
#125 = EDGE_CURVE ( 'NONE', #67, #112, #4, .T. ) ;
#126 = ADVANCED_BREP_SHAPE_REPRESENTATION ( 'f100', ( #10, #75 ), #106 ) ;
#127 = DIRECTION ( 'NONE',  ( 1.000000000000000000, 0.000000000000000000, 0.000000000000000000 ) ) ;
#128 = AXIS2_PLACEMENT_3D ( 'NONE', #36, #63, #57 ) ;
#129 = ADVANCED_FACE ( 'NONE', ( #178 ), #51, .F. ) ;
#130 = ORIENTED_EDGE ( 'NONE', *, *, #144, .F. ) ;
#131 = DIRECTION ( 'NONE',  ( -1.000000000000000000, 0.000000000000000000, 0.000000000000000000 ) ) ;
#132 = ORIENTED_EDGE ( 'NONE', *, *, #304, .F. ) ;
#133 = FACE_BOUND ( 'NONE', #99, .T. ) ;
#134 = VERTEX_POINT ( 'NONE', #151 ) ;
#135 = CYLINDRICAL_SURFACE ( 'NONE', #166, 4.000000000000000000 ) ;
#136 = ORIENTED_EDGE ( 'NONE', *, *, #97, .F. ) ;
#137 = ORIENTED_EDGE ( 'NONE', *, *, #192, .F. ) ;
#138 = CARTESIAN_POINT ( 'NONE',  ( 0.000000000000000000, 0.000000000000000000, 128.0000000000000000 ) ) ;
#139 = CIRCLE ( 'NONE', #277, 4.000000000000000000 ) ;
#140 = DIRECTION ( 'NONE',  ( 0.000000000000000000, 0.000000000000000000, 1.000000000000000000 ) ) ;
#141 = PERSON_AND_ORGANIZATION ( #292, #114 ) ;
#142 = CIRCLE ( 'NONE', #58, 2.000000000000000000 ) ;
#143 = APPROVAL_DATE_TIME ( #287, #186 ) ;
#144 = EDGE_CURVE ( 'NONE', #23, #152, #167, .T. ) ;
#145 = SECURITY_CLASSIFICATION_LEVEL ( 'unclassified' ) ;
#146 = CIRCLE ( 'NONE', #156, 4.000000000000000000 ) ;
#147 = CARTESIAN_POINT ( 'NONE',  ( -2.200000000000000178, 2.694222958124177006E-16, 2.999999999999997335 ) ) ;
#148 = ADVANCED_FACE ( 'NONE', ( #199 ), #197, .T. ) ;
#149 = EDGE_LOOP ( 'NONE', ( #83, #182 ) ) ;
#150 = PRODUCT_DEFINITION_FORMATION_WITH_SPECIFIED_SOURCE ( 'LIBOVOLNÝ', '', #289, .NOT_KNOWN. ) ;
#151 = CARTESIAN_POINT ( 'NONE',  ( 4.000000000000000000, 4.898587196589412829E-16, 0.000000000000000000 ) ) ;
#152 = VERTEX_POINT ( 'NONE', #155 ) ;
#153 = CARTESIAN_POINT ( 'NONE',  ( 0.000000000000000000, 0.000000000000000000, 3.199999999999994404 ) ) ;
#154 = ORIENTED_EDGE ( 'NONE', *, *, #304, .T. ) ;
#155 = CARTESIAN_POINT ( 'NONE',  ( 2.200000000000000178, 0.000000000000000000, 2.999999999999997335 ) ) ;
#156 = AXIS2_PLACEMENT_3D ( 'NONE', #49, #210, #163 ) ;
#157 = EDGE_LOOP ( 'NONE', ( #108, #137 ) ) ;
#158 = DIRECTION ( 'NONE',  ( 0.000000000000000000, 0.000000000000000000, 1.000000000000000000 ) ) ;
#159 = ORIENTED_EDGE ( 'NONE', *, *, #307, .F. ) ;
#160 = DIRECTION ( 'NONE',  ( 1.000000000000000000, 0.000000000000000000, 0.000000000000000000 ) ) ;
#161 = EDGE_CURVE ( 'NONE', #172, #20, #261, .T. ) ;
#162 = DIRECTION ( 'NONE',  ( 1.000000000000000000, 0.000000000000000000, -0.000000000000000000 ) ) ;
#163 = DIRECTION ( 'NONE',  ( 1.000000000000000000, 0.000000000000000000, 0.000000000000000000 ) ) ;
#164 = DIRECTION ( 'NONE',  ( 0.000000000000000000, 0.000000000000000000, 1.000000000000000000 ) ) ;
#165 = DATE_AND_TIME ( #290, #220 ) ;
#166 = AXIS2_PLACEMENT_3D ( 'NONE', #39, #35, #131 ) ;
#167 = CIRCLE ( 'NONE', #207, 2.200000000000000178 ) ;
#168 = ADVANCED_FACE ( 'NONE', ( #59 ), #86, .T. ) ;
#169 = COORDINATED_UNIVERSAL_TIME_OFFSET ( 1, 0, .AHEAD. ) ;
#170 = DATE_TIME_ROLE ( 'classification_date' ) ;
#171 = APPROVAL_PERSON_ORGANIZATION ( #188, #186, #56 ) ;
#172 = VERTEX_POINT ( 'NONE', #295 ) ;
#173 = DIRECTION ( 'NONE',  ( -1.000000000000000000, 1.224646799147353207E-16, 0.000000000000000000 ) ) ;
#174 = AXIS2_PLACEMENT_3D ( 'NONE', #21, #140, #211 ) ;
#175 = VECTOR ( 'NONE', #115, 1000.000000000000000 ) ;
#176 = EDGE_LOOP ( 'NONE', ( #64, #209, #110, #130 ) ) ;
#177 = DIRECTION ( 'NONE',  ( -0.000000000000000000, -0.000000000000000000, -1.000000000000000000 ) ) ;
#178 = FACE_OUTER_BOUND ( 'NONE', #176, .T. ) ;
#179 = VERTEX_POINT ( 'NONE', #227 ) ;
#180 = DIRECTION ( 'NONE',  ( 0.000000000000000000, 0.000000000000000000, 1.000000000000000000 ) ) ;
#181 = AXIS2_PLACEMENT_3D ( 'NONE', #305, #164, #235 ) ;
#182 = ORIENTED_EDGE ( 'NONE', *, *, #125, .T. ) ;
#183 = CLOSED_SHELL ( 'NONE', ( #195, #148, #31, #168, #55, #239, #32, #273, #129 ) ) ;
#184 = DIRECTION ( 'NONE',  ( 1.000000000000000000, 0.000000000000000000, 0.000000000000000000 ) ) ;
#185 = DIRECTION ( 'NONE',  ( 1.000000000000000000, 0.000000000000000000, -0.000000000000000000 ) ) ;
#186 = APPROVAL ( #121, 'NEURÈENÝ' ) ;
#187 = DIRECTION ( 'NONE',  ( 0.000000000000000000, 0.000000000000000000, 1.000000000000000000 ) ) ;
#188 = PERSON_AND_ORGANIZATION ( #292, #114 ) ;
#189 = CIRCLE ( 'NONE', #288, 0.2000000000000000944 ) ;
#190 = APPROVAL_STATUS ( 'not_yet_approved' ) ;
#191 = CC_DESIGN_APPROVAL ( #116, ( #150 ) ) ;
#192 = EDGE_CURVE ( 'NONE', #134, #42, #233, .T. ) ;
#193 = PERSON_AND_ORGANIZATION_ROLE ( 'design_owner' ) ;
#194 = CALENDAR_DATE ( 2022, 20, 6 ) ;
#195 = ADVANCED_FACE ( 'NONE', ( #88 ), #80, .F. ) ;
#196 = VECTOR ( 'NONE', #27, 1000.000000000000000 ) ;
#197 = CYLINDRICAL_SURFACE ( 'NONE', #128, 2.000000000000000000 ) ;
#198 = DIRECTION ( 'NONE',  ( 0.000000000000000000, 0.000000000000000000, 1.000000000000000000 ) ) ;
#199 = FACE_OUTER_BOUND ( 'NONE', #231, .T. ) ;
#200 = EDGE_CURVE ( 'NONE', #112, #42, #66, .T. ) ;
#201 = FACE_OUTER_BOUND ( 'NONE', #22, .T. ) ;
#202 = ORIENTED_EDGE ( 'NONE', *, *, #250, .T. ) ;
#203 = CARTESIAN_POINT ( 'NONE',  ( 0.000000000000000000, 0.000000000000000000, 3.000000000000000000 ) ) ;
#204 = EDGE_LOOP ( 'NONE', ( #218, #105, #246, #249 ) ) ;
#205 = CC_DESIGN_PERSON_AND_ORGANIZATION_ASSIGNMENT ( #92, #219, ( #150 ) ) ;
#206 = CARTESIAN_POINT ( 'NONE',  ( 0.000000000000000000, 0.000000000000000000, 128.0000000000000000 ) ) ;
#207 = AXIS2_PLACEMENT_3D ( 'NONE', #274, #19, #270 ) ;
#208 = CIRCLE ( 'NONE', #181, 2.000000000000000000 ) ;
#209 = ORIENTED_EDGE ( 'NONE', *, *, #161, .F. ) ;
#210 = DIRECTION ( 'NONE',  ( 0.000000000000000000, 0.000000000000000000, 1.000000000000000000 ) ) ;
#211 = DIRECTION ( 'NONE',  ( 1.000000000000000000, 0.000000000000000000, 0.000000000000000000 ) ) ;
#212 = CC_DESIGN_PERSON_AND_ORGANIZATION_ASSIGNMENT ( #141, #291, ( #236 ) ) ;
#213 = COORDINATED_UNIVERSAL_TIME_OFFSET ( 1, 0, .AHEAD. ) ;
#214 = PERSON_AND_ORGANIZATION ( #292, #114 ) ;
#215 = APPLICATION_CONTEXT ( 'configuration controlled 3d designs of mechanical parts and assemblies' ) ;
#216 = DATE_TIME_ROLE ( 'creation_date' ) ;
#217 = CC_DESIGN_PERSON_AND_ORGANIZATION_ASSIGNMENT ( #93, #77, ( #71 ) ) ;
#218 = ORIENTED_EDGE ( 'NONE', *, *, #284, .F. ) ;
#219 = PERSON_AND_ORGANIZATION_ROLE ( 'creator' ) ;
#220 = LOCAL_TIME ( 12, 10, 3.000000000000000000, #6 ) ;
#221 = CARTESIAN_POINT ( 'NONE',  ( 0.000000000000000000, 0.000000000000000000, 3.000000000000000000 ) ) ;
#222 = DIRECTION ( 'NONE',  ( 1.224646799147353207E-16, 1.000000000000000000, -0.000000000000000000 ) ) ;
#223 = EDGE_CURVE ( 'NONE', #42, #134, #146, .T. ) ;
#224 = DIRECTION ( 'NONE',  ( -0.000000000000000000, -0.000000000000000000, -1.000000000000000000 ) ) ;
#225 = CARTESIAN_POINT ( 'NONE',  ( 0.000000000000000000, 0.000000000000000000, 3.000000000000000000 ) ) ;
#226 = ORIENTED_EDGE ( 'NONE', *, *, #144, .T. ) ;
#227 = CARTESIAN_POINT ( 'NONE',  ( 2.000000000000000000, 2.449293598294706414E-16, 128.0000000000000000 ) ) ;
#228 = EDGE_CURVE ( 'NONE', #20, #172, #208, .T. ) ;
#229 = EDGE_LOOP ( 'NONE', ( #85, #61, #154, #247 ) ) ;
#230 = LINE ( 'NONE', #68, #196 ) ;
#231 = EDGE_LOOP ( 'NONE', ( #159, #202, #82, #132 ) ) ;
#232 = LINE ( 'NONE', #259, #282 ) ;
#233 = CIRCLE ( 'NONE', #174, 4.000000000000000000 ) ;
#234 = LOCAL_TIME ( 12, 10, 3.000000000000000000, #54 ) ;
#235 = DIRECTION ( 'NONE',  ( 1.000000000000000000, 0.000000000000000000, 0.000000000000000000 ) ) ;
#236 = SECURITY_CLASSIFICATION ( '', '', #145 ) ;
#237 = CALENDAR_DATE ( 2022, 20, 6 ) ;
#238 = CALENDAR_DATE ( 2022, 20, 6 ) ;
#239 = ADVANCED_FACE ( 'NONE', ( #119 ), #306, .F. ) ;
#240 = DATE_AND_TIME ( #237, #234 ) ;
#241 = CALENDAR_DATE ( 2022, 20, 6 ) ;
#242 = PLANE ( 'NONE',  #53 ) ;
#243 = CIRCLE ( 'NONE', #13, 2.000000000000000000 ) ;
#244 = CARTESIAN_POINT ( 'NONE',  ( -2.000000000000000000, 0.000000000000000000, 3.199999999999994404 ) ) ;
#245 = CC_DESIGN_PERSON_AND_ORGANIZATION_ASSIGNMENT ( #76, #193, ( #289 ) ) ;
#246 = ORIENTED_EDGE ( 'NONE', *, *, #200, .T. ) ;
#247 = ORIENTED_EDGE ( 'NONE', *, *, #228, .T. ) ;
#248 = DIRECTION ( 'NONE',  ( 1.000000000000000000, 0.000000000000000000, 0.000000000000000000 ) ) ;
#249 = ORIENTED_EDGE ( 'NONE', *, *, #223, .T. ) ;
#250 = EDGE_CURVE ( 'NONE', #179, #172, #230, .T. ) ;
#251 = CARTESIAN_POINT ( 'NONE',  ( 0.000000000000000000, 0.000000000000000000, 3.199999999999994404 ) ) ;
#252 = LOCAL_TIME ( 12, 10, 3.000000000000000000, #213 ) ;
#253 = ORIENTED_EDGE ( 'NONE', *, *, #228, .F. ) ;
#254 =( NAMED_UNIT ( * ) PLANE_ANGLE_UNIT ( ) SI_UNIT ( $, .RADIAN. ) );
#255 = CARTESIAN_POINT ( 'NONE',  ( 0.000000000000000000, 0.000000000000000000, 0.000000000000000000 ) ) ;
#256 =( LENGTH_UNIT ( ) NAMED_UNIT ( * ) SI_UNIT ( .MILLI., .METRE. ) );
#257 = AXIS2_PLACEMENT_3D ( 'NONE', #72, #48, #283 ) ;
#258 = CARTESIAN_POINT ( 'NONE',  ( 0.000000000000000000, 0.000000000000000000, 0.000000000000000000 ) ) ;
#259 = CARTESIAN_POINT ( 'NONE',  ( -2.000000000000000000, 0.000000000000000000, 128.0000000000000000 ) ) ;
#260 = COORDINATED_UNIVERSAL_TIME_OFFSET ( 1, 0, .AHEAD. ) ;
#261 = CIRCLE ( 'NONE', #113, 2.000000000000000000 ) ;
#262 = DIRECTION ( 'NONE',  ( 0.000000000000000000, 0.000000000000000000, 1.000000000000000000 ) ) ;
#263 = PRODUCT_DEFINITION_SHAPE ( 'NONE', 'NONE',  #71 ) ;
#264 = APPLICATION_PROTOCOL_DEFINITION ( 'international standard', 'config_control_design', 1994, #215 ) ;
#265 = CC_DESIGN_SECURITY_CLASSIFICATION ( #236, ( #150 ) ) ;
#266 = APPROVAL_ROLE ( '' ) ;
#267 = DIRECTION ( 'NONE',  ( 0.000000000000000000, 0.000000000000000000, 1.000000000000000000 ) ) ;
#268 = EDGE_CURVE ( 'NONE', #112, #67, #139, .T. ) ;
#269 = CIRCLE ( 'NONE', #74, 0.2000000000000000944 ) ;
#270 = DIRECTION ( 'NONE',  ( 1.000000000000000000, 0.000000000000000000, 0.000000000000000000 ) ) ;
#271 = VERTEX_POINT ( 'NONE', #46 ) ;
#272 = CARTESIAN_POINT ( 'NONE',  ( -4.000000000000000000, 0.000000000000000000, 0.000000000000000000 ) ) ;
#273 = ADVANCED_FACE ( 'NONE', ( #90 ), #281, .T. ) ;
#274 = CARTESIAN_POINT ( 'NONE',  ( 0.000000000000000000, 0.000000000000000000, 3.000000000000000000 ) ) ;
#275 = ORIENTED_EDGE ( 'NONE', *, *, #24, .T. ) ;
#276 = FACE_OUTER_BOUND ( 'NONE', #149, .T. ) ;
#277 = AXIS2_PLACEMENT_3D ( 'NONE', #118, #25, #184 ) ;
#278 = ORIENTED_EDGE ( 'NONE', *, *, #296, .T. ) ;
#279 = CARTESIAN_POINT ( 'NONE',  ( 0.000000000000000000, 0.000000000000000000, 128.0000000000000000 ) ) ;
#280 = LINE ( 'NONE', #1, #175 ) ;
#281 = PLANE ( 'NONE',  #5 ) ;
#282 = VECTOR ( 'NONE', #45, 1000.000000000000000 ) ;
#283 = DIRECTION ( 'NONE',  ( 1.000000000000000000, 0.000000000000000000, 0.000000000000000000 ) ) ;
#284 = EDGE_CURVE ( 'NONE', #67, #134, #280, .T. ) ;
#285 = PERSON_AND_ORGANIZATION_ROLE ( 'design_supplier' ) ;
#286 = LOCAL_TIME ( 12, 10, 3.000000000000000000, #260 ) ;
#287 = DATE_AND_TIME ( #194, #286 ) ;
#288 = AXIS2_PLACEMENT_3D ( 'NONE', #16, #84, #103 ) ;
#289 = PRODUCT ( 'f100', 'f100', '', ( #98 ) ) ;
#290 = CALENDAR_DATE ( 2022, 20, 6 ) ;
#291 = PERSON_AND_ORGANIZATION_ROLE ( 'classification_officer' ) ;
#292 = PERSON ( 'NEURÈENÝ', 'NEURÈENÝ', 'NEURÈENÝ', ('NEURÈENÝ'), ('NEURÈENÝ'), ('NEURÈENÝ') ) ;
#293 = DIRECTION ( 'NONE',  ( 1.000000000000000000, 0.000000000000000000, 0.000000000000000000 ) ) ;
#294 = FACE_OUTER_BOUND ( 'NONE', #229, .T. ) ;
#295 = CARTESIAN_POINT ( 'NONE',  ( 2.000000000000000000, 2.449293598294706414E-16, 3.199999999999994404 ) ) ;
#296 = EDGE_CURVE ( 'NONE', #271, #179, #243, .T. ) ;
#297 = EDGE_LOOP ( 'NONE', ( #278, #44 ) ) ;
#298 = DIRECTION ( 'NONE',  ( 0.000000000000000000, 0.000000000000000000, 1.000000000000000000 ) ) ;
#299 = ORIENTED_EDGE ( 'NONE', *, *, #125, .F. ) ;
#300 = CYLINDRICAL_SURFACE ( 'NONE', #14, 2.000000000000000000 ) ;
#301 = ORIENTED_EDGE ( 'NONE', *, *, #24, .F. ) ;
#302 = DIRECTION ( 'NONE',  ( -0.000000000000000000, -0.000000000000000000, -1.000000000000000000 ) ) ;
#303 = AXIS2_PLACEMENT_3D ( 'NONE', #221, #78, #62 ) ;
#304 = EDGE_CURVE ( 'NONE', #271, #20, #232, .T. ) ;
#305 = CARTESIAN_POINT ( 'NONE',  ( 0.000000000000000000, 0.000000000000000000, 3.199999999999994404 ) ) ;
#306 = PLANE ( 'NONE',  #29 ) ;
#307 = EDGE_CURVE ( 'NONE', #179, #271, #142, .T. ) ;
ENDSEC;
END-ISO-10303-21;
