ISO-10303-21;
HEADER;
FILE_DESCRIPTION (( 'STEP AP203' ),
    '1' );
FILE_NAME ('14f5.STEP',
    '2022-06-20T10:21:42',
    ( '' ),
    ( '' ),
    'SwSTEP 2.0',
    'SolidWorks 2019',
    '' );
FILE_SCHEMA (( 'CONFIG_CONTROL_DESIGN' ));
ENDSEC;

DATA;
#1 = DIRECTION ( 'NONE',  ( 0.000000000000000000, 0.000000000000000000, 1.000000000000000000 ) ) ;
#2 = CARTESIAN_POINT ( 'NONE',  ( 0.9000000000000000222, 1.102182119232617788E-16, 1.700000000000007061 ) ) ;
#3 = APPROVAL_PERSON_ORGANIZATION ( #248, #49, #134 ) ;
#4 = FACE_OUTER_BOUND ( 'NONE', #273, .T. ) ;
#5 = CYLINDRICAL_SURFACE ( 'NONE', #87, 2.000000000000000000 ) ;
#6 = DIRECTION ( 'NONE',  ( -0.000000000000000000, -0.000000000000000000, -1.000000000000000000 ) ) ;
#7 = EDGE_CURVE ( 'NONE', #118, #45, #93, .T. ) ;
#8 =( NAMED_UNIT ( * ) PLANE_ANGLE_UNIT ( ) SI_UNIT ( $, .RADIAN. ) );
#9 = CIRCLE ( 'NONE', #274, 0.9000000000000000222 ) ;
#10 = CARTESIAN_POINT ( 'NONE',  ( 0.000000000000000000, 0.000000000000000000, 0.000000000000000000 ) ) ;
#11 = FACE_OUTER_BOUND ( 'NONE', #249, .T. ) ;
#12 = CARTESIAN_POINT ( 'NONE',  ( -2.000000000000000000, 0.000000000000000000, 1.500000000000000000 ) ) ;
#13 = DATE_TIME_ROLE ( 'classification_date' ) ;
#14 = PERSON_AND_ORGANIZATION_ROLE ( 'design_owner' ) ;
#15 = ORIENTED_EDGE ( 'NONE', *, *, #7, .F. ) ;
#16 = CIRCLE ( 'NONE', #220, 2.000000000000000000 ) ;
#17 = LOCAL_TIME ( 12, 21, 42.00000000000000000, #299 ) ;
#18 = VERTEX_POINT ( 'NONE', #216 ) ;
#19 = CALENDAR_DATE ( 2022, 20, 6 ) ;
#20 = AXIS2_PLACEMENT_3D ( 'NONE', #27, #123, #95 ) ;
#21 = ORIENTED_EDGE ( 'NONE', *, *, #253, .F. ) ;
#22 = APPLICATION_PROTOCOL_DEFINITION ( 'international standard', 'config_control_design', 1994, #259 ) ;
#23 = AXIS2_PLACEMENT_3D ( 'NONE', #268, #80, #79 ) ;
#24 = ORIENTED_EDGE ( 'NONE', *, *, #257, .F. ) ;
#25 = CARTESIAN_POINT ( 'NONE',  ( 0.9000000000000000222, 1.102182119232617788E-16, 126.5000000000000000 ) ) ;
#26 = CARTESIAN_POINT ( 'NONE',  ( -0.9000000000000000222, 0.000000000000000000, 1.700000000000007061 ) ) ;
#27 = CARTESIAN_POINT ( 'NONE',  ( 0.000000000000000000, 0.000000000000000000, 1.700000000000007061 ) ) ;
#28 = UNCERTAINTY_MEASURE_WITH_UNIT (LENGTH_MEASURE( 1.000000000000000082E-05 ), #145, 'distance_accuracy_value', 'NONE');
#29 = PERSON ( 'NEURÈENÝ', 'NEURÈENÝ', 'NEURÈENÝ', ('NEURÈENÝ'), ('NEURÈENÝ'), ('NEURÈENÝ') ) ;
#30 = DIRECTION ( 'NONE',  ( 0.000000000000000000, 0.000000000000000000, 1.000000000000000000 ) ) ;
#31 = LINE ( 'NONE', #147, #288 ) ;
#32 = EDGE_CURVE ( 'NONE', #45, #48, #236, .T. ) ;
#33 = FACE_OUTER_BOUND ( 'NONE', #297, .T. ) ;
#34 = CARTESIAN_POINT ( 'NONE',  ( 0.000000000000000000, 0.000000000000000000, 1.500000000000000000 ) ) ;
#35 = DIRECTION ( 'NONE',  ( 0.000000000000000000, 0.000000000000000000, 1.000000000000000000 ) ) ;
#36 = DIRECTION ( 'NONE',  ( 1.000000000000000000, 0.000000000000000000, 0.000000000000000000 ) ) ;
#37 = PERSON_AND_ORGANIZATION ( #29, #94 ) ;
#38 = EDGE_LOOP ( 'NONE', ( #209, #40 ) ) ;
#39 = PERSON_AND_ORGANIZATION_ROLE ( 'design_supplier' ) ;
#40 = ORIENTED_EDGE ( 'NONE', *, *, #164, .F. ) ;
#41 = ORIENTED_EDGE ( 'NONE', *, *, #128, .F. ) ;
#42 = COORDINATED_UNIVERSAL_TIME_OFFSET ( 1, 0, .AHEAD. ) ;
#43 = CIRCLE ( 'NONE', #140, 2.000000000000000000 ) ;
#44 = EDGE_CURVE ( 'NONE', #48, #45, #9, .T. ) ;
#45 = VERTEX_POINT ( 'NONE', #26 ) ;
#46 = AXIS2_PLACEMENT_3D ( 'NONE', #124, #125, #127 ) ;
#47 = CARTESIAN_POINT ( 'NONE',  ( 0.000000000000000000, 0.000000000000000000, 126.5000000000000000 ) ) ;
#48 = VERTEX_POINT ( 'NONE', #2 ) ;
#49 = APPROVAL ( #112, 'NEURÈENÝ' ) ;
#50 = DIRECTION ( 'NONE',  ( 0.000000000000000000, 0.000000000000000000, 1.000000000000000000 ) ) ;
#51 = AXIS2_PLACEMENT_3D ( 'NONE', #10, #223, #264 ) ;
#52 = EDGE_CURVE ( 'NONE', #279, #111, #43, .T. ) ;
#53 = DIRECTION ( 'NONE',  ( 1.000000000000000000, 0.000000000000000000, 0.000000000000000000 ) ) ;
#54 = AXIS2_PLACEMENT_3D ( 'NONE', #160, #305, #207 ) ;
#55 = ADVANCED_FACE ( 'NONE', ( #218 ), #167, .T. ) ;
#56 = LINE ( 'NONE', #221, #298 ) ;
#57 = FACE_OUTER_BOUND ( 'NONE', #38, .T. ) ;
#58 = DATE_AND_TIME ( #228, #110 ) ;
#59 = AXIS2_PLACEMENT_3D ( 'NONE', #267, #244, #173 ) ;
#60 = PERSON_AND_ORGANIZATION_ROLE ( 'creator' ) ;
#61 = ORIENTED_EDGE ( 'NONE', *, *, #44, .F. ) ;
#62 = ADVANCED_FACE ( 'NONE', ( #4 ), #171, .T. ) ;
#63 = VECTOR ( 'NONE', #235, 1000.000000000000000 ) ;
#64 = COORDINATED_UNIVERSAL_TIME_OFFSET ( 1, 0, .AHEAD. ) ;
#65 = VERTEX_POINT ( 'NONE', #25 ) ;
#66 = ORIENTED_EDGE ( 'NONE', *, *, #7, .T. ) ;
#67 = LOCAL_TIME ( 12, 21, 42.00000000000000000, #157 ) ;
#68 = PERSON_AND_ORGANIZATION ( #29, #94 ) ;
#69 = EDGE_LOOP ( 'NONE', ( #300, #61, #254, #303 ) ) ;
#70 = DIRECTION ( 'NONE',  ( 0.000000000000000000, 0.000000000000000000, 1.000000000000000000 ) ) ;
#71 = CARTESIAN_POINT ( 'NONE',  ( 0.000000000000000000, 0.000000000000000000, 126.5000000000000000 ) ) ;
#72 = ADVANCED_FACE ( 'NONE', ( #260 ), #5, .T. ) ;
#73 = DIRECTION ( 'NONE',  ( -0.000000000000000000, -0.000000000000000000, -1.000000000000000000 ) ) ;
#74 = DIRECTION ( 'NONE',  ( 1.000000000000000000, 0.000000000000000000, 0.000000000000000000 ) ) ;
#75 = DIRECTION ( 'NONE',  ( 1.000000000000000000, 0.000000000000000000, 0.000000000000000000 ) ) ;
#76 = CARTESIAN_POINT ( 'NONE',  ( -2.000000000000000000, 0.000000000000000000, 0.000000000000000000 ) ) ;
#77 = LINE ( 'NONE', #12, #166 ) ;
#78 = DIRECTION ( 'NONE',  ( 0.000000000000000000, 0.000000000000000000, 1.000000000000000000 ) ) ;
#79 = DIRECTION ( 'NONE',  ( -1.000000000000000000, 0.000000000000000000, 0.000000000000000000 ) ) ;
#80 = DIRECTION ( 'NONE',  ( -0.000000000000000000, -0.000000000000000000, -1.000000000000000000 ) ) ;
#81 = CIRCLE ( 'NONE', #256, 0.9000000000000000222 ) ;
#82 = ADVANCED_FACE ( 'NONE', ( #192 ), #258, .T. ) ;
#83 = CC_DESIGN_APPROVAL ( #49, ( #103 ) ) ;
#84 = ORIENTED_EDGE ( 'NONE', *, *, #195, .T. ) ;
#85 = PERSON_AND_ORGANIZATION ( #29, #94 ) ;
#86 = ORIENTED_EDGE ( 'NONE', *, *, #295, .F. ) ;
#87 = AXIS2_PLACEMENT_3D ( 'NONE', #283, #96, #240 ) ;
#88 = APPROVAL_DATE_TIME ( #205, #169 ) ;
#89 = MECHANICAL_CONTEXT ( 'NONE', #210, 'mechanical' ) ;
#90 = ORIENTED_EDGE ( 'NONE', *, *, #133, .F. ) ;
#91 = DATE_TIME_ROLE ( 'creation_date' ) ;
#92 = DIRECTION ( 'NONE',  ( 1.000000000000000000, 0.000000000000000000, 0.000000000000000000 ) ) ;
#93 = LINE ( 'NONE', #261, #63 ) ;
#94 = ORGANIZATION ( 'NEURÈENÝ', 'NEURÈENÝ', '' ) ;
#95 = DIRECTION ( 'NONE',  ( 1.000000000000000000, 0.000000000000000000, 0.000000000000000000 ) ) ;
#96 = DIRECTION ( 'NONE',  ( -0.000000000000000000, -0.000000000000000000, -1.000000000000000000 ) ) ;
#97 = EDGE_CURVE ( 'NONE', #18, #116, #130, .T. ) ;
#98 = DIRECTION ( 'NONE',  ( -0.000000000000000000, -0.000000000000000000, -1.000000000000000000 ) ) ;
#99 = AXIS2_PLACEMENT_3D ( 'NONE', #190, #30, #284 ) ;
#100 = DIRECTION ( 'NONE',  ( 0.000000000000000000, 0.000000000000000000, 1.000000000000000000 ) ) ;
#101 = CC_DESIGN_PERSON_AND_ORGANIZATION_ASSIGNMENT ( #68, #181, ( #103 ) ) ;
#102 = MANIFOLD_SOLID_BREP ( 'Zaoblit1', #198 ) ;
#103 = SECURITY_CLASSIFICATION ( '', '', #272 ) ;
#104 = CARTESIAN_POINT ( 'NONE',  ( 0.000000000000000000, 0.000000000000000000, 0.000000000000000000 ) ) ;
#105 = DIRECTION ( 'NONE',  ( -1.000000000000000000, 1.224646799147353207E-16, 0.000000000000000000 ) ) ;
#106 = APPROVAL ( #178, 'NEURÈENÝ' ) ;
#107 = APPROVAL_DATE_TIME ( #226, #49 ) ;
#108 = ORIENTED_EDGE ( 'NONE', *, *, #307, .T. ) ;
#109 = APPROVAL_ROLE ( '' ) ;
#110 = LOCAL_TIME ( 12, 21, 42.00000000000000000, #42 ) ;
#111 = VERTEX_POINT ( 'NONE', #122 ) ;
#112 = APPROVAL_STATUS ( 'not_yet_approved' ) ;
#113 = EDGE_LOOP ( 'NONE', ( #24, #229, #251, #287 ) ) ;
#114 = AXIS2_PLACEMENT_3D ( 'NONE', #71, #98, #168 ) ;
#115 = CALENDAR_DATE ( 2022, 20, 6 ) ;
#116 = VERTEX_POINT ( 'NONE', #214 ) ;
#117 = PERSON_AND_ORGANIZATION ( #29, #94 ) ;
#118 = VERTEX_POINT ( 'NONE', #172 ) ;
#119 = AXIS2_PLACEMENT_3D ( 'NONE', #202, #151, #269 ) ;
#120 = ORIENTED_EDGE ( 'NONE', *, *, #195, .F. ) ;
#121 = ADVANCED_FACE ( 'NONE', ( #141 ), #150, .F. ) ;
#122 = CARTESIAN_POINT ( 'NONE',  ( 2.000000000000000000, 2.449293598294706414E-16, 0.000000000000000000 ) ) ;
#123 = DIRECTION ( 'NONE',  ( 0.000000000000000000, 0.000000000000000000, 1.000000000000000000 ) ) ;
#124 = CARTESIAN_POINT ( 'NONE',  ( 0.000000000000000000, 0.000000000000000000, 126.5000000000000000 ) ) ;
#125 = DIRECTION ( 'NONE',  ( 0.000000000000000000, 0.000000000000000000, 1.000000000000000000 ) ) ;
#126 = AXIS2_PLACEMENT_3D ( 'NONE', #294, #132, #241 ) ;
#127 = DIRECTION ( 'NONE',  ( 1.000000000000000000, 0.000000000000000000, 0.000000000000000000 ) ) ;
#128 = EDGE_CURVE ( 'NONE', #48, #213, #233, .T. ) ;
#129 = CARTESIAN_POINT ( 'NONE',  ( -1.100000000000000089, 1.347111479062088503E-16, 1.500000000000003553 ) ) ;
#130 = CIRCLE ( 'NONE', #285, 2.000000000000000000 ) ;
#131 = DIRECTION ( 'NONE',  ( 1.224646799147353207E-16, 1.000000000000000000, -0.000000000000000000 ) ) ;
#132 = DIRECTION ( 'NONE',  ( -0.000000000000000000, -0.000000000000000000, -1.000000000000000000 ) ) ;
#133 = EDGE_CURVE ( 'NONE', #65, #118, #143, .T. ) ;
#134 = APPROVAL_ROLE ( '' ) ;
#135 = PERSON_AND_ORGANIZATION ( #29, #94 ) ;
#136 = ORIENTED_EDGE ( 'NONE', *, *, #257, .T. ) ;
#137 = ORIENTED_EDGE ( 'NONE', *, *, #32, .F. ) ;
#138 = ADVANCED_FACE ( 'NONE', ( #11 ), #163, .F. ) ;
#139 = DIRECTION ( 'NONE',  ( 0.000000000000000000, 0.000000000000000000, 1.000000000000000000 ) ) ;
#140 = AXIS2_PLACEMENT_3D ( 'NONE', #187, #1, #92 ) ;
#141 = FACE_OUTER_BOUND ( 'NONE', #69, .T. ) ;
#142 = DIRECTION ( 'NONE',  ( 0.000000000000000000, -1.000000000000000000, 0.000000000000000000 ) ) ;
#143 = CIRCLE ( 'NONE', #46, 0.9000000000000000222 ) ;
#144 = DIRECTION ( 'NONE',  ( 1.000000000000000000, 0.000000000000000000, -0.000000000000000000 ) ) ;
#145 =( LENGTH_UNIT ( ) NAMED_UNIT ( * ) SI_UNIT ( .MILLI., .METRE. ) );
#146 = AXIS2_PLACEMENT_3D ( 'NONE', #170, #139, #144 ) ;
#147 = CARTESIAN_POINT ( 'NONE',  ( 0.9000000000000000222, 1.102182119232617788E-16, 126.5000000000000000 ) ) ;
#148 = DIRECTION ( 'NONE',  ( 0.000000000000000000, 0.000000000000000000, 1.000000000000000000 ) ) ;
#149 = DIRECTION ( 'NONE',  ( 1.000000000000000000, 0.000000000000000000, 0.000000000000000000 ) ) ;
#150 = TOROIDAL_SURFACE ( 'NONE', #20, 1.100000000000000089, 0.2000000000000000111 ) ;
#151 = DIRECTION ( 'NONE',  ( -0.000000000000000000, -0.000000000000000000, -1.000000000000000000 ) ) ;
#152 = ADVANCED_FACE ( 'NONE', ( #57 ), #242, .F. ) ;
#153 = ADVANCED_BREP_SHAPE_REPRESENTATION ( '14f5', ( #102, #54 ), #282 ) ;
#154 = PRODUCT_DEFINITION_SHAPE ( 'NONE', 'NONE',  #200 ) ;
#155 = AXIS2_PLACEMENT_3D ( 'NONE', #34, #35, #290 ) ;
#156 = PERSON_AND_ORGANIZATION_ROLE ( 'creator' ) ;
#157 = COORDINATED_UNIVERSAL_TIME_OFFSET ( 1, 0, .AHEAD. ) ;
#158 = PRODUCT ( '14f5', '14f5', '', ( #89 ) ) ;
#159 = ORIENTED_EDGE ( 'NONE', *, *, #275, .F. ) ;
#160 = CARTESIAN_POINT ( 'NONE',  ( 0.000000000000000000, 0.000000000000000000, 0.000000000000000000 ) ) ;
#161 = CC_DESIGN_PERSON_AND_ORGANIZATION_ASSIGNMENT ( #231, #156, ( #289 ) ) ;
#162 = CALENDAR_DATE ( 2022, 20, 6 ) ;
#163 = TOROIDAL_SURFACE ( 'NONE', #183, 1.100000000000000089, 0.2000000000000000111 ) ;
#164 = EDGE_CURVE ( 'NONE', #111, #279, #16, .T. ) ;
#165 = ORIENTED_EDGE ( 'NONE', *, *, #97, .T. ) ;
#166 = VECTOR ( 'NONE', #6, 1000.000000000000000 ) ;
#167 = CYLINDRICAL_SURFACE ( 'NONE', #263, 0.9000000000000000222 ) ;
#168 = DIRECTION ( 'NONE',  ( -1.000000000000000000, 0.000000000000000000, 0.000000000000000000 ) ) ;
#169 = APPROVAL ( #182, 'NEURÈENÝ' ) ;
#170 = CARTESIAN_POINT ( 'NONE',  ( 0.000000000000000000, 0.000000000000000000, 126.5000000000000000 ) ) ;
#171 = PLANE ( 'NONE',  #146 ) ;
#172 = CARTESIAN_POINT ( 'NONE',  ( -0.9000000000000000222, 0.000000000000000000, 126.5000000000000000 ) ) ;
#173 = DIRECTION ( 'NONE',  ( 1.000000000000000000, 0.000000000000000000, -0.000000000000000000 ) ) ;
#174 = CC_DESIGN_PERSON_AND_ORGANIZATION_ASSIGNMENT ( #37, #39, ( #289 ) ) ;
#175 = FACE_BOUND ( 'NONE', #208, .T. ) ;
#176 = PLANE ( 'NONE',  #59 ) ;
#177 = VERTEX_POINT ( 'NONE', #129 ) ;
#178 = APPROVAL_STATUS ( 'not_yet_approved' ) ;
#179 = EDGE_LOOP ( 'NONE', ( #21, #120, #66, #186 ) ) ;
#180 = ADVANCED_FACE ( 'NONE', ( #197 ), #201, .T. ) ;
#181 = PERSON_AND_ORGANIZATION_ROLE ( 'classification_officer' ) ;
#182 = APPROVAL_STATUS ( 'not_yet_approved' ) ;
#183 = AXIS2_PLACEMENT_3D ( 'NONE', #199, #148, #36 ) ;
#184 = EDGE_LOOP ( 'NONE', ( #86, #306, #108, #234 ) ) ;
#185 = APPROVAL_ROLE ( '' ) ;
#186 = ORIENTED_EDGE ( 'NONE', *, *, #32, .T. ) ;
#187 = CARTESIAN_POINT ( 'NONE',  ( 0.000000000000000000, 0.000000000000000000, 0.000000000000000000 ) ) ;
#188 = CIRCLE ( 'NONE', #155, 2.000000000000000000 ) ;
#189 = ORIENTED_EDGE ( 'NONE', *, *, #253, .T. ) ;
#190 = CARTESIAN_POINT ( 'NONE',  ( 0.000000000000000000, 0.000000000000000000, 1.700000000000007061 ) ) ;
#191 = CC_DESIGN_DATE_AND_TIME_ASSIGNMENT ( #212, #13, ( #103 ) ) ;
#192 = FACE_OUTER_BOUND ( 'NONE', #179, .T. ) ;
#193 = CARTESIAN_POINT ( 'NONE',  ( 0.000000000000000000, 0.000000000000000000, 1.500000000000000000 ) ) ;
#194 = CIRCLE ( 'NONE', #126, 1.100000000000000089 ) ;
#195 = EDGE_CURVE ( 'NONE', #118, #65, #81, .T. ) ;
#196 = DESIGN_CONTEXT ( 'detailed design', #259, 'design' ) ;
#197 = FACE_OUTER_BOUND ( 'NONE', #113, .T. ) ;
#198 = CLOSED_SHELL ( 'NONE', ( #138, #55, #180, #72, #292, #152, #82, #62, #121 ) ) ;
#199 = CARTESIAN_POINT ( 'NONE',  ( 0.000000000000000000, 0.000000000000000000, 1.700000000000007061 ) ) ;
#200 = PRODUCT_DEFINITION ( 'NEZNÁMÝ', '', #289, #196 ) ;
#201 = CYLINDRICAL_SURFACE ( 'NONE', #23, 2.000000000000000000 ) ;
#202 = CARTESIAN_POINT ( 'NONE',  ( 0.000000000000000000, 0.000000000000000000, 1.500000000000000000 ) ) ;
#203 = APPLICATION_PROTOCOL_DEFINITION ( 'international standard', 'config_control_design', 1994, #210 ) ;
#204 = ORIENTED_EDGE ( 'NONE', *, *, #222, .T. ) ;
#205 = DATE_AND_TIME ( #19, #67 ) ;
#206 = ORIENTED_EDGE ( 'NONE', *, *, #275, .T. ) ;
#207 = DIRECTION ( 'NONE',  ( 1.000000000000000000, 0.000000000000000000, 0.000000000000000000 ) ) ;
#208 = EDGE_LOOP ( 'NONE', ( #206, #302 ) ) ;
#209 = ORIENTED_EDGE ( 'NONE', *, *, #52, .F. ) ;
#210 = APPLICATION_CONTEXT ( 'configuration controlled 3d designs of mechanical parts and assemblies' ) ;
#211 = CC_DESIGN_PERSON_AND_ORGANIZATION_ASSIGNMENT ( #117, #60, ( #200 ) ) ;
#212 = DATE_AND_TIME ( #276, #17 ) ;
#213 = VERTEX_POINT ( 'NONE', #291 ) ;
#214 = CARTESIAN_POINT ( 'NONE',  ( 2.000000000000000000, 2.449293598294706414E-16, 1.500000000000000000 ) ) ;
#215 = AXIS2_PLACEMENT_3D ( 'NONE', #237, #142, #238 ) ;
#216 = CARTESIAN_POINT ( 'NONE',  ( -2.000000000000000000, 0.000000000000000000, 1.500000000000000000 ) ) ;
#217 = CARTESIAN_POINT ( 'NONE',  ( 0.000000000000000000, 0.000000000000000000, 1.700000000000007061 ) ) ;
#218 = FACE_OUTER_BOUND ( 'NONE', #232, .T. ) ;
#219 = DIRECTION ( 'NONE',  ( -0.000000000000000000, -0.000000000000000000, -1.000000000000000000 ) ) ;
#220 = AXIS2_PLACEMENT_3D ( 'NONE', #104, #78, #53 ) ;
#221 = CARTESIAN_POINT ( 'NONE',  ( 2.000000000000000000, 2.449293598294706414E-16, 1.500000000000000000 ) ) ;
#222 = EDGE_CURVE ( 'NONE', #45, #177, #230, .T. ) ;
#223 = DIRECTION ( 'NONE',  ( 0.000000000000000000, 0.000000000000000000, 1.000000000000000000 ) ) ;
#224 = LOCAL_TIME ( 12, 21, 42.00000000000000000, #64 ) ;
#225 = DIRECTION ( 'NONE',  ( -0.000000000000000000, -0.000000000000000000, -1.000000000000000000 ) ) ;
#226 = DATE_AND_TIME ( #115, #224 ) ;
#227 = CC_DESIGN_DATE_AND_TIME_ASSIGNMENT ( #301, #91, ( #200 ) ) ;
#228 = CALENDAR_DATE ( 2022, 20, 6 ) ;
#229 = ORIENTED_EDGE ( 'NONE', *, *, #295, .T. ) ;
#230 = CIRCLE ( 'NONE', #304, 0.2000000000000000944 ) ;
#231 = PERSON_AND_ORGANIZATION ( #29, #94 ) ;
#232 = EDGE_LOOP ( 'NONE', ( #90, #189, #271, #15 ) ) ;
#233 = CIRCLE ( 'NONE', #215, 0.2000000000000000944 ) ;
#234 = ORIENTED_EDGE ( 'NONE', *, *, #52, .T. ) ;
#235 = DIRECTION ( 'NONE',  ( -0.000000000000000000, -0.000000000000000000, -1.000000000000000000 ) ) ;
#236 = CIRCLE ( 'NONE', #99, 0.9000000000000000222 ) ;
#237 = CARTESIAN_POINT ( 'NONE',  ( 1.100000000000000089, 0.000000000000000000, 1.700000000000007061 ) ) ;
#238 = DIRECTION ( 'NONE',  ( 0.000000000000000000, 0.000000000000000000, -1.000000000000000000 ) ) ;
#239 = CC_DESIGN_APPROVAL ( #169, ( #289 ) ) ;
#240 = DIRECTION ( 'NONE',  ( -1.000000000000000000, 0.000000000000000000, 0.000000000000000000 ) ) ;
#241 = DIRECTION ( 'NONE',  ( 1.000000000000000000, 0.000000000000000000, 0.000000000000000000 ) ) ;
#242 = PLANE ( 'NONE',  #51 ) ;
#243 = CARTESIAN_POINT ( 'NONE',  ( 0.000000000000000000, 0.000000000000000000, 126.5000000000000000 ) ) ;
#244 = DIRECTION ( 'NONE',  ( 0.000000000000000000, 0.000000000000000000, 1.000000000000000000 ) ) ;
#245 = CIRCLE ( 'NONE', #119, 1.100000000000000089 ) ;
#246 = APPROVAL_PERSON_ORGANIZATION ( #135, #169, #185 ) ;
#247 = EDGE_CURVE ( 'NONE', #177, #213, #245, .T. ) ;
#248 = PERSON_AND_ORGANIZATION ( #29, #94 ) ;
#249 = EDGE_LOOP ( 'NONE', ( #137, #204, #159, #41 ) ) ;
#250 = APPROVAL_DATE_TIME ( #58, #106 ) ;
#251 = ORIENTED_EDGE ( 'NONE', *, *, #164, .T. ) ;
#252 = LOCAL_TIME ( 12, 21, 42.00000000000000000, #255 ) ;
#253 = EDGE_CURVE ( 'NONE', #65, #48, #31, .T. ) ;
#254 = ORIENTED_EDGE ( 'NONE', *, *, #128, .T. ) ;
#255 = COORDINATED_UNIVERSAL_TIME_OFFSET ( 1, 0, .AHEAD. ) ;
#256 = AXIS2_PLACEMENT_3D ( 'NONE', #243, #100, #149 ) ;
#257 = EDGE_CURVE ( 'NONE', #116, #18, #188, .T. ) ;
#258 = CYLINDRICAL_SURFACE ( 'NONE', #114, 0.9000000000000000222 ) ;
#259 = APPLICATION_CONTEXT ( 'configuration controlled 3d designs of mechanical parts and assemblies' ) ;
#260 = FACE_OUTER_BOUND ( 'NONE', #184, .T. ) ;
#261 = CARTESIAN_POINT ( 'NONE',  ( -0.9000000000000000222, 0.000000000000000000, 126.5000000000000000 ) ) ;
#262 = DIRECTION ( 'NONE',  ( -1.000000000000000000, 0.000000000000000000, 0.000000000000000000 ) ) ;
#263 = AXIS2_PLACEMENT_3D ( 'NONE', #47, #73, #262 ) ;
#264 = DIRECTION ( 'NONE',  ( 1.000000000000000000, 0.000000000000000000, -0.000000000000000000 ) ) ;
#265 =( NAMED_UNIT ( * ) SI_UNIT ( $, .STERADIAN. ) SOLID_ANGLE_UNIT ( ) );
#266 = APPROVAL_PERSON_ORGANIZATION ( #85, #106, #109 ) ;
#267 = CARTESIAN_POINT ( 'NONE',  ( 0.000000000000000000, 0.000000000000000000, 1.500000000000000000 ) ) ;
#268 = CARTESIAN_POINT ( 'NONE',  ( 0.000000000000000000, 0.000000000000000000, 1.500000000000000000 ) ) ;
#269 = DIRECTION ( 'NONE',  ( 1.000000000000000000, 0.000000000000000000, 0.000000000000000000 ) ) ;
#270 = CC_DESIGN_SECURITY_CLASSIFICATION ( #103, ( #289 ) ) ;
#271 = ORIENTED_EDGE ( 'NONE', *, *, #44, .T. ) ;
#272 = SECURITY_CLASSIFICATION_LEVEL ( 'unclassified' ) ;
#273 = EDGE_LOOP ( 'NONE', ( #84, #280 ) ) ;
#274 = AXIS2_PLACEMENT_3D ( 'NONE', #217, #70, #74 ) ;
#275 = EDGE_CURVE ( 'NONE', #213, #177, #194, .T. ) ;
#276 = CALENDAR_DATE ( 2022, 20, 6 ) ;
#277 = CC_DESIGN_APPROVAL ( #106, ( #200 ) ) ;
#278 = PERSON_AND_ORGANIZATION ( #29, #94 ) ;
#279 = VERTEX_POINT ( 'NONE', #76 ) ;
#280 = ORIENTED_EDGE ( 'NONE', *, *, #133, .T. ) ;
#281 = CC_DESIGN_PERSON_AND_ORGANIZATION_ASSIGNMENT ( #278, #14, ( #158 ) ) ;
#282 =( GEOMETRIC_REPRESENTATION_CONTEXT ( 3 ) GLOBAL_UNCERTAINTY_ASSIGNED_CONTEXT ( ( #28 ) ) GLOBAL_UNIT_ASSIGNED_CONTEXT ( ( #145, #8, #265 ) ) REPRESENTATION_CONTEXT ( 'NONE', 'WORKASPACE' ) );
#283 = CARTESIAN_POINT ( 'NONE',  ( 0.000000000000000000, 0.000000000000000000, 1.500000000000000000 ) ) ;
#284 = DIRECTION ( 'NONE',  ( 1.000000000000000000, 0.000000000000000000, 0.000000000000000000 ) ) ;
#285 = AXIS2_PLACEMENT_3D ( 'NONE', #193, #50, #75 ) ;
#286 = PRODUCT_RELATED_PRODUCT_CATEGORY ( 'detail', '', ( #158 ) ) ;
#287 = ORIENTED_EDGE ( 'NONE', *, *, #307, .F. ) ;
#288 = VECTOR ( 'NONE', #219, 1000.000000000000000 ) ;
#289 = PRODUCT_DEFINITION_FORMATION_WITH_SPECIFIED_SOURCE ( 'LIBOVOLNÝ', '', #158, .NOT_KNOWN. ) ;
#290 = DIRECTION ( 'NONE',  ( 1.000000000000000000, 0.000000000000000000, 0.000000000000000000 ) ) ;
#291 = CARTESIAN_POINT ( 'NONE',  ( 1.100000000000000089, 0.000000000000000000, 1.500000000000003553 ) ) ;
#292 = ADVANCED_FACE ( 'NONE', ( #175, #33 ), #176, .T. ) ;
#293 = CARTESIAN_POINT ( 'NONE',  ( -1.100000000000000089, 1.347111479062088503E-16, 1.700000000000007061 ) ) ;
#294 = CARTESIAN_POINT ( 'NONE',  ( 0.000000000000000000, 0.000000000000000000, 1.500000000000000000 ) ) ;
#295 = EDGE_CURVE ( 'NONE', #116, #111, #56, .T. ) ;
#296 = SHAPE_DEFINITION_REPRESENTATION ( #154, #153 ) ;
#297 = EDGE_LOOP ( 'NONE', ( #165, #136 ) ) ;
#298 = VECTOR ( 'NONE', #225, 1000.000000000000000 ) ;
#299 = COORDINATED_UNIVERSAL_TIME_OFFSET ( 1, 0, .AHEAD. ) ;
#300 = ORIENTED_EDGE ( 'NONE', *, *, #222, .F. ) ;
#301 = DATE_AND_TIME ( #162, #252 ) ;
#302 = ORIENTED_EDGE ( 'NONE', *, *, #247, .T. ) ;
#303 = ORIENTED_EDGE ( 'NONE', *, *, #247, .F. ) ;
#304 = AXIS2_PLACEMENT_3D ( 'NONE', #293, #131, #105 ) ;
#305 = DIRECTION ( 'NONE',  ( 0.000000000000000000, 0.000000000000000000, 1.000000000000000000 ) ) ;
#306 = ORIENTED_EDGE ( 'NONE', *, *, #97, .F. ) ;
#307 = EDGE_CURVE ( 'NONE', #18, #279, #77, .T. ) ;
ENDSEC;
END-ISO-10303-21;
