ISO-10303-21;
HEADER;
FILE_DESCRIPTION (( 'STEP AP203' ),
    '1' );
FILE_NAME ('ea0d.STEP',
    '2022-06-20T10:31:26',
    ( '' ),
    ( '' ),
    'SwSTEP 2.0',
    'SolidWorks 2019',
    '' );
FILE_SCHEMA (( 'CONFIG_CONTROL_DESIGN' ));
ENDSEC;

DATA;
#1 = CARTESIAN_POINT ( 'NONE',  ( 0.000000000000000000, 0.000000000000000000, 1.199999999999999956 ) ) ;
#2 = ADVANCED_FACE ( 'NONE', ( #54, #20 ), #107, .T. ) ;
#3 = ORIENTED_EDGE ( 'NONE', *, *, #74, .F. ) ;
#4 = VERTEX_POINT ( 'NONE', #6 ) ;
#5 = EDGE_CURVE ( 'NONE', #50, #197, #187, .T. ) ;
#6 = CARTESIAN_POINT ( 'NONE',  ( -0.5000000000000000000, 0.000000000000000000, 1.399999999999998579 ) ) ;
#7 = AXIS2_PLACEMENT_3D ( 'NONE', #250, #116, #64 ) ;
#8 = ORIENTED_EDGE ( 'NONE', *, *, #58, .T. ) ;
#9 = APPROVAL_DATE_TIME ( #25, #167 ) ;
#10 = ORIENTED_EDGE ( 'NONE', *, *, #282, .F. ) ;
#11 = DIRECTION ( 'NONE',  ( 1.224646799147353207E-16, 1.000000000000000000, -0.000000000000000000 ) ) ;
#12 = DIRECTION ( 'NONE',  ( 1.000000000000000000, 0.000000000000000000, 0.000000000000000000 ) ) ;
#13 = DIRECTION ( 'NONE',  ( 0.000000000000000000, 0.000000000000000000, 1.000000000000000000 ) ) ;
#14 = CARTESIAN_POINT ( 'NONE',  ( 0.5000000000000000000, 6.123233995736766036E-17, 1.399999999999998579 ) ) ;
#15 = DIRECTION ( 'NONE',  ( -1.000000000000000000, 0.000000000000000000, 0.000000000000000000 ) ) ;
#16 = CYLINDRICAL_SURFACE ( 'NONE', #279, 1.250000000000000000 ) ;
#17 = APPROVAL_STATUS ( 'not_yet_approved' ) ;
#18 = PERSON_AND_ORGANIZATION_ROLE ( 'creator' ) ;
#19 = LINE ( 'NONE', #236, #215 ) ;
#20 = FACE_OUTER_BOUND ( 'NONE', #169, .T. ) ;
#21 =( NAMED_UNIT ( * ) PLANE_ANGLE_UNIT ( ) SI_UNIT ( $, .RADIAN. ) );
#22 = EDGE_CURVE ( 'NONE', #219, #52, #131, .T. ) ;
#23 = PRODUCT_DEFINITION_FORMATION_WITH_SPECIFIED_SOURCE ( 'LIBOVOLNÝ', '', #61, .NOT_KNOWN. ) ;
#24 = ORIENTED_EDGE ( 'NONE', *, *, #199, .F. ) ;
#25 = DATE_AND_TIME ( #192, #281 ) ;
#26 = CARTESIAN_POINT ( 'NONE',  ( 0.000000000000000000, 0.000000000000000000, 1.199999999999999956 ) ) ;
#27 = DATE_TIME_ROLE ( 'classification_date' ) ;
#28 = VERTEX_POINT ( 'NONE', #157 ) ;
#29 = AXIS2_PLACEMENT_3D ( 'NONE', #291, #266, #304 ) ;
#30 = COORDINATED_UNIVERSAL_TIME_OFFSET ( 1, 0, .AHEAD. ) ;
#31 = EDGE_LOOP ( 'NONE', ( #241, #123, #196, #104 ) ) ;
#32 = AXIS2_PLACEMENT_3D ( 'NONE', #26, #124, #62 ) ;
#33 = LINE ( 'NONE', #232, #170 ) ;
#34 = DIRECTION ( 'NONE',  ( 0.000000000000000000, -1.000000000000000000, 0.000000000000000000 ) ) ;
#35 = DIRECTION ( 'NONE',  ( 1.000000000000000000, 0.000000000000000000, 0.000000000000000000 ) ) ;
#36 = AXIS2_PLACEMENT_3D ( 'NONE', #202, #267, #35 ) ;
#37 = DIRECTION ( 'NONE',  ( 0.000000000000000000, 0.000000000000000000, -1.000000000000000000 ) ) ;
#38 = ADVANCED_FACE ( 'NONE', ( #65 ), #16, .T. ) ;
#39 = DIRECTION ( 'NONE',  ( -0.000000000000000000, -0.000000000000000000, -1.000000000000000000 ) ) ;
#40 = AXIS2_PLACEMENT_3D ( 'NONE', #229, #248, #205 ) ;
#41 = CYLINDRICAL_SURFACE ( 'NONE', #189, 0.5000000000000000000 ) ;
#42 = AXIS2_PLACEMENT_3D ( 'NONE', #113, #182, #211 ) ;
#43 = ADVANCED_FACE ( 'NONE', ( #133 ), #209, .F. ) ;
#44 = DATE_AND_TIME ( #307, #277 ) ;
#45 = CYLINDRICAL_SURFACE ( 'NONE', #156, 1.250000000000000000 ) ;
#46 = CIRCLE ( 'NONE', #145, 0.5000000000000000000 ) ;
#47 = CYLINDRICAL_SURFACE ( 'NONE', #7, 0.5000000000000000000 ) ;
#48 = PERSON_AND_ORGANIZATION ( #305, #290 ) ;
#49 = PRODUCT_DEFINITION ( 'NEZNÁMÝ', '', #23, #299 ) ;
#50 = VERTEX_POINT ( 'NONE', #115 ) ;
#51 = AXIS2_PLACEMENT_3D ( 'NONE', #275, #153, #12 ) ;
#52 = VERTEX_POINT ( 'NONE', #185 ) ;
#53 = AXIS2_PLACEMENT_3D ( 'NONE', #246, #249, #114 ) ;
#54 = FACE_BOUND ( 'NONE', #244, .T. ) ;
#55 = ORIENTED_EDGE ( 'NONE', *, *, #22, .T. ) ;
#56 = TOROIDAL_SURFACE ( 'NONE', #70, 0.6999999999999999556, 0.2000000000000000111 ) ;
#57 = SECURITY_CLASSIFICATION ( '', '', #243 ) ;
#58 = EDGE_CURVE ( 'NONE', #197, #50, #247, .T. ) ;
#59 = ORIENTED_EDGE ( 'NONE', *, *, #74, .T. ) ;
#60 = CARTESIAN_POINT ( 'NONE',  ( -0.5000000000000000000, 0.000000000000000000, 101.2000000000000171 ) ) ;
#61 = PRODUCT ( 'ea0d', 'ea0d', '', ( #306 ) ) ;
#62 = DIRECTION ( 'NONE',  ( 1.000000000000000000, 0.000000000000000000, 0.000000000000000000 ) ) ;
#63 = CIRCLE ( 'NONE', #283, 0.2000000000000000944 ) ;
#64 = DIRECTION ( 'NONE',  ( -1.000000000000000000, 0.000000000000000000, 0.000000000000000000 ) ) ;
#65 = FACE_OUTER_BOUND ( 'NONE', #77, .T. ) ;
#66 = EDGE_CURVE ( 'NONE', #28, #193, #155, .T. ) ;
#67 = LOCAL_TIME ( 12, 31, 26.00000000000000000, #30 ) ;
#68 = DIRECTION ( 'NONE',  ( 0.000000000000000000, 0.000000000000000000, 1.000000000000000000 ) ) ;
#69 = DIRECTION ( 'NONE',  ( 0.000000000000000000, 0.000000000000000000, 1.000000000000000000 ) ) ;
#70 = AXIS2_PLACEMENT_3D ( 'NONE', #274, #13, #138 ) ;
#71 = DIRECTION ( 'NONE',  ( -0.000000000000000000, -0.000000000000000000, -1.000000000000000000 ) ) ;
#72 = PERSON_AND_ORGANIZATION ( #305, #290 ) ;
#73 = DIRECTION ( 'NONE',  ( 0.000000000000000000, 0.000000000000000000, 1.000000000000000000 ) ) ;
#74 = EDGE_CURVE ( 'NONE', #4, #193, #98, .T. ) ;
#75 = APPROVAL_ROLE ( '' ) ;
#76 = AXIS2_PLACEMENT_3D ( 'NONE', #198, #265, #120 ) ;
#77 = EDGE_LOOP ( 'NONE', ( #176, #174, #195, #24 ) ) ;
#78 = EDGE_CURVE ( 'NONE', #193, #50, #63, .T. ) ;
#79 = CIRCLE ( 'NONE', #42, 0.5000000000000000000 ) ;
#80 = EDGE_LOOP ( 'NONE', ( #223, #100 ) ) ;
#81 = CC_DESIGN_APPROVAL ( #167, ( #57 ) ) ;
#82 = ORIENTED_EDGE ( 'NONE', *, *, #78, .F. ) ;
#83 = ORIENTED_EDGE ( 'NONE', *, *, #5, .F. ) ;
#84 = EDGE_CURVE ( 'NONE', #28, #289, #102, .T. ) ;
#85 = EDGE_LOOP ( 'NONE', ( #108, #152 ) ) ;
#86 = FACE_OUTER_BOUND ( 'NONE', #31, .T. ) ;
#87 = CARTESIAN_POINT ( 'NONE',  ( 0.000000000000000000, 0.000000000000000000, 101.2000000000000171 ) ) ;
#88 = DIRECTION ( 'NONE',  ( 1.000000000000000000, 0.000000000000000000, -0.000000000000000000 ) ) ;
#89 = CARTESIAN_POINT ( 'NONE',  ( 0.000000000000000000, 0.000000000000000000, 101.2000000000000171 ) ) ;
#90 = CARTESIAN_POINT ( 'NONE',  ( 0.000000000000000000, 0.000000000000000000, 0.000000000000000000 ) ) ;
#91 = AXIS2_PLACEMENT_3D ( 'NONE', #146, #260, #147 ) ;
#92 = CC_DESIGN_PERSON_AND_ORGANIZATION_ASSIGNMENT ( #118, #262, ( #23 ) ) ;
#93 = FACE_OUTER_BOUND ( 'NONE', #105, .T. ) ;
#94 = FACE_OUTER_BOUND ( 'NONE', #238, .T. ) ;
#95 = CIRCLE ( 'NONE', #251, 0.1999999999999999833 ) ;
#96 = ADVANCED_FACE ( 'NONE', ( #293 ), #41, .T. ) ;
#97 = CARTESIAN_POINT ( 'NONE',  ( -0.5000000000000000000, 0.000000000000000000, 101.2000000000000171 ) ) ;
#98 = CIRCLE ( 'NONE', #40, 0.5000000000000000000 ) ;
#99 = APPROVAL_DATE_TIME ( #44, #213 ) ;
#100 = ORIENTED_EDGE ( 'NONE', *, *, #144, .F. ) ;
#101 = ADVANCED_FACE ( 'NONE', ( #86 ), #56, .F. ) ;
#102 = CIRCLE ( 'NONE', #268, 0.5000000000000000000 ) ;
#103 = PERSON_AND_ORGANIZATION ( #305, #290 ) ;
#104 = ORIENTED_EDGE ( 'NONE', *, *, #58, .F. ) ;
#105 = EDGE_LOOP ( 'NONE', ( #129, #150, #245, #287 ) ) ;
#106 = ADVANCED_FACE ( 'NONE', ( #135 ), #183, .T. ) ;
#107 = PLANE ( 'NONE',  #91 ) ;
#108 = ORIENTED_EDGE ( 'NONE', *, *, #125, .T. ) ;
#109 = CARTESIAN_POINT ( 'NONE',  ( -0.6999999999999999556, 8.572527594031471957E-17, 1.399999999999998579 ) ) ;
#110 =( GEOMETRIC_REPRESENTATION_CONTEXT ( 3 ) GLOBAL_UNCERTAINTY_ASSIGNED_CONTEXT ( ( #230 ) ) GLOBAL_UNIT_ASSIGNED_CONTEXT ( ( #253, #21, #119 ) ) REPRESENTATION_CONTEXT ( 'NONE', 'WORKASPACE' ) );
#111 = APPLICATION_CONTEXT ( 'configuration controlled 3d designs of mechanical parts and assemblies' ) ;
#112 = CARTESIAN_POINT ( 'NONE',  ( 0.000000000000000000, 0.000000000000000000, 101.2000000000000171 ) ) ;
#113 = CARTESIAN_POINT ( 'NONE',  ( 0.000000000000000000, 0.000000000000000000, 1.399999999999998579 ) ) ;
#114 = DIRECTION ( 'NONE',  ( 1.000000000000000000, 0.000000000000000000, 0.000000000000000000 ) ) ;
#115 = CARTESIAN_POINT ( 'NONE',  ( 0.6999999999999999556, 0.000000000000000000, 1.199999999999999289 ) ) ;
#116 = DIRECTION ( 'NONE',  ( -0.000000000000000000, -0.000000000000000000, -1.000000000000000000 ) ) ;
#117 = DIRECTION ( 'NONE',  ( -0.000000000000000000, -0.000000000000000000, -1.000000000000000000 ) ) ;
#118 = PERSON_AND_ORGANIZATION ( #305, #290 ) ;
#119 =( NAMED_UNIT ( * ) SI_UNIT ( $, .STERADIAN. ) SOLID_ANGLE_UNIT ( ) );
#120 = DIRECTION ( 'NONE',  ( 1.000000000000000000, 0.000000000000000000, 0.000000000000000000 ) ) ;
#121 = PERSON_AND_ORGANIZATION_ROLE ( 'design_owner' ) ;
#122 = APPLICATION_PROTOCOL_DEFINITION ( 'international standard', 'config_control_design', 1994, #111 ) ;
#123 = ORIENTED_EDGE ( 'NONE', *, *, #235, .F. ) ;
#124 = DIRECTION ( 'NONE',  ( 0.000000000000000000, 0.000000000000000000, 1.000000000000000000 ) ) ;
#125 = EDGE_CURVE ( 'NONE', #289, #28, #46, .T. ) ;
#126 = LOCAL_TIME ( 12, 31, 26.00000000000000000, #163 ) ;
#127 = APPROVAL_STATUS ( 'not_yet_approved' ) ;
#128 = VERTEX_POINT ( 'NONE', #225 ) ;
#129 = ORIENTED_EDGE ( 'NONE', *, *, #84, .F. ) ;
#130 = APPLICATION_CONTEXT ( 'configuration controlled 3d designs of mechanical parts and assemblies' ) ;
#131 = CIRCLE ( 'NONE', #32, 1.250000000000000000 ) ;
#132 = DIRECTION ( 'NONE',  ( 0.000000000000000000, 0.000000000000000000, 1.000000000000000000 ) ) ;
#133 = FACE_OUTER_BOUND ( 'NONE', #217, .T. ) ;
#134 = LINE ( 'NONE', #60, #303 ) ;
#135 = FACE_OUTER_BOUND ( 'NONE', #85, .T. ) ;
#136 = AXIS2_PLACEMENT_3D ( 'NONE', #226, #69, #270 ) ;
#137 = EDGE_CURVE ( 'NONE', #4, #197, #95, .T. ) ;
#138 = DIRECTION ( 'NONE',  ( 1.000000000000000000, 0.000000000000000000, 0.000000000000000000 ) ) ;
#139 = DIRECTION ( 'NONE',  ( -0.000000000000000000, -0.000000000000000000, -1.000000000000000000 ) ) ;
#140 = PERSON_AND_ORGANIZATION ( #305, #290 ) ;
#141 = APPROVAL ( #17, 'NEURÈENÝ' ) ;
#142 = CIRCLE ( 'NONE', #29, 1.250000000000000000 ) ;
#143 = DATE_AND_TIME ( #210, #264 ) ;
#144 = EDGE_CURVE ( 'NONE', #285, #128, #142, .T. ) ;
#145 = AXIS2_PLACEMENT_3D ( 'NONE', #112, #132, #231 ) ;
#146 = CARTESIAN_POINT ( 'NONE',  ( 0.000000000000000000, 0.000000000000000000, 1.199999999999999956 ) ) ;
#147 = DIRECTION ( 'NONE',  ( 1.000000000000000000, 0.000000000000000000, -0.000000000000000000 ) ) ;
#148 = ADVANCED_FACE ( 'NONE', ( #93 ), #47, .T. ) ;
#149 = MANIFOLD_SOLID_BREP ( 'Zaoblit1', #242 ) ;
#150 = ORIENTED_EDGE ( 'NONE', *, *, #66, .T. ) ;
#151 = ORIENTED_EDGE ( 'NONE', *, *, #137, .T. ) ;
#152 = ORIENTED_EDGE ( 'NONE', *, *, #84, .T. ) ;
#153 = DIRECTION ( 'NONE',  ( 0.000000000000000000, 0.000000000000000000, 1.000000000000000000 ) ) ;
#154 = PRODUCT_RELATED_PRODUCT_CATEGORY ( 'detail', '', ( #61 ) ) ;
#155 = LINE ( 'NONE', #273, #175 ) ;
#156 = AXIS2_PLACEMENT_3D ( 'NONE', #1, #139, #278 ) ;
#157 = CARTESIAN_POINT ( 'NONE',  ( 0.5000000000000000000, 6.123233995736766036E-17, 101.2000000000000171 ) ) ;
#158 = CC_DESIGN_DATE_AND_TIME_ASSIGNMENT ( #280, #233, ( #49 ) ) ;
#159 = DIRECTION ( 'NONE',  ( 1.000000000000000000, 0.000000000000000000, -0.000000000000000000 ) ) ;
#160 = APPROVAL_STATUS ( 'not_yet_approved' ) ;
#161 = APPROVAL_PERSON_ORGANIZATION ( #214, #213, #75 ) ;
#162 = CARTESIAN_POINT ( 'NONE',  ( 0.000000000000000000, 0.000000000000000000, 0.000000000000000000 ) ) ;
#163 = COORDINATED_UNIVERSAL_TIME_OFFSET ( 1, 0, .AHEAD. ) ;
#164 = DIRECTION ( 'NONE',  ( 1.000000000000000000, 0.000000000000000000, 0.000000000000000000 ) ) ;
#165 = AXIS2_PLACEMENT_3D ( 'NONE', #162, #73, #164 ) ;
#166 = PERSON_AND_ORGANIZATION ( #305, #290 ) ;
#167 = APPROVAL ( #127, 'NEURÈENÝ' ) ;
#168 = COORDINATED_UNIVERSAL_TIME_OFFSET ( 1, 0, .AHEAD. ) ;
#169 = EDGE_LOOP ( 'NONE', ( #221, #55 ) ) ;
#170 = VECTOR ( 'NONE', #181, 1000.000000000000000 ) ;
#171 = ADVANCED_FACE ( 'NONE', ( #301 ), #207, .F. ) ;
#172 = ORIENTED_EDGE ( 'NONE', *, *, #184, .T. ) ;
#173 = DATE_AND_TIME ( #257, #67 ) ;
#174 = ORIENTED_EDGE ( 'NONE', *, *, #282, .T. ) ;
#175 = VECTOR ( 'NONE', #39, 1000.000000000000000 ) ;
#176 = ORIENTED_EDGE ( 'NONE', *, *, #22, .F. ) ;
#177 = CIRCLE ( 'NONE', #51, 1.250000000000000000 ) ;
#178 = ORIENTED_EDGE ( 'NONE', *, *, #125, .F. ) ;
#179 = CC_DESIGN_PERSON_AND_ORGANIZATION_ASSIGNMENT ( #72, #188, ( #49 ) ) ;
#180 = DIRECTION ( 'NONE',  ( -1.000000000000000000, 0.000000000000000000, 0.000000000000000000 ) ) ;
#181 = DIRECTION ( 'NONE',  ( -0.000000000000000000, -0.000000000000000000, -1.000000000000000000 ) ) ;
#182 = DIRECTION ( 'NONE',  ( 0.000000000000000000, 0.000000000000000000, 1.000000000000000000 ) ) ;
#183 = PLANE ( 'NONE',  #272 ) ;
#184 = EDGE_CURVE ( 'NONE', #289, #4, #134, .T. ) ;
#185 = CARTESIAN_POINT ( 'NONE',  ( -1.250000000000000000, 0.000000000000000000, 1.199999999999999956 ) ) ;
#186 = CC_DESIGN_PERSON_AND_ORGANIZATION_ASSIGNMENT ( #48, #121, ( #61 ) ) ;
#187 = CIRCLE ( 'NONE', #76, 0.6999999999999999556 ) ;
#188 = PERSON_AND_ORGANIZATION_ROLE ( 'creator' ) ;
#189 = AXIS2_PLACEMENT_3D ( 'NONE', #300, #117, #180 ) ;
#190 = SHAPE_DEFINITION_REPRESENTATION ( #191, #224 ) ;
#191 = PRODUCT_DEFINITION_SHAPE ( 'NONE', 'NONE',  #49 ) ;
#192 = CALENDAR_DATE ( 2022, 20, 6 ) ;
#193 = VERTEX_POINT ( 'NONE', #14 ) ;
#194 = EDGE_CURVE ( 'NONE', #52, #219, #177, .T. ) ;
#195 = ORIENTED_EDGE ( 'NONE', *, *, #144, .T. ) ;
#196 = ORIENTED_EDGE ( 'NONE', *, *, #78, .T. ) ;
#197 = VERTEX_POINT ( 'NONE', #294 ) ;
#198 = CARTESIAN_POINT ( 'NONE',  ( 0.000000000000000000, 0.000000000000000000, 1.199999999999999956 ) ) ;
#199 = EDGE_CURVE ( 'NONE', #52, #128, #33, .T. ) ;
#200 = APPROVAL_PERSON_ORGANIZATION ( #166, #141, #256 ) ;
#201 = DIRECTION ( 'NONE',  ( -1.000000000000000000, 1.224646799147352714E-16, 0.000000000000000000 ) ) ;
#202 = CARTESIAN_POINT ( 'NONE',  ( 0.000000000000000000, 0.000000000000000000, 0.000000000000000000 ) ) ;
#203 = EDGE_CURVE ( 'NONE', #128, #285, #296, .T. ) ;
#204 = DIRECTION ( 'NONE',  ( 0.000000000000000000, 0.000000000000000000, 1.000000000000000000 ) ) ;
#205 = DIRECTION ( 'NONE',  ( 1.000000000000000000, 0.000000000000000000, 0.000000000000000000 ) ) ;
#206 = CC_DESIGN_APPROVAL ( #213, ( #49 ) ) ;
#207 = PLANE ( 'NONE',  #220 ) ;
#208 = DIRECTION ( 'NONE',  ( -0.000000000000000000, -0.000000000000000000, -1.000000000000000000 ) ) ;
#209 = TOROIDAL_SURFACE ( 'NONE', #136, 0.6999999999999999556, 0.2000000000000000111 ) ;
#210 = CALENDAR_DATE ( 2022, 20, 6 ) ;
#211 = DIRECTION ( 'NONE',  ( 1.000000000000000000, 0.000000000000000000, 0.000000000000000000 ) ) ;
#212 = APPLICATION_PROTOCOL_DEFINITION ( 'international standard', 'config_control_design', 1994, #130 ) ;
#213 = APPROVAL ( #160, 'NEURÈENÝ' ) ;
#214 = PERSON_AND_ORGANIZATION ( #305, #290 ) ;
#215 = VECTOR ( 'NONE', #71, 1000.000000000000000 ) ;
#216 = APPROVAL_PERSON_ORGANIZATION ( #237, #167, #240 ) ;
#217 = EDGE_LOOP ( 'NONE', ( #3, #151, #83, #82 ) ) ;
#218 = ORIENTED_EDGE ( 'NONE', *, *, #66, .F. ) ;
#219 = VERTEX_POINT ( 'NONE', #227 ) ;
#220 = AXIS2_PLACEMENT_3D ( 'NONE', #90, #298, #88 ) ;
#221 = ORIENTED_EDGE ( 'NONE', *, *, #194, .T. ) ;
#222 = PERSON_AND_ORGANIZATION_ROLE ( 'classification_officer' ) ;
#223 = ORIENTED_EDGE ( 'NONE', *, *, #203, .F. ) ;
#224 = ADVANCED_BREP_SHAPE_REPRESENTATION ( 'ea0d', ( #149, #165 ), #110 ) ;
#225 = CARTESIAN_POINT ( 'NONE',  ( -1.250000000000000000, 0.000000000000000000, 0.000000000000000000 ) ) ;
#226 = CARTESIAN_POINT ( 'NONE',  ( 0.000000000000000000, 0.000000000000000000, 1.399999999999998579 ) ) ;
#227 = CARTESIAN_POINT ( 'NONE',  ( 1.250000000000000000, 1.530808498934191571E-16, 1.199999999999999956 ) ) ;
#228 = CARTESIAN_POINT ( 'NONE',  ( 0.000000000000000000, 0.000000000000000000, 1.199999999999999956 ) ) ;
#229 = CARTESIAN_POINT ( 'NONE',  ( 0.000000000000000000, 0.000000000000000000, 1.399999999999998579 ) ) ;
#230 = UNCERTAINTY_MEASURE_WITH_UNIT (LENGTH_MEASURE( 1.000000000000000082E-05 ), #253, 'distance_accuracy_value', 'NONE');
#231 = DIRECTION ( 'NONE',  ( 1.000000000000000000, 0.000000000000000000, 0.000000000000000000 ) ) ;
#232 = CARTESIAN_POINT ( 'NONE',  ( -1.250000000000000000, 0.000000000000000000, 1.199999999999999956 ) ) ;
#233 = DATE_TIME_ROLE ( 'creation_date' ) ;
#234 = COORDINATED_UNIVERSAL_TIME_OFFSET ( 1, 0, .AHEAD. ) ;
#235 = EDGE_CURVE ( 'NONE', #193, #4, #79, .T. ) ;
#236 = CARTESIAN_POINT ( 'NONE',  ( 1.250000000000000000, 1.530808498934191571E-16, 1.199999999999999956 ) ) ;
#237 = PERSON_AND_ORGANIZATION ( #305, #290 ) ;
#238 = EDGE_LOOP ( 'NONE', ( #10, #263, #261, #288 ) ) ;
#239 = ADVANCED_FACE ( 'NONE', ( #94 ), #45, .T. ) ;
#240 = APPROVAL_ROLE ( '' ) ;
#241 = ORIENTED_EDGE ( 'NONE', *, *, #137, .F. ) ;
#242 = CLOSED_SHELL ( 'NONE', ( #43, #148, #38, #239, #2, #171, #96, #106, #101 ) ) ;
#243 = SECURITY_CLASSIFICATION_LEVEL ( 'unclassified' ) ;
#244 = EDGE_LOOP ( 'NONE', ( #258, #8 ) ) ;
#245 = ORIENTED_EDGE ( 'NONE', *, *, #235, .T. ) ;
#246 = CARTESIAN_POINT ( 'NONE',  ( 0.000000000000000000, 0.000000000000000000, 1.199999999999999956 ) ) ;
#247 = CIRCLE ( 'NONE', #53, 0.6999999999999999556 ) ;
#248 = DIRECTION ( 'NONE',  ( 0.000000000000000000, 0.000000000000000000, 1.000000000000000000 ) ) ;
#249 = DIRECTION ( 'NONE',  ( -0.000000000000000000, -0.000000000000000000, -1.000000000000000000 ) ) ;
#250 = CARTESIAN_POINT ( 'NONE',  ( 0.000000000000000000, 0.000000000000000000, 101.2000000000000171 ) ) ;
#251 = AXIS2_PLACEMENT_3D ( 'NONE', #109, #11, #201 ) ;
#252 = CALENDAR_DATE ( 2022, 20, 6 ) ;
#253 =( LENGTH_UNIT ( ) NAMED_UNIT ( * ) SI_UNIT ( .MILLI., .METRE. ) );
#254 = COORDINATED_UNIVERSAL_TIME_OFFSET ( 1, 0, .AHEAD. ) ;
#255 = CC_DESIGN_DATE_AND_TIME_ASSIGNMENT ( #173, #27, ( #57 ) ) ;
#256 = APPROVAL_ROLE ( '' ) ;
#257 = CALENDAR_DATE ( 2022, 20, 6 ) ;
#258 = ORIENTED_EDGE ( 'NONE', *, *, #5, .T. ) ;
#259 = CC_DESIGN_APPROVAL ( #141, ( #23 ) ) ;
#260 = DIRECTION ( 'NONE',  ( 0.000000000000000000, 0.000000000000000000, 1.000000000000000000 ) ) ;
#261 = ORIENTED_EDGE ( 'NONE', *, *, #199, .T. ) ;
#262 = PERSON_AND_ORGANIZATION_ROLE ( 'design_supplier' ) ;
#263 = ORIENTED_EDGE ( 'NONE', *, *, #194, .F. ) ;
#264 = LOCAL_TIME ( 12, 31, 26.00000000000000000, #254 ) ;
#265 = DIRECTION ( 'NONE',  ( -0.000000000000000000, -0.000000000000000000, -1.000000000000000000 ) ) ;
#266 = DIRECTION ( 'NONE',  ( 0.000000000000000000, 0.000000000000000000, 1.000000000000000000 ) ) ;
#267 = DIRECTION ( 'NONE',  ( 0.000000000000000000, 0.000000000000000000, 1.000000000000000000 ) ) ;
#268 = AXIS2_PLACEMENT_3D ( 'NONE', #87, #204, #295 ) ;
#269 = CC_DESIGN_PERSON_AND_ORGANIZATION_ASSIGNMENT ( #103, #222, ( #57 ) ) ;
#270 = DIRECTION ( 'NONE',  ( 1.000000000000000000, 0.000000000000000000, 0.000000000000000000 ) ) ;
#271 = DIRECTION ( 'NONE',  ( -0.000000000000000000, -0.000000000000000000, -1.000000000000000000 ) ) ;
#272 = AXIS2_PLACEMENT_3D ( 'NONE', #89, #68, #159 ) ;
#273 = CARTESIAN_POINT ( 'NONE',  ( 0.5000000000000000000, 6.123233995736766036E-17, 101.2000000000000171 ) ) ;
#274 = CARTESIAN_POINT ( 'NONE',  ( 0.000000000000000000, 0.000000000000000000, 1.399999999999998579 ) ) ;
#275 = CARTESIAN_POINT ( 'NONE',  ( 0.000000000000000000, 0.000000000000000000, 1.199999999999999956 ) ) ;
#276 = CARTESIAN_POINT ( 'NONE',  ( 1.250000000000000000, 1.530808498934191571E-16, 0.000000000000000000 ) ) ;
#277 = LOCAL_TIME ( 12, 31, 26.00000000000000000, #234 ) ;
#278 = DIRECTION ( 'NONE',  ( -1.000000000000000000, 0.000000000000000000, 0.000000000000000000 ) ) ;
#279 = AXIS2_PLACEMENT_3D ( 'NONE', #228, #208, #15 ) ;
#280 = DATE_AND_TIME ( #252, #126 ) ;
#281 = LOCAL_TIME ( 12, 31, 26.00000000000000000, #168 ) ;
#282 = EDGE_CURVE ( 'NONE', #219, #285, #19, .T. ) ;
#283 = AXIS2_PLACEMENT_3D ( 'NONE', #297, #34, #37 ) ;
#284 = EDGE_LOOP ( 'NONE', ( #218, #178, #172, #59 ) ) ;
#285 = VERTEX_POINT ( 'NONE', #276 ) ;
#286 = CC_DESIGN_SECURITY_CLASSIFICATION ( #57, ( #23 ) ) ;
#287 = ORIENTED_EDGE ( 'NONE', *, *, #184, .F. ) ;
#288 = ORIENTED_EDGE ( 'NONE', *, *, #203, .T. ) ;
#289 = VERTEX_POINT ( 'NONE', #97 ) ;
#290 = ORGANIZATION ( 'NEURÈENÝ', 'NEURÈENÝ', '' ) ;
#291 = CARTESIAN_POINT ( 'NONE',  ( 0.000000000000000000, 0.000000000000000000, 0.000000000000000000 ) ) ;
#292 = CC_DESIGN_PERSON_AND_ORGANIZATION_ASSIGNMENT ( #140, #18, ( #23 ) ) ;
#293 = FACE_OUTER_BOUND ( 'NONE', #284, .T. ) ;
#294 = CARTESIAN_POINT ( 'NONE',  ( -0.6999999999999999556, 8.572527594031473190E-17, 1.199999999999999289 ) ) ;
#295 = DIRECTION ( 'NONE',  ( 1.000000000000000000, 0.000000000000000000, 0.000000000000000000 ) ) ;
#296 = CIRCLE ( 'NONE', #36, 1.250000000000000000 ) ;
#297 = CARTESIAN_POINT ( 'NONE',  ( 0.6999999999999999556, 0.000000000000000000, 1.399999999999998579 ) ) ;
#298 = DIRECTION ( 'NONE',  ( 0.000000000000000000, 0.000000000000000000, 1.000000000000000000 ) ) ;
#299 = DESIGN_CONTEXT ( 'detailed design', #111, 'design' ) ;
#300 = CARTESIAN_POINT ( 'NONE',  ( 0.000000000000000000, 0.000000000000000000, 101.2000000000000171 ) ) ;
#301 = FACE_OUTER_BOUND ( 'NONE', #80, .T. ) ;
#302 = APPROVAL_DATE_TIME ( #143, #141 ) ;
#303 = VECTOR ( 'NONE', #271, 1000.000000000000000 ) ;
#304 = DIRECTION ( 'NONE',  ( 1.000000000000000000, 0.000000000000000000, 0.000000000000000000 ) ) ;
#305 = PERSON ( 'NEURÈENÝ', 'NEURÈENÝ', 'NEURÈENÝ', ('NEURÈENÝ'), ('NEURÈENÝ'), ('NEURÈENÝ') ) ;
#306 = MECHANICAL_CONTEXT ( 'NONE', #130, 'mechanical' ) ;
#307 = CALENDAR_DATE ( 2022, 20, 6 ) ;
ENDSEC;
END-ISO-10303-21;
