ISO-10303-21;
HEADER;
FILE_DESCRIPTION (( 'STEP AP203' ),
    '1' );
FILE_NAME ('bfb7.STEP',
    '2022-06-20T09:47:33',
    ( '' ),
    ( '' ),
    'SwSTEP 2.0',
    'SolidWorks 2019',
    '' );
FILE_SCHEMA (( 'CONFIG_CONTROL_DESIGN' ));
ENDSEC;

DATA;
#1 = PLANE ( 'NONE',  #33 ) ;
#2 = APPROVAL ( #159, 'NEURÈENÝ' ) ;
#3 = DIRECTION ( 'NONE',  ( -1.000000000000000000, 0.000000000000000000, 0.000000000000000000 ) ) ;
#4 = DIRECTION ( 'NONE',  ( 0.000000000000000000, 0.000000000000000000, 1.000000000000000000 ) ) ;
#5 = ADVANCED_FACE ( 'NONE', ( #263, #7 ), #1, .T. ) ;
#6 = ORIENTED_EDGE ( 'NONE', *, *, #199, .F. ) ;
#7 = FACE_OUTER_BOUND ( 'NONE', #246, .T. ) ;
#8 = DIRECTION ( 'NONE',  ( 0.000000000000000000, 0.000000000000000000, 1.000000000000000000 ) ) ;
#9 = VECTOR ( 'NONE', #244, 1000.000000000000000 ) ;
#10 = CYLINDRICAL_SURFACE ( 'NONE', #307, 7.000000000000000000 ) ;
#11 = PERSON_AND_ORGANIZATION ( #305, #142 ) ;
#12 = APPROVAL_PERSON_ORGANIZATION ( #11, #2, #228 ) ;
#13 = CARTESIAN_POINT ( 'NONE',  ( 0.000000000000000000, 0.000000000000000000, 5.199999999999996625 ) ) ;
#14 = DATE_AND_TIME ( #175, #155 ) ;
#15 = CARTESIAN_POINT ( 'NONE',  ( 0.000000000000000000, 0.000000000000000000, 5.000000000000000000 ) ) ;
#16 = CALENDAR_DATE ( 2022, 20, 6 ) ;
#17 = AXIS2_PLACEMENT_3D ( 'NONE', #143, #219, #3 ) ;
#18 = CARTESIAN_POINT ( 'NONE',  ( 7.000000000000000000, 8.572527594031473190E-16, 0.000000000000000000 ) ) ;
#19 = EDGE_CURVE ( 'NONE', #163, #120, #287, .T. ) ;
#20 = CIRCLE ( 'NONE', #96, 7.000000000000000000 ) ;
#21 = PERSON_AND_ORGANIZATION ( #305, #142 ) ;
#22 = CARTESIAN_POINT ( 'NONE',  ( 0.000000000000000000, 0.000000000000000000, 0.000000000000000000 ) ) ;
#23 = EDGE_LOOP ( 'NONE', ( #222, #268 ) ) ;
#24 = APPLICATION_CONTEXT ( 'configuration controlled 3d designs of mechanical parts and assemblies' ) ;
#25 = PRODUCT_DEFINITION_SHAPE ( 'NONE', 'NONE',  #141 ) ;
#26 = ADVANCED_FACE ( 'NONE', ( #49 ), #242, .T. ) ;
#27 = VERTEX_POINT ( 'NONE', #94 ) ;
#28 = EDGE_CURVE ( 'NONE', #73, #98, #191, .T. ) ;
#29 = VERTEX_POINT ( 'NONE', #31 ) ;
#30 = AXIS2_PLACEMENT_3D ( 'NONE', #276, #223, #229 ) ;
#31 = CARTESIAN_POINT ( 'NONE',  ( 4.299999999999998934, 0.000000000000000000, 4.999999999999998224 ) ) ;
#32 = ORIENTED_EDGE ( 'NONE', *, *, #289, .F. ) ;
#33 = AXIS2_PLACEMENT_3D ( 'NONE', #114, #50, #190 ) ;
#34 = ORIENTED_EDGE ( 'NONE', *, *, #281, .T. ) ;
#35 = AXIS2_PLACEMENT_3D ( 'NONE', #162, #66, #283 ) ;
#36 = DIRECTION ( 'NONE',  ( -1.000000000000000000, 1.224646799147353454E-16, 0.000000000000000000 ) ) ;
#37 = CYLINDRICAL_SURFACE ( 'NONE', #243, 4.099999999999999645 ) ;
#38 = PERSON_AND_ORGANIZATION_ROLE ( 'design_owner' ) ;
#39 = DIRECTION ( 'NONE',  ( 1.224646799147353207E-16, 1.000000000000000000, -0.000000000000000000 ) ) ;
#40 = APPROVAL_DATE_TIME ( #14, #247 ) ;
#41 = DIRECTION ( 'NONE',  ( -0.000000000000000000, -0.000000000000000000, -1.000000000000000000 ) ) ;
#42 = COORDINATED_UNIVERSAL_TIME_OFFSET ( 1, 0, .AHEAD. ) ;
#43 = FACE_OUTER_BOUND ( 'NONE', #74, .T. ) ;
#44 = CALENDAR_DATE ( 2022, 20, 6 ) ;
#45 = DIRECTION ( 'NONE',  ( 0.000000000000000000, 0.000000000000000000, 1.000000000000000000 ) ) ;
#46 = DIRECTION ( 'NONE',  ( 0.000000000000000000, 0.000000000000000000, 1.000000000000000000 ) ) ;
#47 = CIRCLE ( 'NONE', #217, 4.099999999999999645 ) ;
#48 = DIRECTION ( 'NONE',  ( 1.000000000000000000, 0.000000000000000000, 0.000000000000000000 ) ) ;
#49 = FACE_OUTER_BOUND ( 'NONE', #90, .T. ) ;
#50 = DIRECTION ( 'NONE',  ( 0.000000000000000000, 0.000000000000000000, 1.000000000000000000 ) ) ;
#51 = EDGE_LOOP ( 'NONE', ( #221, #6, #291, #306 ) ) ;
#52 = ORIENTED_EDGE ( 'NONE', *, *, #240, .T. ) ;
#53 = ORIENTED_EDGE ( 'NONE', *, *, #186, .T. ) ;
#54 = CARTESIAN_POINT ( 'NONE',  ( 0.000000000000000000, 0.000000000000000000, 5.000000000000000000 ) ) ;
#55 = EDGE_CURVE ( 'NONE', #27, #98, #133, .T. ) ;
#56 = DIRECTION ( 'NONE',  ( -0.000000000000000000, -0.000000000000000000, -1.000000000000000000 ) ) ;
#57 = APPROVAL_STATUS ( 'not_yet_approved' ) ;
#58 = ADVANCED_FACE ( 'NONE', ( #84 ), #176, .T. ) ;
#59 = DIRECTION ( 'NONE',  ( 1.000000000000000000, 0.000000000000000000, 0.000000000000000000 ) ) ;
#60 = CIRCLE ( 'NONE', #161, 4.299999999999998934 ) ;
#61 = PERSON_AND_ORGANIZATION ( #305, #142 ) ;
#62 = DIRECTION ( 'NONE',  ( 1.000000000000000000, 0.000000000000000000, 0.000000000000000000 ) ) ;
#63 = CC_DESIGN_DATE_AND_TIME_ASSIGNMENT ( #300, #207, ( #141 ) ) ;
#64 = APPROVAL_ROLE ( '' ) ;
#65 = FACE_OUTER_BOUND ( 'NONE', #166, .T. ) ;
#66 = DIRECTION ( 'NONE',  ( 0.000000000000000000, 0.000000000000000000, 1.000000000000000000 ) ) ;
#67 = VERTEX_POINT ( 'NONE', #101 ) ;
#68 = DIRECTION ( 'NONE',  ( 0.000000000000000000, 0.000000000000000000, 1.000000000000000000 ) ) ;
#69 = CARTESIAN_POINT ( 'NONE',  ( 4.099999999999999645, 5.021051876504147385E-16, 105.0000000000000142 ) ) ;
#70 = CARTESIAN_POINT ( 'NONE',  ( 7.000000000000000000, 8.572527594031473190E-16, 5.000000000000000000 ) ) ;
#71 = AXIS2_PLACEMENT_3D ( 'NONE', #299, #41, #303 ) ;
#72 = APPROVAL_PERSON_ORGANIZATION ( #274, #247, #64 ) ;
#73 = VERTEX_POINT ( 'NONE', #248 ) ;
#74 = EDGE_LOOP ( 'NONE', ( #97, #265, #140, #288 ) ) ;
#75 = ORIENTED_EDGE ( 'NONE', *, *, #212, .F. ) ;
#76 = AXIS2_PLACEMENT_3D ( 'NONE', #301, #81, #105 ) ;
#77 = DIRECTION ( 'NONE',  ( 1.000000000000000000, 0.000000000000000000, 0.000000000000000000 ) ) ;
#78 = EDGE_CURVE ( 'NONE', #236, #67, #224, .T. ) ;
#79 = DIRECTION ( 'NONE',  ( -1.000000000000000000, 0.000000000000000000, 0.000000000000000000 ) ) ;
#80 = COORDINATED_UNIVERSAL_TIME_OFFSET ( 1, 0, .AHEAD. ) ;
#81 = DIRECTION ( 'NONE',  ( 0.000000000000000000, 0.000000000000000000, 1.000000000000000000 ) ) ;
#82 = DIRECTION ( 'NONE',  ( 1.000000000000000000, 0.000000000000000000, 0.000000000000000000 ) ) ;
#83 = ADVANCED_FACE ( 'NONE', ( #151 ), #252, .T. ) ;
#84 = FACE_OUTER_BOUND ( 'NONE', #95, .T. ) ;
#85 = AXIS2_PLACEMENT_3D ( 'NONE', #158, #198, #77 ) ;
#86 = DIRECTION ( 'NONE',  ( 0.000000000000000000, 0.000000000000000000, 1.000000000000000000 ) ) ;
#87 = PERSON_AND_ORGANIZATION_ROLE ( 'creator' ) ;
#88 = ADVANCED_FACE ( 'NONE', ( #178 ), #10, .T. ) ;
#89 = LOCAL_TIME ( 11, 47, 33.00000000000000000, #42 ) ;
#90 = EDGE_LOOP ( 'NONE', ( #167, #116, #245, #112 ) ) ;
#91 = CIRCLE ( 'NONE', #30, 7.000000000000000000 ) ;
#92 = ORIENTED_EDGE ( 'NONE', *, *, #199, .T. ) ;
#93 = CC_DESIGN_APPROVAL ( #247, ( #211 ) ) ;
#94 = CARTESIAN_POINT ( 'NONE',  ( -7.000000000000000000, 0.000000000000000000, 0.000000000000000000 ) ) ;
#95 = EDGE_LOOP ( 'NONE', ( #118, #53 ) ) ;
#96 = AXIS2_PLACEMENT_3D ( 'NONE', #15, #8, #62 ) ;
#97 = ORIENTED_EDGE ( 'NONE', *, *, #186, .F. ) ;
#98 = VERTEX_POINT ( 'NONE', #18 ) ;
#99 = LINE ( 'NONE', #128, #275 ) ;
#100 = CC_DESIGN_DATE_AND_TIME_ASSIGNMENT ( #230, #258, ( #194 ) ) ;
#101 = CARTESIAN_POINT ( 'NONE',  ( -4.099999999999999645, 0.000000000000000000, 5.199999999999996625 ) ) ;
#102 = PERSON_AND_ORGANIZATION_ROLE ( 'design_supplier' ) ;
#103 = DIRECTION ( 'NONE',  ( 0.000000000000000000, 0.000000000000000000, 1.000000000000000000 ) ) ;
#104 = SHAPE_DEFINITION_REPRESENTATION ( #25, #272 ) ;
#105 = DIRECTION ( 'NONE',  ( 1.000000000000000000, 0.000000000000000000, 0.000000000000000000 ) ) ;
#106 = APPROVAL_DATE_TIME ( #225, #2 ) ;
#107 = DIRECTION ( 'NONE',  ( 1.000000000000000000, 0.000000000000000000, 0.000000000000000000 ) ) ;
#108 = PERSON_AND_ORGANIZATION ( #305, #142 ) ;
#109 = PLANE ( 'NONE',  #206 ) ;
#110 = DIRECTION ( 'NONE',  ( 0.000000000000000000, 0.000000000000000000, 1.000000000000000000 ) ) ;
#111 = ADVANCED_FACE ( 'NONE', ( #65 ), #267, .F. ) ;
#112 = ORIENTED_EDGE ( 'NONE', *, *, #292, .T. ) ;
#113 = CIRCLE ( 'NONE', #294, 4.099999999999999645 ) ;
#114 = CARTESIAN_POINT ( 'NONE',  ( 0.000000000000000000, 0.000000000000000000, 5.000000000000000000 ) ) ;
#115 =( GEOMETRIC_REPRESENTATION_CONTEXT ( 3 ) GLOBAL_UNCERTAINTY_ASSIGNED_CONTEXT ( ( #119 ) ) GLOBAL_UNIT_ASSIGNED_CONTEXT ( ( #209, #134, #160 ) ) REPRESENTATION_CONTEXT ( 'NONE', 'WORKASPACE' ) );
#116 = ORIENTED_EDGE ( 'NONE', *, *, #235, .F. ) ;
#117 = MANIFOLD_SOLID_BREP ( 'Zaoblit1', #139 ) ;
#118 = ORIENTED_EDGE ( 'NONE', *, *, #235, .T. ) ;
#119 = UNCERTAINTY_MEASURE_WITH_UNIT (LENGTH_MEASURE( 1.000000000000000082E-05 ), #209, 'distance_accuracy_value', 'NONE');
#120 = VERTEX_POINT ( 'NONE', #130 ) ;
#121 = CIRCLE ( 'NONE', #85, 4.099999999999999645 ) ;
#122 = VERTEX_POINT ( 'NONE', #251 ) ;
#123 = CARTESIAN_POINT ( 'NONE',  ( 0.000000000000000000, 0.000000000000000000, 105.0000000000000142 ) ) ;
#124 = DIRECTION ( 'NONE',  ( 0.000000000000000000, 0.000000000000000000, 1.000000000000000000 ) ) ;
#125 = APPLICATION_PROTOCOL_DEFINITION ( 'international standard', 'config_control_design', 1994, #131 ) ;
#126 = CARTESIAN_POINT ( 'NONE',  ( 0.000000000000000000, 0.000000000000000000, 5.000000000000000000 ) ) ;
#127 = COORDINATED_UNIVERSAL_TIME_OFFSET ( 1, 0, .AHEAD. ) ;
#128 = CARTESIAN_POINT ( 'NONE',  ( -7.000000000000000000, 0.000000000000000000, 5.000000000000000000 ) ) ;
#129 = CALENDAR_DATE ( 2022, 20, 6 ) ;
#130 = CARTESIAN_POINT ( 'NONE',  ( 4.099999999999999645, 5.021051876504147385E-16, 5.199999999999996625 ) ) ;
#131 = APPLICATION_CONTEXT ( 'configuration controlled 3d designs of mechanical parts and assemblies' ) ;
#132 = MECHANICAL_CONTEXT ( 'NONE', #24, 'mechanical' ) ;
#133 = CIRCLE ( 'NONE', #183, 7.000000000000000000 ) ;
#134 =( NAMED_UNIT ( * ) PLANE_ANGLE_UNIT ( ) SI_UNIT ( $, .RADIAN. ) );
#135 = AXIS2_PLACEMENT_3D ( 'NONE', #205, #39, #36 ) ;
#136 = APPROVAL_STATUS ( 'not_yet_approved' ) ;
#137 = CARTESIAN_POINT ( 'NONE',  ( -4.299999999999998934, 5.265981236333617484E-16, 4.999999999999998224 ) ) ;
#138 = DIRECTION ( 'NONE',  ( 1.000000000000000000, 0.000000000000000000, 0.000000000000000000 ) ) ;
#139 = CLOSED_SHELL ( 'NONE', ( #111, #241, #88, #83, #5, #298, #26, #58, #259 ) ) ;
#140 = ORIENTED_EDGE ( 'NONE', *, *, #180, .T. ) ;
#141 = PRODUCT_DEFINITION ( 'NEZNÁMÝ', '', #211, #148 ) ;
#142 = ORGANIZATION ( 'NEURÈENÝ', 'NEURÈENÝ', '' ) ;
#143 = CARTESIAN_POINT ( 'NONE',  ( 0.000000000000000000, 0.000000000000000000, 105.0000000000000142 ) ) ;
#144 = ORIENTED_EDGE ( 'NONE', *, *, #28, .T. ) ;
#145 = ORIENTED_EDGE ( 'NONE', *, *, #212, .T. ) ;
#146 = AXIS2_PLACEMENT_3D ( 'NONE', #123, #103, #231 ) ;
#147 = ORIENTED_EDGE ( 'NONE', *, *, #240, .F. ) ;
#148 = DESIGN_CONTEXT ( 'detailed design', #131, 'design' ) ;
#149 = CARTESIAN_POINT ( 'NONE',  ( -4.099999999999999645, 0.000000000000000000, 105.0000000000000142 ) ) ;
#150 = CALENDAR_DATE ( 2022, 20, 6 ) ;
#151 = FACE_OUTER_BOUND ( 'NONE', #51, .T. ) ;
#152 = VECTOR ( 'NONE', #262, 1000.000000000000000 ) ;
#153 = PERSON_AND_ORGANIZATION ( #305, #142 ) ;
#154 = DIRECTION ( 'NONE',  ( -0.000000000000000000, -0.000000000000000000, -1.000000000000000000 ) ) ;
#155 = LOCAL_TIME ( 11, 47, 33.00000000000000000, #80 ) ;
#156 = SECURITY_CLASSIFICATION_LEVEL ( 'unclassified' ) ;
#157 = LOCAL_TIME ( 11, 47, 33.00000000000000000, #182 ) ;
#158 = CARTESIAN_POINT ( 'NONE',  ( 0.000000000000000000, 0.000000000000000000, 105.0000000000000142 ) ) ;
#159 = APPROVAL_STATUS ( 'not_yet_approved' ) ;
#160 =( NAMED_UNIT ( * ) SI_UNIT ( $, .STERADIAN. ) SOLID_ANGLE_UNIT ( ) );
#161 = AXIS2_PLACEMENT_3D ( 'NONE', #196, #173, #297 ) ;
#162 = CARTESIAN_POINT ( 'NONE',  ( 0.000000000000000000, 0.000000000000000000, 0.000000000000000000 ) ) ;
#163 = VERTEX_POINT ( 'NONE', #250 ) ;
#164 = CIRCLE ( 'NONE', #35, 7.000000000000000000 ) ;
#165 = PRODUCT_RELATED_PRODUCT_CATEGORY ( 'detail', '', ( #260 ) ) ;
#166 = EDGE_LOOP ( 'NONE', ( #266, #52, #216, #32 ) ) ;
#167 = ORIENTED_EDGE ( 'NONE', *, *, #19, .F. ) ;
#168 = ORIENTED_EDGE ( 'NONE', *, *, #289, .T. ) ;
#169 = ORIENTED_EDGE ( 'NONE', *, *, #180, .F. ) ;
#170 = ORIENTED_EDGE ( 'NONE', *, *, #278, .T. ) ;
#171 = AXIS2_PLACEMENT_3D ( 'NONE', #204, #124, #295 ) ;
#172 = AXIS2_PLACEMENT_3D ( 'NONE', #232, #257, #261 ) ;
#173 = DIRECTION ( 'NONE',  ( -0.000000000000000000, -0.000000000000000000, -1.000000000000000000 ) ) ;
#174 = LOCAL_TIME ( 11, 47, 33.00000000000000000, #181 ) ;
#175 = CALENDAR_DATE ( 2022, 20, 6 ) ;
#176 = PLANE ( 'NONE',  #146 ) ;
#177 = PERSON_AND_ORGANIZATION ( #305, #142 ) ;
#178 = FACE_OUTER_BOUND ( 'NONE', #192, .T. ) ;
#179 = CARTESIAN_POINT ( 'NONE',  ( 0.000000000000000000, 0.000000000000000000, 105.0000000000000142 ) ) ;
#180 = EDGE_CURVE ( 'NONE', #120, #67, #214, .T. ) ;
#181 = COORDINATED_UNIVERSAL_TIME_OFFSET ( 1, 0, .AHEAD. ) ;
#182 = COORDINATED_UNIVERSAL_TIME_OFFSET ( 1, 0, .AHEAD. ) ;
#183 = AXIS2_PLACEMENT_3D ( 'NONE', #220, #4, #254 ) ;
#184 = DIRECTION ( 'NONE',  ( -0.000000000000000000, -0.000000000000000000, -1.000000000000000000 ) ) ;
#185 = LOCAL_TIME ( 11, 47, 33.00000000000000000, #127 ) ;
#186 = EDGE_CURVE ( 'NONE', #163, #236, #113, .T. ) ;
#187 = EDGE_LOOP ( 'NONE', ( #147, #169, #168, #193 ) ) ;
#188 = VECTOR ( 'NONE', #56, 1000.000000000000000 ) ;
#189 = CC_DESIGN_PERSON_AND_ORGANIZATION_ASSIGNMENT ( #61, #102, ( #211 ) ) ;
#190 = DIRECTION ( 'NONE',  ( 1.000000000000000000, 0.000000000000000000, -0.000000000000000000 ) ) ;
#191 = LINE ( 'NONE', #70, #9 ) ;
#192 = EDGE_LOOP ( 'NONE', ( #75, #144, #34, #290 ) ) ;
#193 = ORIENTED_EDGE ( 'NONE', *, *, #255, .F. ) ;
#194 = SECURITY_CLASSIFICATION ( '', '', #156 ) ;
#195 = EDGE_LOOP ( 'NONE', ( #170, #285 ) ) ;
#196 = CARTESIAN_POINT ( 'NONE',  ( 0.000000000000000000, 0.000000000000000000, 5.000000000000000000 ) ) ;
#197 = CIRCLE ( 'NONE', #172, 0.1999999999999996503 ) ;
#198 = DIRECTION ( 'NONE',  ( 0.000000000000000000, 0.000000000000000000, 1.000000000000000000 ) ) ;
#199 = EDGE_CURVE ( 'NONE', #122, #73, #91, .T. ) ;
#200 = CC_DESIGN_APPROVAL ( #218, ( #194 ) ) ;
#201 = PERSON_AND_ORGANIZATION_ROLE ( 'creator' ) ;
#202 = DIRECTION ( 'NONE',  ( -1.000000000000000000, 0.000000000000000000, 0.000000000000000000 ) ) ;
#203 = APPLICATION_PROTOCOL_DEFINITION ( 'international standard', 'config_control_design', 1994, #24 ) ;
#204 = CARTESIAN_POINT ( 'NONE',  ( 0.000000000000000000, 0.000000000000000000, 5.199999999999996625 ) ) ;
#205 = CARTESIAN_POINT ( 'NONE',  ( -4.299999999999998934, 5.265981236333617484E-16, 5.199999999999996625 ) ) ;
#206 = AXIS2_PLACEMENT_3D ( 'NONE', #22, #110, #280 ) ;
#207 = DATE_TIME_ROLE ( 'creation_date' ) ;
#208 = FACE_OUTER_BOUND ( 'NONE', #23, .T. ) ;
#209 =( LENGTH_UNIT ( ) NAMED_UNIT ( * ) SI_UNIT ( .MILLI., .METRE. ) );
#210 = EDGE_CURVE ( 'NONE', #122, #27, #99, .T. ) ;
#211 = PRODUCT_DEFINITION_FORMATION_WITH_SPECIFIED_SOURCE ( 'LIBOVOLNÝ', '', #260, .NOT_KNOWN. ) ;
#212 = EDGE_CURVE ( 'NONE', #73, #122, #20, .T. ) ;
#213 = CC_DESIGN_SECURITY_CLASSIFICATION ( #194, ( #211 ) ) ;
#214 = CIRCLE ( 'NONE', #76, 4.099999999999999645 ) ;
#215 = CC_DESIGN_PERSON_AND_ORGANIZATION_ASSIGNMENT ( #153, #38, ( #260 ) ) ;
#216 = ORIENTED_EDGE ( 'NONE', *, *, #278, .F. ) ;
#217 = AXIS2_PLACEMENT_3D ( 'NONE', #237, #45, #48 ) ;
#218 = APPROVAL ( #57, 'NEURÈENÝ' ) ;
#219 = DIRECTION ( 'NONE',  ( -0.000000000000000000, -0.000000000000000000, -1.000000000000000000 ) ) ;
#220 = CARTESIAN_POINT ( 'NONE',  ( 0.000000000000000000, 0.000000000000000000, 0.000000000000000000 ) ) ;
#221 = ORIENTED_EDGE ( 'NONE', *, *, #28, .F. ) ;
#222 = ORIENTED_EDGE ( 'NONE', *, *, #55, .F. ) ;
#223 = DIRECTION ( 'NONE',  ( 0.000000000000000000, 0.000000000000000000, 1.000000000000000000 ) ) ;
#224 = LINE ( 'NONE', #271, #188 ) ;
#225 = DATE_AND_TIME ( #150, #185 ) ;
#226 = CC_DESIGN_APPROVAL ( #2, ( #141 ) ) ;
#227 = DIRECTION ( 'NONE',  ( -0.000000000000000000, -0.000000000000000000, -1.000000000000000000 ) ) ;
#228 = APPROVAL_ROLE ( '' ) ;
#229 = DIRECTION ( 'NONE',  ( 1.000000000000000000, 0.000000000000000000, 0.000000000000000000 ) ) ;
#230 = DATE_AND_TIME ( #129, #174 ) ;
#231 = DIRECTION ( 'NONE',  ( 1.000000000000000000, 0.000000000000000000, -0.000000000000000000 ) ) ;
#232 = CARTESIAN_POINT ( 'NONE',  ( 4.299999999999998934, 0.000000000000000000, 5.199999999999996625 ) ) ;
#233 = CIRCLE ( 'NONE', #264, 4.299999999999998934 ) ;
#234 = CARTESIAN_POINT ( 'NONE',  ( 0.000000000000000000, 0.000000000000000000, 0.000000000000000000 ) ) ;
#235 = EDGE_CURVE ( 'NONE', #236, #163, #121, .T. ) ;
#236 = VERTEX_POINT ( 'NONE', #149 ) ;
#237 = CARTESIAN_POINT ( 'NONE',  ( 0.000000000000000000, 0.000000000000000000, 5.199999999999996625 ) ) ;
#238 = CC_DESIGN_PERSON_AND_ORGANIZATION_ASSIGNMENT ( #21, #201, ( #141 ) ) ;
#239 = TOROIDAL_SURFACE ( 'NONE', #302, 4.299999999999998934, 0.2000000000000000111 ) ;
#240 = EDGE_CURVE ( 'NONE', #67, #293, #296, .T. ) ;
#241 = ADVANCED_FACE ( 'NONE', ( #43 ), #37, .T. ) ;
#242 = CYLINDRICAL_SURFACE ( 'NONE', #17, 4.099999999999999645 ) ;
#243 = AXIS2_PLACEMENT_3D ( 'NONE', #179, #277, #79 ) ;
#244 = DIRECTION ( 'NONE',  ( -0.000000000000000000, -0.000000000000000000, -1.000000000000000000 ) ) ;
#245 = ORIENTED_EDGE ( 'NONE', *, *, #78, .T. ) ;
#246 = EDGE_LOOP ( 'NONE', ( #92, #145 ) ) ;
#247 = APPROVAL ( #136, 'NEURÈENÝ' ) ;
#248 = CARTESIAN_POINT ( 'NONE',  ( 7.000000000000000000, 8.572527594031473190E-16, 5.000000000000000000 ) ) ;
#249 = APPROVAL_PERSON_ORGANIZATION ( #108, #218, #256 ) ;
#250 = CARTESIAN_POINT ( 'NONE',  ( 4.099999999999999645, 5.021051876504147385E-16, 105.0000000000000142 ) ) ;
#251 = CARTESIAN_POINT ( 'NONE',  ( -7.000000000000000000, 0.000000000000000000, 5.000000000000000000 ) ) ;
#252 = CYLINDRICAL_SURFACE ( 'NONE', #71, 7.000000000000000000 ) ;
#253 = PERSON_AND_ORGANIZATION_ROLE ( 'classification_officer' ) ;
#254 = DIRECTION ( 'NONE',  ( 1.000000000000000000, 0.000000000000000000, 0.000000000000000000 ) ) ;
#255 = EDGE_CURVE ( 'NONE', #293, #29, #60, .T. ) ;
#256 = APPROVAL_ROLE ( '' ) ;
#257 = DIRECTION ( 'NONE',  ( 0.000000000000000000, -1.000000000000000000, 0.000000000000000000 ) ) ;
#258 = DATE_TIME_ROLE ( 'classification_date' ) ;
#259 = ADVANCED_FACE ( 'NONE', ( #269 ), #239, .F. ) ;
#260 = PRODUCT ( 'bfb7', 'bfb7', '', ( #132 ) ) ;
#261 = DIRECTION ( 'NONE',  ( 0.000000000000000000, 0.000000000000000000, -1.000000000000000000 ) ) ;
#262 = DIRECTION ( 'NONE',  ( -0.000000000000000000, -0.000000000000000000, -1.000000000000000000 ) ) ;
#263 = FACE_BOUND ( 'NONE', #195, .T. ) ;
#264 = AXIS2_PLACEMENT_3D ( 'NONE', #126, #184, #138 ) ;
#265 = ORIENTED_EDGE ( 'NONE', *, *, #19, .T. ) ;
#266 = ORIENTED_EDGE ( 'NONE', *, *, #292, .F. ) ;
#267 = TOROIDAL_SURFACE ( 'NONE', #171, 4.299999999999998934, 0.2000000000000000111 ) ;
#268 = ORIENTED_EDGE ( 'NONE', *, *, #281, .F. ) ;
#269 = FACE_OUTER_BOUND ( 'NONE', #187, .T. ) ;
#270 = CC_DESIGN_PERSON_AND_ORGANIZATION_ASSIGNMENT ( #304, #253, ( #194 ) ) ;
#271 = CARTESIAN_POINT ( 'NONE',  ( -4.099999999999999645, 0.000000000000000000, 105.0000000000000142 ) ) ;
#272 = ADVANCED_BREP_SHAPE_REPRESENTATION ( 'bfb7', ( #117, #284 ), #115 ) ;
#273 = CARTESIAN_POINT ( 'NONE',  ( 0.000000000000000000, 0.000000000000000000, 105.0000000000000142 ) ) ;
#274 = PERSON_AND_ORGANIZATION ( #305, #142 ) ;
#275 = VECTOR ( 'NONE', #154, 1000.000000000000000 ) ;
#276 = CARTESIAN_POINT ( 'NONE',  ( 0.000000000000000000, 0.000000000000000000, 5.000000000000000000 ) ) ;
#277 = DIRECTION ( 'NONE',  ( -0.000000000000000000, -0.000000000000000000, -1.000000000000000000 ) ) ;
#278 = EDGE_CURVE ( 'NONE', #29, #293, #233, .T. ) ;
#279 = APPROVAL_DATE_TIME ( #282, #218 ) ;
#280 = DIRECTION ( 'NONE',  ( 1.000000000000000000, 0.000000000000000000, -0.000000000000000000 ) ) ;
#281 = EDGE_CURVE ( 'NONE', #98, #27, #164, .T. ) ;
#282 = DATE_AND_TIME ( #16, #157 ) ;
#283 = DIRECTION ( 'NONE',  ( 1.000000000000000000, 0.000000000000000000, 0.000000000000000000 ) ) ;
#284 = AXIS2_PLACEMENT_3D ( 'NONE', #234, #46, #82 ) ;
#285 = ORIENTED_EDGE ( 'NONE', *, *, #255, .T. ) ;
#286 = CC_DESIGN_PERSON_AND_ORGANIZATION_ASSIGNMENT ( #177, #87, ( #211 ) ) ;
#287 = LINE ( 'NONE', #69, #152 ) ;
#288 = ORIENTED_EDGE ( 'NONE', *, *, #78, .F. ) ;
#289 = EDGE_CURVE ( 'NONE', #120, #29, #197, .T. ) ;
#290 = ORIENTED_EDGE ( 'NONE', *, *, #210, .F. ) ;
#291 = ORIENTED_EDGE ( 'NONE', *, *, #210, .T. ) ;
#292 = EDGE_CURVE ( 'NONE', #67, #120, #47, .T. ) ;
#293 = VERTEX_POINT ( 'NONE', #137 ) ;
#294 = AXIS2_PLACEMENT_3D ( 'NONE', #273, #86, #59 ) ;
#295 = DIRECTION ( 'NONE',  ( 1.000000000000000000, 0.000000000000000000, 0.000000000000000000 ) ) ;
#296 = CIRCLE ( 'NONE', #135, 0.1999999999999996503 ) ;
#297 = DIRECTION ( 'NONE',  ( 1.000000000000000000, 0.000000000000000000, 0.000000000000000000 ) ) ;
#298 = ADVANCED_FACE ( 'NONE', ( #208 ), #109, .F. ) ;
#299 = CARTESIAN_POINT ( 'NONE',  ( 0.000000000000000000, 0.000000000000000000, 5.000000000000000000 ) ) ;
#300 = DATE_AND_TIME ( #44, #89 ) ;
#301 = CARTESIAN_POINT ( 'NONE',  ( 0.000000000000000000, 0.000000000000000000, 5.199999999999996625 ) ) ;
#302 = AXIS2_PLACEMENT_3D ( 'NONE', #13, #68, #107 ) ;
#303 = DIRECTION ( 'NONE',  ( -1.000000000000000000, 0.000000000000000000, 0.000000000000000000 ) ) ;
#304 = PERSON_AND_ORGANIZATION ( #305, #142 ) ;
#305 = PERSON ( 'NEURÈENÝ', 'NEURÈENÝ', 'NEURÈENÝ', ('NEURÈENÝ'), ('NEURÈENÝ'), ('NEURÈENÝ') ) ;
#306 = ORIENTED_EDGE ( 'NONE', *, *, #55, .T. ) ;
#307 = AXIS2_PLACEMENT_3D ( 'NONE', #54, #227, #202 ) ;
ENDSEC;
END-ISO-10303-21;
