ISO-10303-21;
HEADER;
FILE_DESCRIPTION (( 'STEP AP203' ),
    '1' );
FILE_NAME ('69e7.STEP',
    '2022-06-20T09:26:55',
    ( '' ),
    ( '' ),
    'SwSTEP 2.0',
    'SolidWorks 2019',
    '' );
FILE_SCHEMA (( 'CONFIG_CONTROL_DESIGN' ));
ENDSEC;

DATA;
#1 = ORIENTED_EDGE ( 'NONE', *, *, #206, .T. ) ;
#2 = CC_DESIGN_APPROVAL ( #296, ( #236 ) ) ;
#3 = DIRECTION ( 'NONE',  ( -0.000000000000000000, -0.000000000000000000, -1.000000000000000000 ) ) ;
#4 = AXIS2_PLACEMENT_3D ( 'NONE', #280, #114, #109 ) ;
#5 = EDGE_LOOP ( 'NONE', ( #155, #287 ) ) ;
#6 = DIRECTION ( 'NONE',  ( -1.000000000000000000, 1.224646799147358384E-16, 0.000000000000000000 ) ) ;
#7 = VERTEX_POINT ( 'NONE', #37 ) ;
#8 = DIRECTION ( 'NONE',  ( 1.224646799147353207E-16, 1.000000000000000000, -0.000000000000000000 ) ) ;
#9 = CC_DESIGN_APPROVAL ( #156, ( #60 ) ) ;
#10 = CC_DESIGN_PERSON_AND_ORGANIZATION_ASSIGNMENT ( #126, #105, ( #236 ) ) ;
#11 = PERSON_AND_ORGANIZATION ( #272, #154 ) ;
#12 = CIRCLE ( 'NONE', #191, 7.000000000000000888 ) ;
#13 = DIRECTION ( 'NONE',  ( 0.000000000000000000, 0.000000000000000000, 1.000000000000000000 ) ) ;
#14 = DIRECTION ( 'NONE',  ( 1.000000000000000000, 0.000000000000000000, 0.000000000000000000 ) ) ;
#15 = CARTESIAN_POINT ( 'NONE',  ( 0.000000000000000000, 0.000000000000000000, 7.000000000000000000 ) ) ;
#16 = EDGE_LOOP ( 'NONE', ( #173, #33, #249, #142 ) ) ;
#17 = COORDINATED_UNIVERSAL_TIME_OFFSET ( 1, 0, .AHEAD. ) ;
#18 = AXIS2_PLACEMENT_3D ( 'NONE', #73, #163, #90 ) ;
#19 = DIRECTION ( 'NONE',  ( 1.000000000000000000, 0.000000000000000000, -0.000000000000000000 ) ) ;
#20 = DIRECTION ( 'NONE',  ( -1.000000000000000000, 0.000000000000000000, 0.000000000000000000 ) ) ;
#21 = FACE_OUTER_BOUND ( 'NONE', #39, .T. ) ;
#22 = PERSON_AND_ORGANIZATION ( #272, #154 ) ;
#23 = CARTESIAN_POINT ( 'NONE',  ( 0.000000000000000000, 0.000000000000000000, 7.000000000000000000 ) ) ;
#24 = EDGE_CURVE ( 'NONE', #178, #28, #183, .T. ) ;
#25 = FACE_OUTER_BOUND ( 'NONE', #53, .T. ) ;
#26 = DIRECTION ( 'NONE',  ( -0.000000000000000000, -0.000000000000000000, -1.000000000000000000 ) ) ;
#27 = PRODUCT_RELATED_PRODUCT_CATEGORY ( 'detail', '', ( #195 ) ) ;
#28 = VERTEX_POINT ( 'NONE', #293 ) ;
#29 = ORIENTED_EDGE ( 'NONE', *, *, #206, .F. ) ;
#30 = DIRECTION ( 'NONE',  ( -0.000000000000000000, -0.000000000000000000, -1.000000000000000000 ) ) ;
#31 = ORIENTED_EDGE ( 'NONE', *, *, #232, .F. ) ;
#32 = EDGE_CURVE ( 'NONE', #148, #122, #238, .T. ) ;
#33 = ORIENTED_EDGE ( 'NONE', *, *, #224, .T. ) ;
#34 = VERTEX_POINT ( 'NONE', #160 ) ;
#35 = PERSON_AND_ORGANIZATION_ROLE ( 'creator' ) ;
#36 = APPROVAL_DATE_TIME ( #184, #296 ) ;
#37 = CARTESIAN_POINT ( 'NONE',  ( 7.000000000000000888, 8.572527594031474176E-16, 7.200000000000011724 ) ) ;
#38 = ORIENTED_EDGE ( 'NONE', *, *, #102, .T. ) ;
#39 = EDGE_LOOP ( 'NONE', ( #290, #243 ) ) ;
#40 = DIRECTION ( 'NONE',  ( -0.000000000000000000, -0.000000000000000000, -1.000000000000000000 ) ) ;
#41 = CYLINDRICAL_SURFACE ( 'NONE', #222, 11.00000000000000000 ) ;
#42 = VECTOR ( 'NONE', #70, 1000.000000000000000 ) ;
#43 = LOCAL_TIME ( 11, 26, 55.00000000000000000, #241 ) ;
#44 = PLANE ( 'NONE',  #267 ) ;
#45 = LINE ( 'NONE', #169, #251 ) ;
#46 = CALENDAR_DATE ( 2022, 20, 6 ) ;
#47 = DIRECTION ( 'NONE',  ( 0.000000000000000000, 0.000000000000000000, 1.000000000000000000 ) ) ;
#48 = AXIS2_PLACEMENT_3D ( 'NONE', #194, #285, #192 ) ;
#49 = FACE_OUTER_BOUND ( 'NONE', #5, .T. ) ;
#50 = EDGE_CURVE ( 'NONE', #28, #122, #63, .T. ) ;
#51 = CIRCLE ( 'NONE', #225, 0.1999999999999996503 ) ;
#52 = PERSON_AND_ORGANIZATION_ROLE ( 'classification_officer' ) ;
#53 = EDGE_LOOP ( 'NONE', ( #217, #58, #153, #131 ) ) ;
#54 = ORIENTED_EDGE ( 'NONE', *, *, #232, .T. ) ;
#55 = ORIENTED_EDGE ( 'NONE', *, *, #220, .T. ) ;
#56 = PERSON_AND_ORGANIZATION ( #272, #154 ) ;
#57 = COORDINATED_UNIVERSAL_TIME_OFFSET ( 1, 0, .AHEAD. ) ;
#58 = ORIENTED_EDGE ( 'NONE', *, *, #266, .T. ) ;
#59 = CC_DESIGN_PERSON_AND_ORGANIZATION_ASSIGNMENT ( #61, #52, ( #60 ) ) ;
#60 = SECURITY_CLASSIFICATION ( '', '', #179 ) ;
#61 = PERSON_AND_ORGANIZATION ( #272, #154 ) ;
#62 = APPROVAL_ROLE ( '' ) ;
#63 = LINE ( 'NONE', #257, #107 ) ;
#64 = DIRECTION ( 'NONE',  ( 1.000000000000000000, 0.000000000000000000, 0.000000000000000000 ) ) ;
#65 = ADVANCED_FACE ( 'NONE', ( #231 ), #265, .T. ) ;
#66 = DIRECTION ( 'NONE',  ( 0.000000000000000000, 0.000000000000000000, 1.000000000000000000 ) ) ;
#67 = CARTESIAN_POINT ( 'NONE',  ( -7.200000000000001066, 8.817456953860944275E-16, 7.000000000000006217 ) ) ;
#68 = PRODUCT_DEFINITION_FORMATION_WITH_SPECIFIED_SOURCE ( 'LIBOVOLNÝ', '', #195, .NOT_KNOWN. ) ;
#69 = CIRCLE ( 'NONE', #260, 7.000000000000000888 ) ;
#70 = DIRECTION ( 'NONE',  ( -0.000000000000000000, -0.000000000000000000, -1.000000000000000000 ) ) ;
#71 = DATE_AND_TIME ( #46, #244 ) ;
#72 = CYLINDRICAL_SURFACE ( 'NONE', #208, 7.000000000000000888 ) ;
#73 = CARTESIAN_POINT ( 'NONE',  ( 0.000000000000000000, 0.000000000000000000, 257.0000000000000000 ) ) ;
#74 = ADVANCED_FACE ( 'NONE', ( #21 ), #96, .T. ) ;
#75 = VERTEX_POINT ( 'NONE', #67 ) ;
#76 = DIRECTION ( 'NONE',  ( 0.000000000000000000, 0.000000000000000000, 1.000000000000000000 ) ) ;
#77 = ORIENTED_EDGE ( 'NONE', *, *, #224, .F. ) ;
#78 = ORIENTED_EDGE ( 'NONE', *, *, #268, .T. ) ;
#79 = CARTESIAN_POINT ( 'NONE',  ( 0.000000000000000000, 0.000000000000000000, 7.200000000000011724 ) ) ;
#80 = ORIENTED_EDGE ( 'NONE', *, *, #125, .T. ) ;
#81 = PERSON_AND_ORGANIZATION_ROLE ( 'design_supplier' ) ;
#82 = DIRECTION ( 'NONE',  ( 0.000000000000000000, 0.000000000000000000, 1.000000000000000000 ) ) ;
#83 = LOCAL_TIME ( 11, 26, 55.00000000000000000, #57 ) ;
#84 = VERTEX_POINT ( 'NONE', #284 ) ;
#85 = PERSON_AND_ORGANIZATION_ROLE ( 'design_owner' ) ;
#86 = CARTESIAN_POINT ( 'NONE',  ( 0.000000000000000000, 0.000000000000000000, 0.000000000000000000 ) ) ;
#87 = APPROVAL_DATE_TIME ( #115, #156 ) ;
#88 = EDGE_CURVE ( 'NONE', #34, #119, #242, .T. ) ;
#89 = ADVANCED_BREP_SHAPE_REPRESENTATION ( '69e7', ( #133, #288 ), #219 ) ;
#90 = DIRECTION ( 'NONE',  ( 1.000000000000000000, 0.000000000000000000, 0.000000000000000000 ) ) ;
#91 = CIRCLE ( 'NONE', #282, 11.00000000000000000 ) ;
#92 = DIRECTION ( 'NONE',  ( 1.000000000000000000, 0.000000000000000000, 0.000000000000000000 ) ) ;
#93 = EDGE_CURVE ( 'NONE', #119, #34, #103, .T. ) ;
#94 = LINE ( 'NONE', #193, #42 ) ;
#95 = LOCAL_TIME ( 11, 26, 55.00000000000000000, #108 ) ;
#96 = PLANE ( 'NONE',  #121 ) ;
#97 = CC_DESIGN_PERSON_AND_ORGANIZATION_ASSIGNMENT ( #11, #81, ( #68 ) ) ;
#98 = ORIENTED_EDGE ( 'NONE', *, *, #266, .F. ) ;
#99 = PRODUCT_DEFINITION_SHAPE ( 'NONE', 'NONE',  #236 ) ;
#100 = EDGE_LOOP ( 'NONE', ( #223, #147, #55, #204 ) ) ;
#101 = CIRCLE ( 'NONE', #140, 7.200000000000001066 ) ;
#102 = EDGE_CURVE ( 'NONE', #202, #7, #12, .T. ) ;
#103 = CIRCLE ( 'NONE', #279, 7.000000000000000888 ) ;
#104 = COORDINATED_UNIVERSAL_TIME_OFFSET ( 1, 0, .AHEAD. ) ;
#105 = PERSON_AND_ORGANIZATION_ROLE ( 'creator' ) ;
#106 = AXIS2_PLACEMENT_3D ( 'NONE', #198, #30, #221 ) ;
#107 = VECTOR ( 'NONE', #40, 1000.000000000000000 ) ;
#108 = COORDINATED_UNIVERSAL_TIME_OFFSET ( 1, 0, .AHEAD. ) ;
#109 = DIRECTION ( 'NONE',  ( -1.000000000000000000, 0.000000000000000000, 0.000000000000000000 ) ) ;
#110 = APPROVAL_PERSON_ORGANIZATION ( #22, #150, #301 ) ;
#111 = CC_DESIGN_PERSON_AND_ORGANIZATION_ASSIGNMENT ( #56, #35, ( #68 ) ) ;
#112 = FACE_BOUND ( 'NONE', #235, .T. ) ;
#113 = CARTESIAN_POINT ( 'NONE',  ( 0.000000000000000000, 0.000000000000000000, 257.0000000000000000 ) ) ;
#114 = DIRECTION ( 'NONE',  ( -0.000000000000000000, -0.000000000000000000, -1.000000000000000000 ) ) ;
#115 = DATE_AND_TIME ( #205, #95 ) ;
#116 = CIRCLE ( 'NONE', #106, 7.200000000000001066 ) ;
#117 = CARTESIAN_POINT ( 'NONE',  ( 0.000000000000000000, 0.000000000000000000, 7.200000000000011724 ) ) ;
#118 = CC_DESIGN_PERSON_AND_ORGANIZATION_ASSIGNMENT ( #203, #85, ( #195 ) ) ;
#119 = VERTEX_POINT ( 'NONE', #298 ) ;
#120 = CYLINDRICAL_SURFACE ( 'NONE', #229, 7.000000000000000888 ) ;
#121 = AXIS2_PLACEMENT_3D ( 'NONE', #302, #283, #263 ) ;
#122 = VERTEX_POINT ( 'NONE', #190 ) ;
#123 = CARTESIAN_POINT ( 'NONE',  ( -7.200000000000001066, 8.817456953860944275E-16, 7.200000000000011724 ) ) ;
#124 = ORIENTED_EDGE ( 'NONE', *, *, #88, .F. ) ;
#125 = EDGE_CURVE ( 'NONE', #7, #84, #51, .T. ) ;
#126 = PERSON_AND_ORGANIZATION ( #272, #154 ) ;
#127 = APPLICATION_CONTEXT ( 'configuration controlled 3d designs of mechanical parts and assemblies' ) ;
#128 = EDGE_CURVE ( 'NONE', #122, #148, #91, .T. ) ;
#129 = CARTESIAN_POINT ( 'NONE',  ( 0.000000000000000000, 0.000000000000000000, 7.000000000000000000 ) ) ;
#130 = CIRCLE ( 'NONE', #188, 0.1999999999999996503 ) ;
#131 = ORIENTED_EDGE ( 'NONE', *, *, #125, .F. ) ;
#132 = ADVANCED_FACE ( 'NONE', ( #25 ), #216, .F. ) ;
#133 = MANIFOLD_SOLID_BREP ( 'Zaoblit1', #162 ) ;
#134 = DIRECTION ( 'NONE',  ( -0.000000000000000000, -0.000000000000000000, -1.000000000000000000 ) ) ;
#135 = VECTOR ( 'NONE', #26, 1000.000000000000000 ) ;
#136 = FACE_OUTER_BOUND ( 'NONE', #100, .T. ) ;
#137 = AXIS2_PLACEMENT_3D ( 'NONE', #129, #230, #14 ) ;
#138 = DIRECTION ( 'NONE',  ( -0.000000000000000000, -0.000000000000000000, -1.000000000000000000 ) ) ;
#139 = DIRECTION ( 'NONE',  ( 1.000000000000000000, 0.000000000000000000, 0.000000000000000000 ) ) ;
#140 = AXIS2_PLACEMENT_3D ( 'NONE', #15, #177, #277 ) ;
#141 = CARTESIAN_POINT ( 'NONE',  ( 11.00000000000000000, 1.347111479062088405E-15, 7.000000000000000000 ) ) ;
#142 = ORIENTED_EDGE ( 'NONE', *, *, #50, .F. ) ;
#143 = ADVANCED_FACE ( 'NONE', ( #49 ), #44, .F. ) ;
#144 = FACE_OUTER_BOUND ( 'NONE', #175, .T. ) ;
#145 = APPROVAL_PERSON_ORGANIZATION ( #307, #156, #305 ) ;
#146 = APPLICATION_CONTEXT ( 'configuration controlled 3d designs of mechanical parts and assemblies' ) ;
#147 = ORIENTED_EDGE ( 'NONE', *, *, #197, .T. ) ;
#148 = VERTEX_POINT ( 'NONE', #258 ) ;
#149 = DIRECTION ( 'NONE',  ( 1.000000000000000000, 0.000000000000000000, 0.000000000000000000 ) ) ;
#150 = APPROVAL ( #212, 'NEURÈENÝ' ) ;
#151 = CALENDAR_DATE ( 2022, 20, 6 ) ;
#152 = CIRCLE ( 'NONE', #252, 11.00000000000000000 ) ;
#153 = ORIENTED_EDGE ( 'NONE', *, *, #268, .F. ) ;
#154 = ORGANIZATION ( 'NEURÈENÝ', 'NEURÈENÝ', '' ) ;
#155 = ORIENTED_EDGE ( 'NONE', *, *, #128, .F. ) ;
#156 = APPROVAL ( #167, 'NEURÈENÝ' ) ;
#157 = ORIENTED_EDGE ( 'NONE', *, *, #50, .T. ) ;
#158 = ORIENTED_EDGE ( 'NONE', *, *, #189, .T. ) ;
#159 = DATE_AND_TIME ( #180, #201 ) ;
#160 = CARTESIAN_POINT ( 'NONE',  ( -7.000000000000000888, 0.000000000000000000, 257.0000000000000000 ) ) ;
#161 = ADVANCED_FACE ( 'NONE', ( #207 ), #41, .T. ) ;
#162 = CLOSED_SHELL ( 'NONE', ( #132, #174, #161, #65, #171, #143, #250, #74, #281 ) ) ;
#163 = DIRECTION ( 'NONE',  ( 0.000000000000000000, 0.000000000000000000, 1.000000000000000000 ) ) ;
#164 = DIRECTION ( 'NONE',  ( 0.000000000000000000, 0.000000000000000000, 1.000000000000000000 ) ) ;
#165 = CC_DESIGN_SECURITY_CLASSIFICATION ( #60, ( #68 ) ) ;
#166 = FACE_OUTER_BOUND ( 'NONE', #187, .T. ) ;
#167 = APPROVAL_STATUS ( 'not_yet_approved' ) ;
#168 = CC_DESIGN_DATE_AND_TIME_ASSIGNMENT ( #159, #227, ( #236 ) ) ;
#169 = CARTESIAN_POINT ( 'NONE',  ( 7.000000000000000888, 8.572527594031474176E-16, 257.0000000000000000 ) ) ;
#170 = CARTESIAN_POINT ( 'NONE',  ( 7.200000000000001066, 0.000000000000000000, 7.200000000000011724 ) ) ;
#171 = ADVANCED_FACE ( 'NONE', ( #112, #166 ), #259, .T. ) ;
#172 = CARTESIAN_POINT ( 'NONE',  ( 0.000000000000000000, 0.000000000000000000, 257.0000000000000000 ) ) ;
#173 = ORIENTED_EDGE ( 'NONE', *, *, #24, .F. ) ;
#174 = ADVANCED_FACE ( 'NONE', ( #136 ), #72, .T. ) ;
#175 = EDGE_LOOP ( 'NONE', ( #271, #124, #158, #38 ) ) ;
#176 = UNCERTAINTY_MEASURE_WITH_UNIT (LENGTH_MEASURE( 1.000000000000000082E-05 ), #248, 'distance_accuracy_value', 'NONE');
#177 = DIRECTION ( 'NONE',  ( -0.000000000000000000, -0.000000000000000000, -1.000000000000000000 ) ) ;
#178 = VERTEX_POINT ( 'NONE', #300 ) ;
#179 = SECURITY_CLASSIFICATION_LEVEL ( 'unclassified' ) ;
#180 = CALENDAR_DATE ( 2022, 20, 6 ) ;
#181 = FACE_OUTER_BOUND ( 'NONE', #274, .T. ) ;
#182 = ORIENTED_EDGE ( 'NONE', *, *, #220, .F. ) ;
#183 = CIRCLE ( 'NONE', #137, 11.00000000000000000 ) ;
#184 = DATE_AND_TIME ( #151, #83 ) ;
#185 = DIRECTION ( 'NONE',  ( 0.000000000000000000, 0.000000000000000000, 1.000000000000000000 ) ) ;
#186 = CARTESIAN_POINT ( 'NONE',  ( 0.000000000000000000, 0.000000000000000000, 7.200000000000011724 ) ) ;
#187 = EDGE_LOOP ( 'NONE', ( #1, #218 ) ) ;
#188 = AXIS2_PLACEMENT_3D ( 'NONE', #123, #8, #6 ) ;
#189 = EDGE_CURVE ( 'NONE', #34, #202, #94, .T. ) ;
#190 = CARTESIAN_POINT ( 'NONE',  ( -11.00000000000000000, 0.000000000000000000, 0.000000000000000000 ) ) ;
#191 = AXIS2_PLACEMENT_3D ( 'NONE', #209, #304, #240 ) ;
#192 = DIRECTION ( 'NONE',  ( 1.000000000000000000, 0.000000000000000000, -0.000000000000000000 ) ) ;
#193 = CARTESIAN_POINT ( 'NONE',  ( -7.000000000000000888, 0.000000000000000000, 257.0000000000000000 ) ) ;
#194 = CARTESIAN_POINT ( 'NONE',  ( 0.000000000000000000, 0.000000000000000000, 7.000000000000000000 ) ) ;
#195 = PRODUCT ( '69e7', '69e7', '', ( #253 ) ) ;
#196 = DIRECTION ( 'NONE',  ( 0.000000000000000000, 0.000000000000000000, -1.000000000000000000 ) ) ;
#197 = EDGE_CURVE ( 'NONE', #119, #7, #45, .T. ) ;
#198 = CARTESIAN_POINT ( 'NONE',  ( 0.000000000000000000, 0.000000000000000000, 7.000000000000000000 ) ) ;
#199 = EDGE_LOOP ( 'NONE', ( #77, #29, #157, #276 ) ) ;
#200 = DIRECTION ( 'NONE',  ( -1.000000000000000000, 0.000000000000000000, 0.000000000000000000 ) ) ;
#201 = LOCAL_TIME ( 11, 26, 55.00000000000000000, #104 ) ;
#202 = VERTEX_POINT ( 'NONE', #239 ) ;
#203 = PERSON_AND_ORGANIZATION ( #272, #154 ) ;
#204 = ORIENTED_EDGE ( 'NONE', *, *, #189, .F. ) ;
#205 = CALENDAR_DATE ( 2022, 20, 6 ) ;
#206 = EDGE_CURVE ( 'NONE', #28, #178, #152, .T. ) ;
#207 = FACE_OUTER_BOUND ( 'NONE', #16, .T. ) ;
#208 = AXIS2_PLACEMENT_3D ( 'NONE', #113, #211, #213 ) ;
#209 = CARTESIAN_POINT ( 'NONE',  ( 0.000000000000000000, 0.000000000000000000, 7.200000000000011724 ) ) ;
#210 = DESIGN_CONTEXT ( 'detailed design', #146, 'design' ) ;
#211 = DIRECTION ( 'NONE',  ( -0.000000000000000000, -0.000000000000000000, -1.000000000000000000 ) ) ;
#212 = APPROVAL_STATUS ( 'not_yet_approved' ) ;
#213 = DIRECTION ( 'NONE',  ( -1.000000000000000000, 0.000000000000000000, 0.000000000000000000 ) ) ;
#214 = CARTESIAN_POINT ( 'NONE',  ( 0.000000000000000000, 0.000000000000000000, 257.0000000000000000 ) ) ;
#215 = CALENDAR_DATE ( 2022, 20, 6 ) ;
#216 = TOROIDAL_SURFACE ( 'NONE', #275, 7.200000000000001066, 0.2000000000000000111 ) ;
#217 = ORIENTED_EDGE ( 'NONE', *, *, #102, .F. ) ;
#218 = ORIENTED_EDGE ( 'NONE', *, *, #24, .T. ) ;
#219 =( GEOMETRIC_REPRESENTATION_CONTEXT ( 3 ) GLOBAL_UNCERTAINTY_ASSIGNED_CONTEXT ( ( #176 ) ) GLOBAL_UNIT_ASSIGNED_CONTEXT ( ( #248, #228, #255 ) ) REPRESENTATION_CONTEXT ( 'NONE', 'WORKASPACE' ) );
#220 = EDGE_CURVE ( 'NONE', #7, #202, #69, .T. ) ;
#221 = DIRECTION ( 'NONE',  ( 1.000000000000000000, 0.000000000000000000, 0.000000000000000000 ) ) ;
#222 = AXIS2_PLACEMENT_3D ( 'NONE', #237, #134, #20 ) ;
#223 = ORIENTED_EDGE ( 'NONE', *, *, #93, .F. ) ;
#224 = EDGE_CURVE ( 'NONE', #178, #148, #246, .T. ) ;
#225 = AXIS2_PLACEMENT_3D ( 'NONE', #170, #261, #196 ) ;
#226 = PERSON_AND_ORGANIZATION ( #272, #154 ) ;
#227 = DATE_TIME_ROLE ( 'creation_date' ) ;
#228 =( NAMED_UNIT ( * ) PLANE_ANGLE_UNIT ( ) SI_UNIT ( $, .RADIAN. ) );
#229 = AXIS2_PLACEMENT_3D ( 'NONE', #172, #3, #200 ) ;
#230 = DIRECTION ( 'NONE',  ( 0.000000000000000000, 0.000000000000000000, 1.000000000000000000 ) ) ;
#231 = FACE_OUTER_BOUND ( 'NONE', #199, .T. ) ;
#232 = EDGE_CURVE ( 'NONE', #75, #84, #116, .T. ) ;
#233 = DIRECTION ( 'NONE',  ( 0.000000000000000000, 0.000000000000000000, 1.000000000000000000 ) ) ;
#234 = CARTESIAN_POINT ( 'NONE',  ( 0.000000000000000000, 0.000000000000000000, 0.000000000000000000 ) ) ;
#235 = EDGE_LOOP ( 'NONE', ( #78, #54 ) ) ;
#236 = PRODUCT_DEFINITION ( 'NEZNÁMÝ', '', #68, #210 ) ;
#237 = CARTESIAN_POINT ( 'NONE',  ( 0.000000000000000000, 0.000000000000000000, 7.000000000000000000 ) ) ;
#238 = CIRCLE ( 'NONE', #262, 11.00000000000000000 ) ;
#239 = CARTESIAN_POINT ( 'NONE',  ( -7.000000000000000888, 0.000000000000000000, 7.200000000000011724 ) ) ;
#240 = DIRECTION ( 'NONE',  ( 1.000000000000000000, 0.000000000000000000, 0.000000000000000000 ) ) ;
#241 = COORDINATED_UNIVERSAL_TIME_OFFSET ( 1, 0, .AHEAD. ) ;
#242 = CIRCLE ( 'NONE', #18, 7.000000000000000888 ) ;
#243 = ORIENTED_EDGE ( 'NONE', *, *, #93, .T. ) ;
#244 = LOCAL_TIME ( 11, 26, 55.00000000000000000, #17 ) ;
#245 = AXIS2_PLACEMENT_3D ( 'NONE', #186, #13, #149 ) ;
#246 = LINE ( 'NONE', #141, #135 ) ;
#247 = DIRECTION ( 'NONE',  ( 1.000000000000000000, 0.000000000000000000, 0.000000000000000000 ) ) ;
#248 =( LENGTH_UNIT ( ) NAMED_UNIT ( * ) SI_UNIT ( .MILLI., .METRE. ) );
#249 = ORIENTED_EDGE ( 'NONE', *, *, #32, .T. ) ;
#250 = ADVANCED_FACE ( 'NONE', ( #144 ), #120, .T. ) ;
#251 = VECTOR ( 'NONE', #138, 1000.000000000000000 ) ;
#252 = AXIS2_PLACEMENT_3D ( 'NONE', #23, #269, #289 ) ;
#253 = MECHANICAL_CONTEXT ( 'NONE', #127, 'mechanical' ) ;
#254 = DIRECTION ( 'NONE',  ( 1.000000000000000000, 0.000000000000000000, 0.000000000000000000 ) ) ;
#255 =( NAMED_UNIT ( * ) SI_UNIT ( $, .STERADIAN. ) SOLID_ANGLE_UNIT ( ) );
#256 = CC_DESIGN_APPROVAL ( #150, ( #68 ) ) ;
#257 = CARTESIAN_POINT ( 'NONE',  ( -11.00000000000000000, 0.000000000000000000, 7.000000000000000000 ) ) ;
#258 = CARTESIAN_POINT ( 'NONE',  ( 11.00000000000000000, 1.347111479062088405E-15, 0.000000000000000000 ) ) ;
#259 = PLANE ( 'NONE',  #48 ) ;
#260 = AXIS2_PLACEMENT_3D ( 'NONE', #79, #76, #247 ) ;
#261 = DIRECTION ( 'NONE',  ( 0.000000000000000000, -1.000000000000000000, 0.000000000000000000 ) ) ;
#262 = AXIS2_PLACEMENT_3D ( 'NONE', #86, #185, #64 ) ;
#263 = DIRECTION ( 'NONE',  ( 1.000000000000000000, 0.000000000000000000, -0.000000000000000000 ) ) ;
#264 = DATE_TIME_ROLE ( 'classification_date' ) ;
#265 = CYLINDRICAL_SURFACE ( 'NONE', #4, 11.00000000000000000 ) ;
#266 = EDGE_CURVE ( 'NONE', #202, #75, #130, .T. ) ;
#267 = AXIS2_PLACEMENT_3D ( 'NONE', #299, #233, #19 ) ;
#268 = EDGE_CURVE ( 'NONE', #84, #75, #101, .T. ) ;
#269 = DIRECTION ( 'NONE',  ( 0.000000000000000000, 0.000000000000000000, 1.000000000000000000 ) ) ;
#270 = APPROVAL_DATE_TIME ( #306, #150 ) ;
#271 = ORIENTED_EDGE ( 'NONE', *, *, #197, .F. ) ;
#272 = PERSON ( 'NEURÈENÝ', 'NEURÈENÝ', 'NEURÈENÝ', ('NEURÈENÝ'), ('NEURÈENÝ'), ('NEURÈENÝ') ) ;
#273 = APPROVAL_STATUS ( 'not_yet_approved' ) ;
#274 = EDGE_LOOP ( 'NONE', ( #98, #182, #80, #31 ) ) ;
#275 = AXIS2_PLACEMENT_3D ( 'NONE', #117, #66, #286 ) ;
#276 = ORIENTED_EDGE ( 'NONE', *, *, #128, .T. ) ;
#277 = DIRECTION ( 'NONE',  ( 1.000000000000000000, 0.000000000000000000, 0.000000000000000000 ) ) ;
#278 = APPROVAL_PERSON_ORGANIZATION ( #226, #296, #62 ) ;
#279 = AXIS2_PLACEMENT_3D ( 'NONE', #214, #47, #139 ) ;
#280 = CARTESIAN_POINT ( 'NONE',  ( 0.000000000000000000, 0.000000000000000000, 7.000000000000000000 ) ) ;
#281 = ADVANCED_FACE ( 'NONE', ( #181 ), #294, .F. ) ;
#282 = AXIS2_PLACEMENT_3D ( 'NONE', #234, #164, #92 ) ;
#283 = DIRECTION ( 'NONE',  ( 0.000000000000000000, 0.000000000000000000, 1.000000000000000000 ) ) ;
#284 = CARTESIAN_POINT ( 'NONE',  ( 7.200000000000001066, 0.000000000000000000, 7.000000000000006217 ) ) ;
#285 = DIRECTION ( 'NONE',  ( 0.000000000000000000, 0.000000000000000000, 1.000000000000000000 ) ) ;
#286 = DIRECTION ( 'NONE',  ( 1.000000000000000000, 0.000000000000000000, 0.000000000000000000 ) ) ;
#287 = ORIENTED_EDGE ( 'NONE', *, *, #32, .F. ) ;
#288 = AXIS2_PLACEMENT_3D ( 'NONE', #295, #82, #254 ) ;
#289 = DIRECTION ( 'NONE',  ( 1.000000000000000000, 0.000000000000000000, 0.000000000000000000 ) ) ;
#290 = ORIENTED_EDGE ( 'NONE', *, *, #88, .T. ) ;
#291 = APPLICATION_PROTOCOL_DEFINITION ( 'international standard', 'config_control_design', 1994, #127 ) ;
#292 = APPLICATION_PROTOCOL_DEFINITION ( 'international standard', 'config_control_design', 1994, #146 ) ;
#293 = CARTESIAN_POINT ( 'NONE',  ( -11.00000000000000000, 0.000000000000000000, 7.000000000000000000 ) ) ;
#294 = TOROIDAL_SURFACE ( 'NONE', #245, 7.200000000000001066, 0.2000000000000000111 ) ;
#295 = CARTESIAN_POINT ( 'NONE',  ( 0.000000000000000000, 0.000000000000000000, 0.000000000000000000 ) ) ;
#296 = APPROVAL ( #273, 'NEURÈENÝ' ) ;
#297 = CC_DESIGN_DATE_AND_TIME_ASSIGNMENT ( #71, #264, ( #60 ) ) ;
#298 = CARTESIAN_POINT ( 'NONE',  ( 7.000000000000000888, 8.572527594031474176E-16, 257.0000000000000000 ) ) ;
#299 = CARTESIAN_POINT ( 'NONE',  ( 0.000000000000000000, 0.000000000000000000, 0.000000000000000000 ) ) ;
#300 = CARTESIAN_POINT ( 'NONE',  ( 11.00000000000000000, 1.347111479062088405E-15, 7.000000000000000000 ) ) ;
#301 = APPROVAL_ROLE ( '' ) ;
#302 = CARTESIAN_POINT ( 'NONE',  ( 0.000000000000000000, 0.000000000000000000, 257.0000000000000000 ) ) ;
#303 = SHAPE_DEFINITION_REPRESENTATION ( #99, #89 ) ;
#304 = DIRECTION ( 'NONE',  ( 0.000000000000000000, 0.000000000000000000, 1.000000000000000000 ) ) ;
#305 = APPROVAL_ROLE ( '' ) ;
#306 = DATE_AND_TIME ( #215, #43 ) ;
#307 = PERSON_AND_ORGANIZATION ( #272, #154 ) ;
ENDSEC;
END-ISO-10303-21;
