ISO-10303-21;
HEADER;
FILE_DESCRIPTION (( 'STEP AP203' ),
    '1' );
FILE_NAME ('c5eb.STEP',
    '2022-06-20T09:49:59',
    ( '' ),
    ( '' ),
    'SwSTEP 2.0',
    'SolidWorks 2019',
    '' );
FILE_SCHEMA (( 'CONFIG_CONTROL_DESIGN' ));
ENDSEC;

DATA;
#1 = CC_DESIGN_PERSON_AND_ORGANIZATION_ASSIGNMENT ( #93, #230, ( #118 ) ) ;
#2 = EDGE_CURVE ( 'NONE', #163, #288, #100, .T. ) ;
#3 = ORIENTED_EDGE ( 'NONE', *, *, #284, .F. ) ;
#4 = LOCAL_TIME ( 11, 49, 59.00000000000000000, #139 ) ;
#5 = DIRECTION ( 'NONE',  ( 0.000000000000000000, 0.000000000000000000, 1.000000000000000000 ) ) ;
#6 = DIRECTION ( 'NONE',  ( 1.000000000000000000, 0.000000000000000000, 0.000000000000000000 ) ) ;
#7 = CARTESIAN_POINT ( 'NONE',  ( 0.000000000000000000, 0.000000000000000000, 0.000000000000000000 ) ) ;
#8 = LINE ( 'NONE', #196, #179 ) ;
#9 = EDGE_CURVE ( 'NONE', #279, #256, #144, .T. ) ;
#10 = CARTESIAN_POINT ( 'NONE',  ( 0.000000000000000000, 0.000000000000000000, 5.199999999999982414 ) ) ;
#11 = DIRECTION ( 'NONE',  ( 0.000000000000000000, 0.000000000000000000, 1.000000000000000000 ) ) ;
#12 =( LENGTH_UNIT ( ) NAMED_UNIT ( * ) SI_UNIT ( .MILLI., .METRE. ) );
#13 = AXIS2_PLACEMENT_3D ( 'NONE', #54, #32, #6 ) ;
#14 = CALENDAR_DATE ( 2022, 20, 6 ) ;
#15 = EDGE_LOOP ( 'NONE', ( #228, #117 ) ) ;
#16 = COORDINATED_UNIVERSAL_TIME_OFFSET ( 1, 0, .AHEAD. ) ;
#17 = APPLICATION_CONTEXT ( 'configuration controlled 3d designs of mechanical parts and assemblies' ) ;
#18 = ORIENTED_EDGE ( 'NONE', *, *, #19, .F. ) ;
#19 = EDGE_CURVE ( 'NONE', #119, #204, #44, .T. ) ;
#20 = DATE_AND_TIME ( #200, #30 ) ;
#21 = EDGE_LOOP ( 'NONE', ( #136, #259, #63, #252 ) ) ;
#22 = UNCERTAINTY_MEASURE_WITH_UNIT (LENGTH_MEASURE( 1.000000000000000082E-05 ), #12, 'distance_accuracy_value', 'NONE');
#23 = PERSON_AND_ORGANIZATION ( #105, #257 ) ;
#24 = EDGE_CURVE ( 'NONE', #279, #163, #238, .T. ) ;
#25 = EDGE_LOOP ( 'NONE', ( #235, #302 ) ) ;
#26 = CARTESIAN_POINT ( 'NONE',  ( -3.949999999999999734, 4.837354856632044071E-16, 4.999999999999991118 ) ) ;
#27 = ORIENTED_EDGE ( 'NONE', *, *, #50, .F. ) ;
#28 = CC_DESIGN_PERSON_AND_ORGANIZATION_ASSIGNMENT ( #46, #164, ( #158 ) ) ;
#29 = FACE_OUTER_BOUND ( 'NONE', #25, .T. ) ;
#30 = LOCAL_TIME ( 11, 49, 59.00000000000000000, #295 ) ;
#31 = DIRECTION ( 'NONE',  ( -0.000000000000000000, -0.000000000000000000, -1.000000000000000000 ) ) ;
#32 = DIRECTION ( 'NONE',  ( 0.000000000000000000, 0.000000000000000000, 1.000000000000000000 ) ) ;
#33 = MANIFOLD_SOLID_BREP ( 'Zaoblit1', #175 ) ;
#34 = DIRECTION ( 'NONE',  ( 0.000000000000000000, 0.000000000000000000, 1.000000000000000000 ) ) ;
#35 = FACE_OUTER_BOUND ( 'NONE', #254, .T. ) ;
#36 = AXIS2_PLACEMENT_3D ( 'NONE', #161, #280, #255 ) ;
#37 = AXIS2_PLACEMENT_3D ( 'NONE', #219, #154, #246 ) ;
#38 = PLANE ( 'NONE',  #251 ) ;
#39 = DIRECTION ( 'NONE',  ( 0.000000000000000000, 0.000000000000000000, 1.000000000000000000 ) ) ;
#40 = APPROVAL_STATUS ( 'not_yet_approved' ) ;
#41 = ADVANCED_FACE ( 'NONE', ( #146 ), #239, .T. ) ;
#42 = DATE_TIME_ROLE ( 'creation_date' ) ;
#43 = ORIENTED_EDGE ( 'NONE', *, *, #269, .F. ) ;
#44 = CIRCLE ( 'NONE', #199, 3.949999999999999734 ) ;
#45 = DATE_AND_TIME ( #275, #132 ) ;
#46 = PERSON_AND_ORGANIZATION ( #105, #257 ) ;
#47 = ORIENTED_EDGE ( 'NONE', *, *, #2, .F. ) ;
#48 =( GEOMETRIC_REPRESENTATION_CONTEXT ( 3 ) GLOBAL_UNCERTAINTY_ASSIGNED_CONTEXT ( ( #22 ) ) GLOBAL_UNIT_ASSIGNED_CONTEXT ( ( #12, #222, #81 ) ) REPRESENTATION_CONTEXT ( 'NONE', 'WORKASPACE' ) );
#49 = AXIS2_PLACEMENT_3D ( 'NONE', #215, #5, #190 ) ;
#50 = EDGE_CURVE ( 'NONE', #67, #119, #300, .T. ) ;
#51 = ORIENTED_EDGE ( 'NONE', *, *, #294, .F. ) ;
#52 = DIRECTION ( 'NONE',  ( 1.000000000000000000, 0.000000000000000000, 0.000000000000000000 ) ) ;
#53 = ORIENTED_EDGE ( 'NONE', *, *, #272, .T. ) ;
#54 = CARTESIAN_POINT ( 'NONE',  ( 0.000000000000000000, 0.000000000000000000, 5.000000000000000000 ) ) ;
#55 = ORIENTED_EDGE ( 'NONE', *, *, #89, .T. ) ;
#56 = DIRECTION ( 'NONE',  ( -0.000000000000000000, -0.000000000000000000, -1.000000000000000000 ) ) ;
#57 = EDGE_CURVE ( 'NONE', #233, #204, #225, .T. ) ;
#58 = AXIS2_PLACEMENT_3D ( 'NONE', #306, #285, #169 ) ;
#59 = CARTESIAN_POINT ( 'NONE',  ( 3.750000000000000000, 4.592425496802573972E-16, 1004.999999999999886 ) ) ;
#60 = CC_DESIGN_APPROVAL ( #160, ( #158 ) ) ;
#61 = CARTESIAN_POINT ( 'NONE',  ( 3.750000000000000000, 4.592425496802573972E-16, 5.199999999999982414 ) ) ;
#62 = FACE_OUTER_BOUND ( 'NONE', #304, .T. ) ;
#63 = ORIENTED_EDGE ( 'NONE', *, *, #294, .T. ) ;
#64 = VECTOR ( 'NONE', #191, 1000.000000000000000 ) ;
#65 = SECURITY_CLASSIFICATION_LEVEL ( 'unclassified' ) ;
#66 = PERSON_AND_ORGANIZATION_ROLE ( 'creator' ) ;
#67 = VERTEX_POINT ( 'NONE', #214 ) ;
#68 = APPROVAL_DATE_TIME ( #20, #95 ) ;
#69 = ORIENTED_EDGE ( 'NONE', *, *, #57, .F. ) ;
#70 = CIRCLE ( 'NONE', #242, 6.000000000000000888 ) ;
#71 = COORDINATED_UNIVERSAL_TIME_OFFSET ( 1, 0, .AHEAD. ) ;
#72 = ORIENTED_EDGE ( 'NONE', *, *, #50, .T. ) ;
#73 = DIRECTION ( 'NONE',  ( 0.000000000000000000, 0.000000000000000000, 1.000000000000000000 ) ) ;
#74 = DIRECTION ( 'NONE',  ( -0.000000000000000000, -0.000000000000000000, -1.000000000000000000 ) ) ;
#75 = CYLINDRICAL_SURFACE ( 'NONE', #149, 3.750000000000000000 ) ;
#76 = DIRECTION ( 'NONE',  ( -1.000000000000000000, 0.000000000000000000, 0.000000000000000000 ) ) ;
#77 = DIRECTION ( 'NONE',  ( 0.000000000000000000, 0.000000000000000000, 1.000000000000000000 ) ) ;
#78 = EDGE_CURVE ( 'NONE', #258, #102, #213, .T. ) ;
#79 = APPROVAL_PERSON_ORGANIZATION ( #297, #220, #182 ) ;
#80 = PLANE ( 'NONE',  #37 ) ;
#81 =( NAMED_UNIT ( * ) SI_UNIT ( $, .STERADIAN. ) SOLID_ANGLE_UNIT ( ) );
#82 = CARTESIAN_POINT ( 'NONE',  ( 0.000000000000000000, 0.000000000000000000, 5.000000000000000000 ) ) ;
#83 = CC_DESIGN_PERSON_AND_ORGANIZATION_ASSIGNMENT ( #232, #66, ( #274 ) ) ;
#84 = DIRECTION ( 'NONE',  ( 0.000000000000000000, 0.000000000000000000, 1.000000000000000000 ) ) ;
#85 = AXIS2_PLACEMENT_3D ( 'NONE', #248, #153, #107 ) ;
#86 = FACE_OUTER_BOUND ( 'NONE', #21, .T. ) ;
#87 = PERSON_AND_ORGANIZATION_ROLE ( 'design_supplier' ) ;
#88 = ORIENTED_EDGE ( 'NONE', *, *, #170, .F. ) ;
#89 = EDGE_CURVE ( 'NONE', #67, #233, #205, .T. ) ;
#90 = ADVANCED_FACE ( 'NONE', ( #186 ), #167, .T. ) ;
#91 = AXIS2_PLACEMENT_3D ( 'NONE', #243, #265, #189 ) ;
#92 = ORIENTED_EDGE ( 'NONE', *, *, #170, .T. ) ;
#93 = PERSON_AND_ORGANIZATION ( #105, #257 ) ;
#94 = EDGE_LOOP ( 'NONE', ( #47, #97, #296, #281 ) ) ;
#95 = APPROVAL ( #273, 'NEURÈENÝ' ) ;
#96 = APPROVAL_DATE_TIME ( #303, #160 ) ;
#97 = ORIENTED_EDGE ( 'NONE', *, *, #24, .F. ) ;
#98 = DIRECTION ( 'NONE',  ( -1.000000000000000000, 0.000000000000000000, 0.000000000000000000 ) ) ;
#99 = AXIS2_PLACEMENT_3D ( 'NONE', #260, #77, #101 ) ;
#100 = LINE ( 'NONE', #145, #171 ) ;
#101 = DIRECTION ( 'NONE',  ( 1.000000000000000000, 0.000000000000000000, 0.000000000000000000 ) ) ;
#102 = VERTEX_POINT ( 'NONE', #263 ) ;
#103 = LINE ( 'NONE', #147, #64 ) ;
#104 = ADVANCED_FACE ( 'NONE', ( #236 ), #75, .T. ) ;
#105 = PERSON ( 'NEURÈENÝ', 'NEURÈENÝ', 'NEURÈENÝ', ('NEURÈENÝ'), ('NEURÈENÝ'), ('NEURÈENÝ') ) ;
#106 = DIRECTION ( 'NONE',  ( 1.000000000000000000, 0.000000000000000000, -0.000000000000000000 ) ) ;
#107 = DIRECTION ( 'NONE',  ( 1.000000000000000000, 0.000000000000000000, 0.000000000000000000 ) ) ;
#108 = CARTESIAN_POINT ( 'NONE',  ( 0.000000000000000000, 0.000000000000000000, 1004.999999999999886 ) ) ;
#109 = DIRECTION ( 'NONE',  ( 0.000000000000000000, 0.000000000000000000, 1.000000000000000000 ) ) ;
#110 = ADVANCED_BREP_SHAPE_REPRESENTATION ( 'c5eb', ( #33, #36 ), #48 ) ;
#111 = APPLICATION_CONTEXT ( 'configuration controlled 3d designs of mechanical parts and assemblies' ) ;
#112 = APPROVAL_DATE_TIME ( #224, #220 ) ;
#113 = ADVANCED_FACE ( 'NONE', ( #166, #29 ), #124, .T. ) ;
#114 = EDGE_LOOP ( 'NONE', ( #202, #208, #92, #298 ) ) ;
#115 = MECHANICAL_CONTEXT ( 'NONE', #17, 'mechanical' ) ;
#116 = CIRCLE ( 'NONE', #168, 6.000000000000000888 ) ;
#117 = ORIENTED_EDGE ( 'NONE', *, *, #78, .T. ) ;
#118 = PRODUCT ( 'c5eb', 'c5eb', '', ( #115 ) ) ;
#119 = VERTEX_POINT ( 'NONE', #26 ) ;
#120 = CC_DESIGN_APPROVAL ( #95, ( #274 ) ) ;
#121 = CIRCLE ( 'NONE', #211, 3.750000000000000000 ) ;
#122 = FACE_OUTER_BOUND ( 'NONE', #183, .T. ) ;
#123 = CARTESIAN_POINT ( 'NONE',  ( -6.000000000000000888, 0.000000000000000000, 5.000000000000000000 ) ) ;
#124 = PLANE ( 'NONE',  #49 ) ;
#125 = DIRECTION ( 'NONE',  ( -1.000000000000000000, 1.224646799147353454E-16, 0.000000000000000000 ) ) ;
#126 = CC_DESIGN_DATE_AND_TIME_ASSIGNMENT ( #45, #42, ( #178 ) ) ;
#127 = CARTESIAN_POINT ( 'NONE',  ( 0.000000000000000000, 0.000000000000000000, 0.000000000000000000 ) ) ;
#128 = DIRECTION ( 'NONE',  ( 0.000000000000000000, 0.000000000000000000, 1.000000000000000000 ) ) ;
#129 = CYLINDRICAL_SURFACE ( 'NONE', #134, 6.000000000000000888 ) ;
#130 = AXIS2_PLACEMENT_3D ( 'NONE', #286, #31, #76 ) ;
#131 = DIRECTION ( 'NONE',  ( 1.000000000000000000, 0.000000000000000000, 0.000000000000000000 ) ) ;
#132 = LOCAL_TIME ( 11, 49, 59.00000000000000000, #71 ) ;
#133 = APPLICATION_PROTOCOL_DEFINITION ( 'international standard', 'config_control_design', 1994, #111 ) ;
#134 = AXIS2_PLACEMENT_3D ( 'NONE', #82, #151, #176 ) ;
#135 = APPROVAL_STATUS ( 'not_yet_approved' ) ;
#136 = ORIENTED_EDGE ( 'NONE', *, *, #207, .F. ) ;
#137 = PERSON_AND_ORGANIZATION_ROLE ( 'creator' ) ;
#138 = ORIENTED_EDGE ( 'NONE', *, *, #19, .T. ) ;
#139 = COORDINATED_UNIVERSAL_TIME_OFFSET ( 1, 0, .AHEAD. ) ;
#140 = LOCAL_TIME ( 11, 49, 59.00000000000000000, #282 ) ;
#141 = ORIENTED_EDGE ( 'NONE', *, *, #155, .T. ) ;
#142 = CALENDAR_DATE ( 2022, 20, 6 ) ;
#143 = ORIENTED_EDGE ( 'NONE', *, *, #89, .F. ) ;
#144 = LINE ( 'NONE', #123, #264 ) ;
#145 = CARTESIAN_POINT ( 'NONE',  ( 6.000000000000000888, 7.347880794884120722E-16, 5.000000000000000000 ) ) ;
#146 = FACE_OUTER_BOUND ( 'NONE', #94, .T. ) ;
#147 = CARTESIAN_POINT ( 'NONE',  ( -3.750000000000000000, 0.000000000000000000, 1004.999999999999886 ) ) ;
#148 = LOCAL_TIME ( 11, 49, 59.00000000000000000, #16 ) ;
#149 = AXIS2_PLACEMENT_3D ( 'NONE', #261, #209, #98 ) ;
#150 = DIRECTION ( 'NONE',  ( 0.000000000000000000, 0.000000000000000000, 1.000000000000000000 ) ) ;
#151 = DIRECTION ( 'NONE',  ( -0.000000000000000000, -0.000000000000000000, -1.000000000000000000 ) ) ;
#152 = DIRECTION ( 'NONE',  ( -0.000000000000000000, -0.000000000000000000, -1.000000000000000000 ) ) ;
#153 = DIRECTION ( 'NONE',  ( 0.000000000000000000, 0.000000000000000000, 1.000000000000000000 ) ) ;
#154 = DIRECTION ( 'NONE',  ( 0.000000000000000000, 0.000000000000000000, 1.000000000000000000 ) ) ;
#155 = EDGE_CURVE ( 'NONE', #102, #67, #103, .T. ) ;
#156 = DESIGN_CONTEXT ( 'detailed design', #111, 'design' ) ;
#157 = PRODUCT_DEFINITION_SHAPE ( 'NONE', 'NONE',  #178 ) ;
#158 = SECURITY_CLASSIFICATION ( '', '', #65 ) ;
#159 = ORIENTED_EDGE ( 'NONE', *, *, #272, .F. ) ;
#160 = APPROVAL ( #40, 'NEURÈENÝ' ) ;
#161 = CARTESIAN_POINT ( 'NONE',  ( 0.000000000000000000, 0.000000000000000000, 0.000000000000000000 ) ) ;
#162 = APPROVAL_PERSON_ORGANIZATION ( #203, #160, #301 ) ;
#163 = VERTEX_POINT ( 'NONE', #173 ) ;
#164 = PERSON_AND_ORGANIZATION_ROLE ( 'classification_officer' ) ;
#165 = ORIENTED_EDGE ( 'NONE', *, *, #57, .T. ) ;
#166 = FACE_BOUND ( 'NONE', #185, .T. ) ;
#167 = CYLINDRICAL_SURFACE ( 'NONE', #91, 3.750000000000000000 ) ;
#168 = AXIS2_PLACEMENT_3D ( 'NONE', #127, #39, #291 ) ;
#169 = DIRECTION ( 'NONE',  ( 0.000000000000000000, 0.000000000000000000, -1.000000000000000000 ) ) ;
#170 = EDGE_CURVE ( 'NONE', #233, #67, #217, .T. ) ;
#171 = VECTOR ( 'NONE', #56, 1000.000000000000000 ) ;
#172 = DIRECTION ( 'NONE',  ( -0.000000000000000000, -0.000000000000000000, -1.000000000000000000 ) ) ;
#173 = CARTESIAN_POINT ( 'NONE',  ( 6.000000000000000888, 7.347880794884120722E-16, 5.000000000000000000 ) ) ;
#174 = AXIS2_PLACEMENT_3D ( 'NONE', #10, #34, #289 ) ;
#175 = CLOSED_SHELL ( 'NONE', ( #192, #104, #253, #41, #113, #247, #90, #229, #262 ) ) ;
#176 = DIRECTION ( 'NONE',  ( -1.000000000000000000, 0.000000000000000000, 0.000000000000000000 ) ) ;
#177 = DIRECTION ( 'NONE',  ( 1.000000000000000000, 0.000000000000000000, 0.000000000000000000 ) ) ;
#178 = PRODUCT_DEFINITION ( 'NEZNÁMÝ', '', #274, #156 ) ;
#179 = VECTOR ( 'NONE', #152, 1000.000000000000000 ) ;
#180 = DATE_TIME_ROLE ( 'classification_date' ) ;
#181 = EDGE_LOOP ( 'NONE', ( #3, #43, #141, #55 ) ) ;
#182 = APPROVAL_ROLE ( '' ) ;
#183 = EDGE_LOOP ( 'NONE', ( #143, #72, #159, #69 ) ) ;
#184 = SHAPE_DEFINITION_REPRESENTATION ( #157, #110 ) ;
#185 = EDGE_LOOP ( 'NONE', ( #53, #138 ) ) ;
#186 = FACE_OUTER_BOUND ( 'NONE', #181, .T. ) ;
#187 = AXIS2_PLACEMENT_3D ( 'NONE', #237, #188, #125 ) ;
#188 = DIRECTION ( 'NONE',  ( 1.224646799147353207E-16, 1.000000000000000000, -0.000000000000000000 ) ) ;
#189 = DIRECTION ( 'NONE',  ( -1.000000000000000000, 0.000000000000000000, 0.000000000000000000 ) ) ;
#190 = DIRECTION ( 'NONE',  ( 1.000000000000000000, 0.000000000000000000, -0.000000000000000000 ) ) ;
#191 = DIRECTION ( 'NONE',  ( -0.000000000000000000, -0.000000000000000000, -1.000000000000000000 ) ) ;
#192 = ADVANCED_FACE ( 'NONE', ( #122 ), #276, .F. ) ;
#193 = CARTESIAN_POINT ( 'NONE',  ( 0.000000000000000000, 0.000000000000000000, 5.000000000000000000 ) ) ;
#194 = CARTESIAN_POINT ( 'NONE',  ( 0.000000000000000000, 0.000000000000000000, 5.000000000000000000 ) ) ;
#195 = APPLICATION_PROTOCOL_DEFINITION ( 'international standard', 'config_control_design', 1994, #17 ) ;
#196 = CARTESIAN_POINT ( 'NONE',  ( 3.750000000000000000, 4.592425496802573972E-16, 1004.999999999999886 ) ) ;
#197 = DIRECTION ( 'NONE',  ( 1.000000000000000000, 0.000000000000000000, 0.000000000000000000 ) ) ;
#198 = AXIS2_PLACEMENT_3D ( 'NONE', #194, #11, #177 ) ;
#199 = AXIS2_PLACEMENT_3D ( 'NONE', #240, #74, #266 ) ;
#200 = CALENDAR_DATE ( 2022, 20, 6 ) ;
#201 = CALENDAR_DATE ( 2022, 20, 6 ) ;
#202 = ORIENTED_EDGE ( 'NONE', *, *, #78, .F. ) ;
#203 = PERSON_AND_ORGANIZATION ( #105, #257 ) ;
#204 = VERTEX_POINT ( 'NONE', #212 ) ;
#205 = CIRCLE ( 'NONE', #99, 3.750000000000000000 ) ;
#206 = DATE_AND_TIME ( #201, #4 ) ;
#207 = EDGE_CURVE ( 'NONE', #163, #279, #210, .T. ) ;
#208 = ORIENTED_EDGE ( 'NONE', *, *, #284, .T. ) ;
#209 = DIRECTION ( 'NONE',  ( -0.000000000000000000, -0.000000000000000000, -1.000000000000000000 ) ) ;
#210 = CIRCLE ( 'NONE', #198, 6.000000000000000888 ) ;
#211 = AXIS2_PLACEMENT_3D ( 'NONE', #108, #128, #197 ) ;
#212 = CARTESIAN_POINT ( 'NONE',  ( 3.949999999999999734, 0.000000000000000000, 4.999999999999991118 ) ) ;
#213 = CIRCLE ( 'NONE', #290, 3.750000000000000000 ) ;
#214 = CARTESIAN_POINT ( 'NONE',  ( -3.750000000000000000, 0.000000000000000000, 5.199999999999982414 ) ) ;
#215 = CARTESIAN_POINT ( 'NONE',  ( 0.000000000000000000, 0.000000000000000000, 5.000000000000000000 ) ) ;
#216 = CC_DESIGN_APPROVAL ( #220, ( #178 ) ) ;
#217 = CIRCLE ( 'NONE', #292, 3.750000000000000000 ) ;
#218 = DIRECTION ( 'NONE',  ( 1.000000000000000000, 0.000000000000000000, 0.000000000000000000 ) ) ;
#219 = CARTESIAN_POINT ( 'NONE',  ( 0.000000000000000000, 0.000000000000000000, 1004.999999999999886 ) ) ;
#220 = APPROVAL ( #135, 'NEURÈENÝ' ) ;
#221 = DIRECTION ( 'NONE',  ( -0.000000000000000000, -0.000000000000000000, -1.000000000000000000 ) ) ;
#222 =( NAMED_UNIT ( * ) PLANE_ANGLE_UNIT ( ) SI_UNIT ( $, .RADIAN. ) );
#223 = CARTESIAN_POINT ( 'NONE',  ( 6.000000000000000888, 7.347880794884120722E-16, 0.000000000000000000 ) ) ;
#224 = DATE_AND_TIME ( #142, #140 ) ;
#225 = CIRCLE ( 'NONE', #58, 0.1999999999999996503 ) ;
#226 = ORIENTED_EDGE ( 'NONE', *, *, #231, .F. ) ;
#227 = PERSON_AND_ORGANIZATION ( #105, #257 ) ;
#228 = ORIENTED_EDGE ( 'NONE', *, *, #269, .T. ) ;
#229 = ADVANCED_FACE ( 'NONE', ( #271 ), #80, .T. ) ;
#230 = PERSON_AND_ORGANIZATION_ROLE ( 'design_owner' ) ;
#231 = EDGE_CURVE ( 'NONE', #256, #288, #70, .T. ) ;
#232 = PERSON_AND_ORGANIZATION ( #105, #257 ) ;
#233 = VERTEX_POINT ( 'NONE', #61 ) ;
#234 = CC_DESIGN_DATE_AND_TIME_ASSIGNMENT ( #206, #180, ( #158 ) ) ;
#235 = ORIENTED_EDGE ( 'NONE', *, *, #24, .T. ) ;
#236 = FACE_OUTER_BOUND ( 'NONE', #114, .T. ) ;
#237 = CARTESIAN_POINT ( 'NONE',  ( -3.949999999999999734, 4.837354856632044071E-16, 5.199999999999982414 ) ) ;
#238 = CIRCLE ( 'NONE', #13, 6.000000000000000888 ) ;
#239 = CYLINDRICAL_SURFACE ( 'NONE', #130, 6.000000000000000888 ) ;
#240 = CARTESIAN_POINT ( 'NONE',  ( 0.000000000000000000, 0.000000000000000000, 5.000000000000000000 ) ) ;
#241 = APPROVAL_PERSON_ORGANIZATION ( #227, #95, #278 ) ;
#242 = AXIS2_PLACEMENT_3D ( 'NONE', #7, #84, #270 ) ;
#243 = CARTESIAN_POINT ( 'NONE',  ( 0.000000000000000000, 0.000000000000000000, 1004.999999999999886 ) ) ;
#244 = CC_DESIGN_PERSON_AND_ORGANIZATION_ASSIGNMENT ( #23, #87, ( #274 ) ) ;
#245 = CIRCLE ( 'NONE', #277, 3.949999999999999734 ) ;
#246 = DIRECTION ( 'NONE',  ( 1.000000000000000000, 0.000000000000000000, -0.000000000000000000 ) ) ;
#247 = ADVANCED_FACE ( 'NONE', ( #62 ), #38, .F. ) ;
#248 = CARTESIAN_POINT ( 'NONE',  ( 0.000000000000000000, 0.000000000000000000, 5.199999999999982414 ) ) ;
#249 = CARTESIAN_POINT ( 'NONE',  ( -6.000000000000000888, 0.000000000000000000, 0.000000000000000000 ) ) ;
#250 = PERSON_AND_ORGANIZATION ( #105, #257 ) ;
#251 = AXIS2_PLACEMENT_3D ( 'NONE', #293, #109, #106 ) ;
#252 = ORIENTED_EDGE ( 'NONE', *, *, #9, .F. ) ;
#253 = ADVANCED_FACE ( 'NONE', ( #86 ), #129, .T. ) ;
#254 = EDGE_LOOP ( 'NONE', ( #27, #88, #165, #18 ) ) ;
#255 = DIRECTION ( 'NONE',  ( 1.000000000000000000, 0.000000000000000000, 0.000000000000000000 ) ) ;
#256 = VERTEX_POINT ( 'NONE', #249 ) ;
#257 = ORGANIZATION ( 'NEURÈENÝ', 'NEURÈENÝ', '' ) ;
#258 = VERTEX_POINT ( 'NONE', #59 ) ;
#259 = ORIENTED_EDGE ( 'NONE', *, *, #2, .T. ) ;
#260 = CARTESIAN_POINT ( 'NONE',  ( 0.000000000000000000, 0.000000000000000000, 5.199999999999982414 ) ) ;
#261 = CARTESIAN_POINT ( 'NONE',  ( 0.000000000000000000, 0.000000000000000000, 1004.999999999999886 ) ) ;
#262 = ADVANCED_FACE ( 'NONE', ( #35 ), #307, .F. ) ;
#263 = CARTESIAN_POINT ( 'NONE',  ( -3.750000000000000000, 0.000000000000000000, 1004.999999999999886 ) ) ;
#264 = VECTOR ( 'NONE', #172, 1000.000000000000000 ) ;
#265 = DIRECTION ( 'NONE',  ( -0.000000000000000000, -0.000000000000000000, -1.000000000000000000 ) ) ;
#266 = DIRECTION ( 'NONE',  ( 1.000000000000000000, 0.000000000000000000, 0.000000000000000000 ) ) ;
#267 = CARTESIAN_POINT ( 'NONE',  ( -6.000000000000000888, 0.000000000000000000, 5.000000000000000000 ) ) ;
#268 = CC_DESIGN_PERSON_AND_ORGANIZATION_ASSIGNMENT ( #250, #137, ( #178 ) ) ;
#269 = EDGE_CURVE ( 'NONE', #102, #258, #121, .T. ) ;
#270 = DIRECTION ( 'NONE',  ( 1.000000000000000000, 0.000000000000000000, 0.000000000000000000 ) ) ;
#271 = FACE_OUTER_BOUND ( 'NONE', #15, .T. ) ;
#272 = EDGE_CURVE ( 'NONE', #204, #119, #245, .T. ) ;
#273 = APPROVAL_STATUS ( 'not_yet_approved' ) ;
#274 = PRODUCT_DEFINITION_FORMATION_WITH_SPECIFIED_SOURCE ( 'LIBOVOLNÝ', '', #118, .NOT_KNOWN. ) ;
#275 = CALENDAR_DATE ( 2022, 20, 6 ) ;
#276 = TOROIDAL_SURFACE ( 'NONE', #85, 3.949999999999999734, 0.2000000000000000111 ) ;
#277 = AXIS2_PLACEMENT_3D ( 'NONE', #193, #221, #131 ) ;
#278 = APPROVAL_ROLE ( '' ) ;
#279 = VERTEX_POINT ( 'NONE', #267 ) ;
#280 = DIRECTION ( 'NONE',  ( 0.000000000000000000, 0.000000000000000000, 1.000000000000000000 ) ) ;
#281 = ORIENTED_EDGE ( 'NONE', *, *, #231, .T. ) ;
#282 = COORDINATED_UNIVERSAL_TIME_OFFSET ( 1, 0, .AHEAD. ) ;
#283 = CARTESIAN_POINT ( 'NONE',  ( 0.000000000000000000, 0.000000000000000000, 5.199999999999982414 ) ) ;
#284 = EDGE_CURVE ( 'NONE', #258, #233, #8, .T. ) ;
#285 = DIRECTION ( 'NONE',  ( 0.000000000000000000, -1.000000000000000000, 0.000000000000000000 ) ) ;
#286 = CARTESIAN_POINT ( 'NONE',  ( 0.000000000000000000, 0.000000000000000000, 5.000000000000000000 ) ) ;
#287 = CARTESIAN_POINT ( 'NONE',  ( 0.000000000000000000, 0.000000000000000000, 1004.999999999999886 ) ) ;
#288 = VERTEX_POINT ( 'NONE', #223 ) ;
#289 = DIRECTION ( 'NONE',  ( 1.000000000000000000, 0.000000000000000000, 0.000000000000000000 ) ) ;
#290 = AXIS2_PLACEMENT_3D ( 'NONE', #287, #150, #218 ) ;
#291 = DIRECTION ( 'NONE',  ( 1.000000000000000000, 0.000000000000000000, 0.000000000000000000 ) ) ;
#292 = AXIS2_PLACEMENT_3D ( 'NONE', #283, #73, #52 ) ;
#293 = CARTESIAN_POINT ( 'NONE',  ( 0.000000000000000000, 0.000000000000000000, 0.000000000000000000 ) ) ;
#294 = EDGE_CURVE ( 'NONE', #288, #256, #116, .T. ) ;
#295 = COORDINATED_UNIVERSAL_TIME_OFFSET ( 1, 0, .AHEAD. ) ;
#296 = ORIENTED_EDGE ( 'NONE', *, *, #9, .T. ) ;
#297 = PERSON_AND_ORGANIZATION ( #105, #257 ) ;
#298 = ORIENTED_EDGE ( 'NONE', *, *, #155, .F. ) ;
#299 = PRODUCT_RELATED_PRODUCT_CATEGORY ( 'detail', '', ( #118 ) ) ;
#300 = CIRCLE ( 'NONE', #187, 0.1999999999999996503 ) ;
#301 = APPROVAL_ROLE ( '' ) ;
#302 = ORIENTED_EDGE ( 'NONE', *, *, #207, .T. ) ;
#303 = DATE_AND_TIME ( #14, #148 ) ;
#304 = EDGE_LOOP ( 'NONE', ( #226, #51 ) ) ;
#305 = CC_DESIGN_SECURITY_CLASSIFICATION ( #158, ( #274 ) ) ;
#306 = CARTESIAN_POINT ( 'NONE',  ( 3.949999999999999734, 0.000000000000000000, 5.199999999999982414 ) ) ;
#307 = TOROIDAL_SURFACE ( 'NONE', #174, 3.949999999999999734, 0.2000000000000000111 ) ;
ENDSEC;
END-ISO-10303-21;
