ISO-10303-21;
HEADER;
FILE_DESCRIPTION (( 'STEP AP203' ),
    '1' );
FILE_NAME ('8fcb.STEP',
    '2022-06-20T10:21:51',
    ( '' ),
    ( '' ),
    'SwSTEP 2.0',
    'SolidWorks 2019',
    '' );
FILE_SCHEMA (( 'CONFIG_CONTROL_DESIGN' ));
ENDSEC;

DATA;
#1 = PERSON_AND_ORGANIZATION ( #235, #73 ) ;
#2 = ORIENTED_EDGE ( 'NONE', *, *, #229, .T. ) ;
#3 = DATE_AND_TIME ( #101, #202 ) ;
#4 = ORIENTED_EDGE ( 'NONE', *, *, #162, .F. ) ;
#5 = SHAPE_DEFINITION_REPRESENTATION ( #74, #23 ) ;
#6 = CC_DESIGN_PERSON_AND_ORGANIZATION_ASSIGNMENT ( #271, #60, ( #259 ) ) ;
#7 = AXIS2_PLACEMENT_3D ( 'NONE', #120, #24, #160 ) ;
#8 = DATE_AND_TIME ( #75, #35 ) ;
#9 = EDGE_LOOP ( 'NONE', ( #62, #27, #30, #32 ) ) ;
#10 = DIRECTION ( 'NONE',  ( 0.000000000000000000, 0.000000000000000000, 1.000000000000000000 ) ) ;
#11 = EDGE_LOOP ( 'NONE', ( #199, #77, #246, #173 ) ) ;
#12 = CARTESIAN_POINT ( 'NONE',  ( 0.000000000000000000, 0.000000000000000000, 1.500000000000000000 ) ) ;
#13 = DIRECTION ( 'NONE',  ( 1.000000000000000000, 0.000000000000000000, 0.000000000000000000 ) ) ;
#14 = PLANE ( 'NONE',  #103 ) ;
#15 = CARTESIAN_POINT ( 'NONE',  ( -2.000000000000000000, 0.000000000000000000, 1.500000000000000000 ) ) ;
#16 = AXIS2_PLACEMENT_3D ( 'NONE', #20, #50, #209 ) ;
#17 = CARTESIAN_POINT ( 'NONE',  ( -0.9000000000000000222, 0.000000000000000000, 101.5000000000000000 ) ) ;
#18 = CARTESIAN_POINT ( 'NONE',  ( -0.9000000000000000222, 0.000000000000000000, 101.5000000000000000 ) ) ;
#19 = AXIS2_PLACEMENT_3D ( 'NONE', #12, #157, #231 ) ;
#20 = CARTESIAN_POINT ( 'NONE',  ( 0.000000000000000000, 0.000000000000000000, 1.700000000000007061 ) ) ;
#21 = FACE_OUTER_BOUND ( 'NONE', #129, .T. ) ;
#22 = ADVANCED_FACE ( 'NONE', ( #45 ), #206, .T. ) ;
#23 = ADVANCED_BREP_SHAPE_REPRESENTATION ( '8fcb', ( #87, #156 ), #28 ) ;
#24 = DIRECTION ( 'NONE',  ( 0.000000000000000000, 0.000000000000000000, 1.000000000000000000 ) ) ;
#25 = VECTOR ( 'NONE', #132, 1000.000000000000000 ) ;
#26 = CALENDAR_DATE ( 2022, 20, 6 ) ;
#27 = ORIENTED_EDGE ( 'NONE', *, *, #70, .T. ) ;
#28 =( GEOMETRIC_REPRESENTATION_CONTEXT ( 3 ) GLOBAL_UNCERTAINTY_ASSIGNED_CONTEXT ( ( #184 ) ) GLOBAL_UNIT_ASSIGNED_CONTEXT ( ( #285, #264, #52 ) ) REPRESENTATION_CONTEXT ( 'NONE', 'WORKASPACE' ) );
#29 = PERSON_AND_ORGANIZATION_ROLE ( 'creator' ) ;
#30 = ORIENTED_EDGE ( 'NONE', *, *, #40, .T. ) ;
#31 = DATE_AND_TIME ( #26, #151 ) ;
#32 = ORIENTED_EDGE ( 'NONE', *, *, #89, .F. ) ;
#33 = COORDINATED_UNIVERSAL_TIME_OFFSET ( 1, 0, .AHEAD. ) ;
#34 = ORIENTED_EDGE ( 'NONE', *, *, #169, .T. ) ;
#35 = LOCAL_TIME ( 12, 21, 51.00000000000000000, #242 ) ;
#36 = APPROVAL_STATUS ( 'not_yet_approved' ) ;
#37 = ORIENTED_EDGE ( 'NONE', *, *, #40, .F. ) ;
#38 = DIRECTION ( 'NONE',  ( -0.000000000000000000, -0.000000000000000000, -1.000000000000000000 ) ) ;
#39 = VECTOR ( 'NONE', #158, 1000.000000000000000 ) ;
#40 = EDGE_CURVE ( 'NONE', #223, #193, #205, .T. ) ;
#41 = DIRECTION ( 'NONE',  ( 1.000000000000000000, 0.000000000000000000, 0.000000000000000000 ) ) ;
#42 = EDGE_LOOP ( 'NONE', ( #218, #208 ) ) ;
#43 = DIRECTION ( 'NONE',  ( 1.000000000000000000, 0.000000000000000000, 0.000000000000000000 ) ) ;
#44 = AXIS2_PLACEMENT_3D ( 'NONE', #181, #295, #43 ) ;
#45 = FACE_OUTER_BOUND ( 'NONE', #149, .T. ) ;
#46 = CARTESIAN_POINT ( 'NONE',  ( 2.000000000000000000, 2.449293598294706414E-16, 0.000000000000000000 ) ) ;
#47 = FACE_OUTER_BOUND ( 'NONE', #9, .T. ) ;
#48 = EDGE_CURVE ( 'NONE', #96, #291, #153, .T. ) ;
#49 = CYLINDRICAL_SURFACE ( 'NONE', #51, 0.9000000000000000222 ) ;
#50 = DIRECTION ( 'NONE',  ( 0.000000000000000000, 0.000000000000000000, 1.000000000000000000 ) ) ;
#51 = AXIS2_PLACEMENT_3D ( 'NONE', #90, #232, #236 ) ;
#52 =( NAMED_UNIT ( * ) SI_UNIT ( $, .STERADIAN. ) SOLID_ANGLE_UNIT ( ) );
#53 = ADVANCED_FACE ( 'NONE', ( #302, #135 ), #14, .T. ) ;
#54 = AXIS2_PLACEMENT_3D ( 'NONE', #298, #38, #300 ) ;
#55 = APPROVAL_STATUS ( 'not_yet_approved' ) ;
#56 = ORIENTED_EDGE ( 'NONE', *, *, #89, .T. ) ;
#57 = EDGE_LOOP ( 'NONE', ( #171, #85, #56, #195 ) ) ;
#58 = EDGE_CURVE ( 'NONE', #96, #273, #213, .T. ) ;
#59 = DIRECTION ( 'NONE',  ( 1.000000000000000000, 0.000000000000000000, 0.000000000000000000 ) ) ;
#60 = PERSON_AND_ORGANIZATION_ROLE ( 'creator' ) ;
#61 = CIRCLE ( 'NONE', #116, 0.9000000000000000222 ) ;
#62 = ORIENTED_EDGE ( 'NONE', *, *, #166, .F. ) ;
#63 = DIRECTION ( 'NONE',  ( -0.000000000000000000, -0.000000000000000000, -1.000000000000000000 ) ) ;
#64 = CARTESIAN_POINT ( 'NONE',  ( 0.000000000000000000, 0.000000000000000000, 101.5000000000000000 ) ) ;
#65 = CC_DESIGN_DATE_AND_TIME_ASSIGNMENT ( #31, #165, ( #272 ) ) ;
#66 = CARTESIAN_POINT ( 'NONE',  ( -1.100000000000000089, 1.347111479062088503E-16, 1.500000000000003553 ) ) ;
#67 = LINE ( 'NONE', #256, #239 ) ;
#68 = PLANE ( 'NONE',  #123 ) ;
#69 = AXIS2_PLACEMENT_3D ( 'NONE', #88, #72, #304 ) ;
#70 = EDGE_CURVE ( 'NONE', #97, #223, #67, .T. ) ;
#71 = FACE_OUTER_BOUND ( 'NONE', #11, .T. ) ;
#72 = DIRECTION ( 'NONE',  ( 0.000000000000000000, 0.000000000000000000, 1.000000000000000000 ) ) ;
#73 = ORGANIZATION ( 'NEURÈENÝ', 'NEURÈENÝ', '' ) ;
#74 = PRODUCT_DEFINITION_SHAPE ( 'NONE', 'NONE',  #272 ) ;
#75 = CALENDAR_DATE ( 2022, 20, 6 ) ;
#76 = APPROVAL ( #36, 'NEURÈENÝ' ) ;
#77 = ORIENTED_EDGE ( 'NONE', *, *, #118, .T. ) ;
#78 = CALENDAR_DATE ( 2022, 20, 6 ) ;
#79 = ORIENTED_EDGE ( 'NONE', *, *, #48, .F. ) ;
#80 = CIRCLE ( 'NONE', #289, 0.2000000000000000944 ) ;
#81 = DIRECTION ( 'NONE',  ( 0.000000000000000000, 0.000000000000000000, 1.000000000000000000 ) ) ;
#82 = CARTESIAN_POINT ( 'NONE',  ( 0.000000000000000000, 0.000000000000000000, 1.700000000000007061 ) ) ;
#83 = CARTESIAN_POINT ( 'NONE',  ( 0.9000000000000000222, 1.102182119232617788E-16, 101.5000000000000000 ) ) ;
#84 = CC_DESIGN_APPROVAL ( #76, ( #292 ) ) ;
#85 = ORIENTED_EDGE ( 'NONE', *, *, #255, .F. ) ;
#86 = DIRECTION ( 'NONE',  ( -0.000000000000000000, -0.000000000000000000, -1.000000000000000000 ) ) ;
#87 = MANIFOLD_SOLID_BREP ( 'Zaoblit1', #109 ) ;
#88 = CARTESIAN_POINT ( 'NONE',  ( 0.000000000000000000, 0.000000000000000000, 101.5000000000000000 ) ) ;
#89 = EDGE_CURVE ( 'NONE', #168, #193, #251, .T. ) ;
#90 = CARTESIAN_POINT ( 'NONE',  ( 0.000000000000000000, 0.000000000000000000, 101.5000000000000000 ) ) ;
#91 = DIRECTION ( 'NONE',  ( 1.000000000000000000, 0.000000000000000000, 0.000000000000000000 ) ) ;
#92 = CIRCLE ( 'NONE', #144, 2.000000000000000000 ) ;
#93 = EDGE_LOOP ( 'NONE', ( #270, #37 ) ) ;
#94 = DATE_TIME_ROLE ( 'classification_date' ) ;
#95 = PRODUCT_RELATED_PRODUCT_CATEGORY ( 'detail', '', ( #121 ) ) ;
#96 = VERTEX_POINT ( 'NONE', #257 ) ;
#97 = VERTEX_POINT ( 'NONE', #136 ) ;
#98 = LOCAL_TIME ( 12, 21, 51.00000000000000000, #172 ) ;
#99 = COORDINATED_UNIVERSAL_TIME_OFFSET ( 1, 0, .AHEAD. ) ;
#100 = ORIENTED_EDGE ( 'NONE', *, *, #58, .F. ) ;
#101 = CALENDAR_DATE ( 2022, 20, 6 ) ;
#102 = ORIENTED_EDGE ( 'NONE', *, *, #162, .T. ) ;
#103 = AXIS2_PLACEMENT_3D ( 'NONE', #225, #279, #177 ) ;
#104 = CARTESIAN_POINT ( 'NONE',  ( -2.000000000000000000, 0.000000000000000000, 1.500000000000000000 ) ) ;
#105 = CIRCLE ( 'NONE', #207, 1.100000000000000089 ) ;
#106 = CARTESIAN_POINT ( 'NONE',  ( -0.9000000000000000222, 0.000000000000000000, 1.700000000000007061 ) ) ;
#107 = DIRECTION ( 'NONE',  ( -1.000000000000000000, 1.224646799147353207E-16, 0.000000000000000000 ) ) ;
#108 = EDGE_CURVE ( 'NONE', #291, #125, #252, .T. ) ;
#109 = CLOSED_SHELL ( 'NONE', ( #288, #212, #250, #277, #53, #283, #22, #220, #268 ) ) ;
#110 = DIRECTION ( 'NONE',  ( 0.000000000000000000, 0.000000000000000000, 1.000000000000000000 ) ) ;
#111 = CC_DESIGN_SECURITY_CLASSIFICATION ( #292, ( #259 ) ) ;
#112 = DIRECTION ( 'NONE',  ( -0.000000000000000000, -0.000000000000000000, -1.000000000000000000 ) ) ;
#113 = CC_DESIGN_DATE_AND_TIME_ASSIGNMENT ( #126, #94, ( #292 ) ) ;
#114 = CARTESIAN_POINT ( 'NONE',  ( 0.000000000000000000, 0.000000000000000000, 0.000000000000000000 ) ) ;
#115 = AXIS2_PLACEMENT_3D ( 'NONE', #278, #230, #228 ) ;
#116 = AXIS2_PLACEMENT_3D ( 'NONE', #82, #110, #41 ) ;
#117 = DIRECTION ( 'NONE',  ( 1.000000000000000000, 0.000000000000000000, 0.000000000000000000 ) ) ;
#118 = EDGE_CURVE ( 'NONE', #203, #145, #80, .T. ) ;
#119 = FACE_OUTER_BOUND ( 'NONE', #93, .T. ) ;
#120 = CARTESIAN_POINT ( 'NONE',  ( 0.000000000000000000, 0.000000000000000000, 101.5000000000000000 ) ) ;
#121 = PRODUCT ( '8fcb', '8fcb', '', ( #222 ) ) ;
#122 = PERSON_AND_ORGANIZATION_ROLE ( 'design_supplier' ) ;
#123 = AXIS2_PLACEMENT_3D ( 'NONE', #114, #210, #262 ) ;
#124 = PERSON_AND_ORGANIZATION_ROLE ( 'classification_officer' ) ;
#125 = VERTEX_POINT ( 'NONE', #178 ) ;
#126 = DATE_AND_TIME ( #78, #175 ) ;
#127 = ORIENTED_EDGE ( 'NONE', *, *, #58, .T. ) ;
#128 = APPLICATION_PROTOCOL_DEFINITION ( 'international standard', 'config_control_design', 1994, #152 ) ;
#129 = EDGE_LOOP ( 'NONE', ( #2, #127 ) ) ;
#130 = TOROIDAL_SURFACE ( 'NONE', #16, 1.100000000000000089, 0.2000000000000000111 ) ;
#131 = APPROVAL_DATE_TIME ( #290, #76 ) ;
#132 = DIRECTION ( 'NONE',  ( -0.000000000000000000, -0.000000000000000000, -1.000000000000000000 ) ) ;
#133 = CARTESIAN_POINT ( 'NONE',  ( 0.000000000000000000, 0.000000000000000000, 0.000000000000000000 ) ) ;
#134 = DIRECTION ( 'NONE',  ( 1.000000000000000000, 0.000000000000000000, 0.000000000000000000 ) ) ;
#135 = FACE_OUTER_BOUND ( 'NONE', #42, .T. ) ;
#136 = CARTESIAN_POINT ( 'NONE',  ( 2.000000000000000000, 2.449293598294706414E-16, 1.500000000000000000 ) ) ;
#137 = CC_DESIGN_PERSON_AND_ORGANIZATION_ASSIGNMENT ( #217, #124, ( #292 ) ) ;
#138 = DIRECTION ( 'NONE',  ( -1.000000000000000000, 0.000000000000000000, 0.000000000000000000 ) ) ;
#139 = CARTESIAN_POINT ( 'NONE',  ( 0.000000000000000000, 0.000000000000000000, 1.500000000000000000 ) ) ;
#140 = PLANE ( 'NONE',  #7 ) ;
#141 = CYLINDRICAL_SURFACE ( 'NONE', #183, 2.000000000000000000 ) ;
#142 = PERSON_AND_ORGANIZATION ( #235, #73 ) ;
#143 = CALENDAR_DATE ( 2022, 20, 6 ) ;
#144 = AXIS2_PLACEMENT_3D ( 'NONE', #133, #227, #13 ) ;
#145 = VERTEX_POINT ( 'NONE', #66 ) ;
#146 = EDGE_LOOP ( 'NONE', ( #281, #34 ) ) ;
#147 = APPROVAL_STATUS ( 'not_yet_approved' ) ;
#148 = APPROVAL ( #147, 'NEURÈENÝ' ) ;
#149 = EDGE_LOOP ( 'NONE', ( #79, #243, #102, #191 ) ) ;
#150 = PERSON_AND_ORGANIZATION ( #235, #73 ) ;
#151 = LOCAL_TIME ( 12, 21, 51.00000000000000000, #33 ) ;
#152 = APPLICATION_CONTEXT ( 'configuration controlled 3d designs of mechanical parts and assemblies' ) ;
#153 = LINE ( 'NONE', #83, #25 ) ;
#154 = DIRECTION ( 'NONE',  ( 0.000000000000000000, 0.000000000000000000, 1.000000000000000000 ) ) ;
#155 = CARTESIAN_POINT ( 'NONE',  ( -1.100000000000000089, 1.347111479062088503E-16, 1.700000000000007061 ) ) ;
#156 = AXIS2_PLACEMENT_3D ( 'NONE', #267, #10, #59 ) ;
#157 = DIRECTION ( 'NONE',  ( 0.000000000000000000, 0.000000000000000000, 1.000000000000000000 ) ) ;
#158 = DIRECTION ( 'NONE',  ( -0.000000000000000000, -0.000000000000000000, -1.000000000000000000 ) ) ;
#159 = DIRECTION ( 'NONE',  ( -0.000000000000000000, -0.000000000000000000, -1.000000000000000000 ) ) ;
#160 = DIRECTION ( 'NONE',  ( 1.000000000000000000, 0.000000000000000000, -0.000000000000000000 ) ) ;
#161 = APPLICATION_PROTOCOL_DEFINITION ( 'international standard', 'config_control_design', 1994, #186 ) ;
#162 = EDGE_CURVE ( 'NONE', #273, #203, #254, .T. ) ;
#163 = DIRECTION ( 'NONE',  ( 0.000000000000000000, 0.000000000000000000, 1.000000000000000000 ) ) ;
#164 = CIRCLE ( 'NONE', #263, 0.9000000000000000222 ) ;
#165 = DATE_TIME_ROLE ( 'creation_date' ) ;
#166 = EDGE_CURVE ( 'NONE', #97, #168, #280, .T. ) ;
#167 = AXIS2_PLACEMENT_3D ( 'NONE', #64, #81, #134 ) ;
#168 = VERTEX_POINT ( 'NONE', #15 ) ;
#169 = EDGE_CURVE ( 'NONE', #145, #125, #224, .T. ) ;
#170 = SECURITY_CLASSIFICATION_LEVEL ( 'unclassified' ) ;
#171 = ORIENTED_EDGE ( 'NONE', *, *, #70, .F. ) ;
#172 = COORDINATED_UNIVERSAL_TIME_OFFSET ( 1, 0, .AHEAD. ) ;
#173 = ORIENTED_EDGE ( 'NONE', *, *, #108, .F. ) ;
#174 = ORIENTED_EDGE ( 'NONE', *, *, #48, .T. ) ;
#175 = LOCAL_TIME ( 12, 21, 51.00000000000000000, #215 ) ;
#176 = DIRECTION ( 'NONE',  ( 1.224646799147353207E-16, 1.000000000000000000, -0.000000000000000000 ) ) ;
#177 = DIRECTION ( 'NONE',  ( 1.000000000000000000, 0.000000000000000000, -0.000000000000000000 ) ) ;
#178 = CARTESIAN_POINT ( 'NONE',  ( 1.100000000000000089, 0.000000000000000000, 1.500000000000003553 ) ) ;
#179 = AXIS2_PLACEMENT_3D ( 'NONE', #214, #307, #260 ) ;
#180 = EDGE_CURVE ( 'NONE', #203, #291, #164, .T. ) ;
#181 = CARTESIAN_POINT ( 'NONE',  ( 0.000000000000000000, 0.000000000000000000, 0.000000000000000000 ) ) ;
#182 = ORIENTED_EDGE ( 'NONE', *, *, #196, .T. ) ;
#183 = AXIS2_PLACEMENT_3D ( 'NONE', #211, #185, #138 ) ;
#184 = UNCERTAINTY_MEASURE_WITH_UNIT (LENGTH_MEASURE( 1.000000000000000082E-05 ), #285, 'distance_accuracy_value', 'NONE');
#185 = DIRECTION ( 'NONE',  ( -0.000000000000000000, -0.000000000000000000, -1.000000000000000000 ) ) ;
#186 = APPLICATION_CONTEXT ( 'configuration controlled 3d designs of mechanical parts and assemblies' ) ;
#187 = FACE_OUTER_BOUND ( 'NONE', #293, .T. ) ;
#188 = APPROVAL ( #55, 'NEURÈENÝ' ) ;
#189 = DIRECTION ( 'NONE',  ( -0.000000000000000000, -0.000000000000000000, -1.000000000000000000 ) ) ;
#190 = PERSON_AND_ORGANIZATION ( #235, #73 ) ;
#191 = ORIENTED_EDGE ( 'NONE', *, *, #180, .T. ) ;
#192 = APPROVAL_ROLE ( '' ) ;
#193 = VERTEX_POINT ( 'NONE', #276 ) ;
#194 = APPROVAL_PERSON_ORGANIZATION ( #190, #188, #248 ) ;
#195 = ORIENTED_EDGE ( 'NONE', *, *, #200, .T. ) ;
#196 = EDGE_CURVE ( 'NONE', #291, #203, #61, .T. ) ;
#197 = PERSON_AND_ORGANIZATION_ROLE ( 'design_owner' ) ;
#198 = ORIENTED_EDGE ( 'NONE', *, *, #196, .F. ) ;
#199 = ORIENTED_EDGE ( 'NONE', *, *, #180, .F. ) ;
#200 = EDGE_CURVE ( 'NONE', #193, #223, #92, .T. ) ;
#201 = CARTESIAN_POINT ( 'NONE',  ( 0.000000000000000000, 0.000000000000000000, 1.500000000000000000 ) ) ;
#202 = LOCAL_TIME ( 12, 21, 51.00000000000000000, #99 ) ;
#203 = VERTEX_POINT ( 'NONE', #106 ) ;
#204 = ORIENTED_EDGE ( 'NONE', *, *, #108, .T. ) ;
#205 = CIRCLE ( 'NONE', #44, 2.000000000000000000 ) ;
#206 = CYLINDRICAL_SURFACE ( 'NONE', #54, 0.9000000000000000222 ) ;
#207 = AXIS2_PLACEMENT_3D ( 'NONE', #139, #159, #91 ) ;
#208 = ORIENTED_EDGE ( 'NONE', *, *, #166, .T. ) ;
#209 = DIRECTION ( 'NONE',  ( 1.000000000000000000, 0.000000000000000000, 0.000000000000000000 ) ) ;
#210 = DIRECTION ( 'NONE',  ( 0.000000000000000000, 0.000000000000000000, 1.000000000000000000 ) ) ;
#211 = CARTESIAN_POINT ( 'NONE',  ( 0.000000000000000000, 0.000000000000000000, 1.500000000000000000 ) ) ;
#212 = ADVANCED_FACE ( 'NONE', ( #187 ), #49, .T. ) ;
#213 = CIRCLE ( 'NONE', #167, 0.9000000000000000222 ) ;
#214 = CARTESIAN_POINT ( 'NONE',  ( 0.000000000000000000, 0.000000000000000000, 1.500000000000000000 ) ) ;
#215 = COORDINATED_UNIVERSAL_TIME_OFFSET ( 1, 0, .AHEAD. ) ;
#216 = ORIENTED_EDGE ( 'NONE', *, *, #169, .F. ) ;
#217 = PERSON_AND_ORGANIZATION ( #235, #73 ) ;
#218 = ORIENTED_EDGE ( 'NONE', *, *, #255, .T. ) ;
#219 = APPROVAL_ROLE ( '' ) ;
#220 = ADVANCED_FACE ( 'NONE', ( #21 ), #140, .T. ) ;
#221 = APPROVAL_PERSON_ORGANIZATION ( #150, #148, #219 ) ;
#222 = MECHANICAL_CONTEXT ( 'NONE', #186, 'mechanical' ) ;
#223 = VERTEX_POINT ( 'NONE', #46 ) ;
#224 = CIRCLE ( 'NONE', #266, 1.100000000000000089 ) ;
#225 = CARTESIAN_POINT ( 'NONE',  ( 0.000000000000000000, 0.000000000000000000, 1.500000000000000000 ) ) ;
#226 = CC_DESIGN_APPROVAL ( #188, ( #259 ) ) ;
#227 = DIRECTION ( 'NONE',  ( 0.000000000000000000, 0.000000000000000000, 1.000000000000000000 ) ) ;
#228 = DIRECTION ( 'NONE',  ( 0.000000000000000000, 0.000000000000000000, -1.000000000000000000 ) ) ;
#229 = EDGE_CURVE ( 'NONE', #273, #96, #299, .T. ) ;
#230 = DIRECTION ( 'NONE',  ( 0.000000000000000000, -1.000000000000000000, 0.000000000000000000 ) ) ;
#231 = DIRECTION ( 'NONE',  ( 1.000000000000000000, 0.000000000000000000, 0.000000000000000000 ) ) ;
#232 = DIRECTION ( 'NONE',  ( -0.000000000000000000, -0.000000000000000000, -1.000000000000000000 ) ) ;
#233 = CC_DESIGN_PERSON_AND_ORGANIZATION_ASSIGNMENT ( #1, #197, ( #121 ) ) ;
#234 = CARTESIAN_POINT ( 'NONE',  ( 0.000000000000000000, 0.000000000000000000, 1.500000000000000000 ) ) ;
#235 = PERSON ( 'NEURÈENÝ', 'NEURÈENÝ', 'NEURÈENÝ', ('NEURÈENÝ'), ('NEURÈENÝ'), ('NEURÈENÝ') ) ;
#236 = DIRECTION ( 'NONE',  ( -1.000000000000000000, 0.000000000000000000, 0.000000000000000000 ) ) ;
#237 = TOROIDAL_SURFACE ( 'NONE', #241, 1.100000000000000089, 0.2000000000000000111 ) ;
#238 = CARTESIAN_POINT ( 'NONE',  ( 0.000000000000000000, 0.000000000000000000, 1.700000000000007061 ) ) ;
#239 = VECTOR ( 'NONE', #86, 1000.000000000000000 ) ;
#240 = PERSON_AND_ORGANIZATION ( #235, #73 ) ;
#241 = AXIS2_PLACEMENT_3D ( 'NONE', #238, #163, #117 ) ;
#242 = COORDINATED_UNIVERSAL_TIME_OFFSET ( 1, 0, .AHEAD. ) ;
#243 = ORIENTED_EDGE ( 'NONE', *, *, #229, .F. ) ;
#244 = VECTOR ( 'NONE', #63, 1000.000000000000000 ) ;
#245 = APPROVAL_DATE_TIME ( #8, #148 ) ;
#246 = ORIENTED_EDGE ( 'NONE', *, *, #301, .F. ) ;
#247 = APPROVAL_PERSON_ORGANIZATION ( #287, #76, #192 ) ;
#248 = APPROVAL_ROLE ( '' ) ;
#249 = ORIENTED_EDGE ( 'NONE', *, *, #118, .F. ) ;
#250 = ADVANCED_FACE ( 'NONE', ( #47 ), #261, .T. ) ;
#251 = LINE ( 'NONE', #104, #39 ) ;
#252 = CIRCLE ( 'NONE', #115, 0.2000000000000000944 ) ;
#253 = DIRECTION ( 'NONE',  ( 1.000000000000000000, 0.000000000000000000, 0.000000000000000000 ) ) ;
#254 = LINE ( 'NONE', #17, #244 ) ;
#255 = EDGE_CURVE ( 'NONE', #168, #97, #274, .T. ) ;
#256 = CARTESIAN_POINT ( 'NONE',  ( 2.000000000000000000, 2.449293598294706414E-16, 1.500000000000000000 ) ) ;
#257 = CARTESIAN_POINT ( 'NONE',  ( 0.9000000000000000222, 1.102182119232617788E-16, 101.5000000000000000 ) ) ;
#258 = FACE_OUTER_BOUND ( 'NONE', #57, .T. ) ;
#259 = PRODUCT_DEFINITION_FORMATION_WITH_SPECIFIED_SOURCE ( 'LIBOVOLNÝ', '', #121, .NOT_KNOWN. ) ;
#260 = DIRECTION ( 'NONE',  ( 1.000000000000000000, 0.000000000000000000, 0.000000000000000000 ) ) ;
#261 = CYLINDRICAL_SURFACE ( 'NONE', #286, 2.000000000000000000 ) ;
#262 = DIRECTION ( 'NONE',  ( 1.000000000000000000, 0.000000000000000000, -0.000000000000000000 ) ) ;
#263 = AXIS2_PLACEMENT_3D ( 'NONE', #275, #154, #253 ) ;
#264 =( NAMED_UNIT ( * ) PLANE_ANGLE_UNIT ( ) SI_UNIT ( $, .RADIAN. ) );
#265 = APPROVAL_DATE_TIME ( #3, #188 ) ;
#266 = AXIS2_PLACEMENT_3D ( 'NONE', #201, #112, #296 ) ;
#267 = CARTESIAN_POINT ( 'NONE',  ( 0.000000000000000000, 0.000000000000000000, 0.000000000000000000 ) ) ;
#268 = ADVANCED_FACE ( 'NONE', ( #284 ), #237, .F. ) ;
#269 = EDGE_LOOP ( 'NONE', ( #249, #198, #204, #216 ) ) ;
#270 = ORIENTED_EDGE ( 'NONE', *, *, #200, .F. ) ;
#271 = PERSON_AND_ORGANIZATION ( #235, #73 ) ;
#272 = PRODUCT_DEFINITION ( 'NEZNÁMÝ', '', #259, #303 ) ;
#273 = VERTEX_POINT ( 'NONE', #18 ) ;
#274 = CIRCLE ( 'NONE', #179, 2.000000000000000000 ) ;
#275 = CARTESIAN_POINT ( 'NONE',  ( 0.000000000000000000, 0.000000000000000000, 1.700000000000007061 ) ) ;
#276 = CARTESIAN_POINT ( 'NONE',  ( -2.000000000000000000, 0.000000000000000000, 0.000000000000000000 ) ) ;
#277 = ADVANCED_FACE ( 'NONE', ( #258 ), #141, .T. ) ;
#278 = CARTESIAN_POINT ( 'NONE',  ( 1.100000000000000089, 0.000000000000000000, 1.700000000000007061 ) ) ;
#279 = DIRECTION ( 'NONE',  ( 0.000000000000000000, 0.000000000000000000, 1.000000000000000000 ) ) ;
#280 = CIRCLE ( 'NONE', #19, 2.000000000000000000 ) ;
#281 = ORIENTED_EDGE ( 'NONE', *, *, #301, .T. ) ;
#282 = DIRECTION ( 'NONE',  ( -1.000000000000000000, 0.000000000000000000, 0.000000000000000000 ) ) ;
#283 = ADVANCED_FACE ( 'NONE', ( #119 ), #68, .F. ) ;
#284 = FACE_OUTER_BOUND ( 'NONE', #269, .T. ) ;
#285 =( LENGTH_UNIT ( ) NAMED_UNIT ( * ) SI_UNIT ( .MILLI., .METRE. ) );
#286 = AXIS2_PLACEMENT_3D ( 'NONE', #234, #189, #282 ) ;
#287 = PERSON_AND_ORGANIZATION ( #235, #73 ) ;
#288 = ADVANCED_FACE ( 'NONE', ( #71 ), #130, .F. ) ;
#289 = AXIS2_PLACEMENT_3D ( 'NONE', #155, #176, #107 ) ;
#290 = DATE_AND_TIME ( #143, #98 ) ;
#291 = VERTEX_POINT ( 'NONE', #306 ) ;
#292 = SECURITY_CLASSIFICATION ( '', '', #170 ) ;
#293 = EDGE_LOOP ( 'NONE', ( #100, #174, #182, #4 ) ) ;
#294 = CC_DESIGN_APPROVAL ( #148, ( #272 ) ) ;
#295 = DIRECTION ( 'NONE',  ( 0.000000000000000000, 0.000000000000000000, 1.000000000000000000 ) ) ;
#296 = DIRECTION ( 'NONE',  ( 1.000000000000000000, 0.000000000000000000, 0.000000000000000000 ) ) ;
#297 = CC_DESIGN_PERSON_AND_ORGANIZATION_ASSIGNMENT ( #142, #122, ( #259 ) ) ;
#298 = CARTESIAN_POINT ( 'NONE',  ( 0.000000000000000000, 0.000000000000000000, 101.5000000000000000 ) ) ;
#299 = CIRCLE ( 'NONE', #69, 0.9000000000000000222 ) ;
#300 = DIRECTION ( 'NONE',  ( -1.000000000000000000, 0.000000000000000000, 0.000000000000000000 ) ) ;
#301 = EDGE_CURVE ( 'NONE', #125, #145, #105, .T. ) ;
#302 = FACE_BOUND ( 'NONE', #146, .T. ) ;
#303 = DESIGN_CONTEXT ( 'detailed design', #152, 'design' ) ;
#304 = DIRECTION ( 'NONE',  ( 1.000000000000000000, 0.000000000000000000, 0.000000000000000000 ) ) ;
#305 = CC_DESIGN_PERSON_AND_ORGANIZATION_ASSIGNMENT ( #240, #29, ( #272 ) ) ;
#306 = CARTESIAN_POINT ( 'NONE',  ( 0.9000000000000000222, 1.102182119232617788E-16, 1.700000000000007061 ) ) ;
#307 = DIRECTION ( 'NONE',  ( 0.000000000000000000, 0.000000000000000000, 1.000000000000000000 ) ) ;
ENDSEC;
END-ISO-10303-21;
