ISO-10303-21;
HEADER;
FILE_DESCRIPTION (( 'STEP AP203' ),
    '1' );
FILE_NAME ('f813.STEP',
    '2022-06-20T09:17:18',
    ( '' ),
    ( '' ),
    'SwSTEP 2.0',
    'SolidWorks 2019',
    '' );
FILE_SCHEMA (( 'CONFIG_CONTROL_DESIGN' ));
ENDSEC;

DATA;
#1 = CARTESIAN_POINT ( 'NONE',  ( 12.70000000000000107, 0.000000000000000000, 9.999999999999992895 ) ) ;
#2 = ADVANCED_FACE ( 'NONE', ( #161, #142 ), #156, .T. ) ;
#3 = PLANE ( 'NONE',  #9 ) ;
#4 = CIRCLE ( 'NONE', #224, 16.00000000000000000 ) ;
#5 = CARTESIAN_POINT ( 'NONE',  ( 0.000000000000000000, 0.000000000000000000, 1010.000000000000000 ) ) ;
#6 = DIRECTION ( 'NONE',  ( -0.000000000000000000, -0.000000000000000000, -1.000000000000000000 ) ) ;
#7 = CC_DESIGN_PERSON_AND_ORGANIZATION_ASSIGNMENT ( #134, #16, ( #208 ) ) ;
#8 = CYLINDRICAL_SURFACE ( 'NONE', #57, 12.50000000000000000 ) ;
#9 = AXIS2_PLACEMENT_3D ( 'NONE', #96, #188, #167 ) ;
#10 = CC_DESIGN_SECURITY_CLASSIFICATION ( #164, ( #208 ) ) ;
#11 = CARTESIAN_POINT ( 'NONE',  ( 0.000000000000000000, 0.000000000000000000, 10.19999999999998685 ) ) ;
#12 = CARTESIAN_POINT ( 'NONE',  ( 16.00000000000000000, 1.959434878635765131E-15, 0.000000000000000000 ) ) ;
#13 = DIRECTION ( 'NONE',  ( 1.000000000000000000, 0.000000000000000000, 0.000000000000000000 ) ) ;
#14 = APPROVAL_DATE_TIME ( #56, #121 ) ;
#15 = PERSON_AND_ORGANIZATION_ROLE ( 'design_owner' ) ;
#16 = PERSON_AND_ORGANIZATION_ROLE ( 'creator' ) ;
#17 = LINE ( 'NONE', #86, #280 ) ;
#18 = TOROIDAL_SURFACE ( 'NONE', #296, 12.70000000000000107, 0.2000000000000000111 ) ;
#19 = CARTESIAN_POINT ( 'NONE',  ( -12.50000000000000000, 0.000000000000000000, 1010.000000000000000 ) ) ;
#20 = APPROVAL_DATE_TIME ( #68, #303 ) ;
#21 = ORIENTED_EDGE ( 'NONE', *, *, #185, .T. ) ;
#22 = VERTEX_POINT ( 'NONE', #19 ) ;
#23 = EDGE_LOOP ( 'NONE', ( #46, #105 ) ) ;
#24 = ADVANCED_FACE ( 'NONE', ( #183 ), #93, .F. ) ;
#25 = DIRECTION ( 'NONE',  ( 0.000000000000000000, 0.000000000000000000, -1.000000000000000000 ) ) ;
#26 = FACE_OUTER_BOUND ( 'NONE', #301, .T. ) ;
#27 = DIRECTION ( 'NONE',  ( -0.000000000000000000, -0.000000000000000000, -1.000000000000000000 ) ) ;
#28 = DIRECTION ( 'NONE',  ( -1.000000000000000000, 0.000000000000000000, 0.000000000000000000 ) ) ;
#29 = CC_DESIGN_DATE_AND_TIME_ASSIGNMENT ( #227, #251, ( #164 ) ) ;
#30 = DIRECTION ( 'NONE',  ( 0.000000000000000000, 0.000000000000000000, 1.000000000000000000 ) ) ;
#31 = LINE ( 'NONE', #295, #218 ) ;
#32 = AXIS2_PLACEMENT_3D ( 'NONE', #168, #191, #266 ) ;
#33 = EDGE_CURVE ( 'NONE', #109, #302, #17, .T. ) ;
#34 = DIRECTION ( 'NONE',  ( 0.000000000000000000, 0.000000000000000000, 1.000000000000000000 ) ) ;
#35 = DIRECTION ( 'NONE',  ( 1.000000000000000000, 0.000000000000000000, 0.000000000000000000 ) ) ;
#36 = CIRCLE ( 'NONE', #192, 0.2000000000000005107 ) ;
#37 = LOCAL_TIME ( 11, 17, 18.00000000000000000, #278 ) ;
#38 = DIRECTION ( 'NONE',  ( 1.000000000000000000, 0.000000000000000000, 0.000000000000000000 ) ) ;
#39 = DATE_AND_TIME ( #229, #62 ) ;
#40 = ORIENTED_EDGE ( 'NONE', *, *, #103, .T. ) ;
#41 = EDGE_CURVE ( 'NONE', #160, #45, #173, .T. ) ;
#42 = EDGE_LOOP ( 'NONE', ( #181, #138, #21, #234 ) ) ;
#43 =( GEOMETRIC_REPRESENTATION_CONTEXT ( 3 ) GLOBAL_UNCERTAINTY_ASSIGNED_CONTEXT ( ( #89 ) ) GLOBAL_UNIT_ASSIGNED_CONTEXT ( ( #222, #104, #220 ) ) REPRESENTATION_CONTEXT ( 'NONE', 'WORKASPACE' ) );
#44 = PERSON_AND_ORGANIZATION ( #231, #241 ) ;
#45 = VERTEX_POINT ( 'NONE', #149 ) ;
#46 = ORIENTED_EDGE ( 'NONE', *, *, #210, .T. ) ;
#47 = ORIENTED_EDGE ( 'NONE', *, *, #91, .T. ) ;
#48 = AXIS2_PLACEMENT_3D ( 'NONE', #194, #250, #38 ) ;
#49 = CYLINDRICAL_SURFACE ( 'NONE', #199, 16.00000000000000000 ) ;
#50 = DIRECTION ( 'NONE',  ( 0.000000000000000000, 0.000000000000000000, 1.000000000000000000 ) ) ;
#51 = DIRECTION ( 'NONE',  ( 0.000000000000000000, 0.000000000000000000, 1.000000000000000000 ) ) ;
#52 = CARTESIAN_POINT ( 'NONE',  ( -16.00000000000000000, 0.000000000000000000, 10.00000000000000000 ) ) ;
#53 = CIRCLE ( 'NONE', #61, 0.2000000000000005107 ) ;
#54 = CC_DESIGN_PERSON_AND_ORGANIZATION_ASSIGNMENT ( #85, #179, ( #208 ) ) ;
#55 = FACE_OUTER_BOUND ( 'NONE', #113, .T. ) ;
#56 = DATE_AND_TIME ( #127, #106 ) ;
#57 = AXIS2_PLACEMENT_3D ( 'NONE', #5, #289, #28 ) ;
#58 = CC_DESIGN_DATE_AND_TIME_ASSIGNMENT ( #172, #276, ( #232 ) ) ;
#59 = CARTESIAN_POINT ( 'NONE',  ( -16.00000000000000000, 0.000000000000000000, 0.000000000000000000 ) ) ;
#60 = PRODUCT_RELATED_PRODUCT_CATEGORY ( 'detail', '', ( #153 ) ) ;
#61 = AXIS2_PLACEMENT_3D ( 'NONE', #268, #119, #25 ) ;
#62 = LOCAL_TIME ( 11, 17, 18.00000000000000000, #63 ) ;
#63 = COORDINATED_UNIVERSAL_TIME_OFFSET ( 1, 0, .AHEAD. ) ;
#64 = VERTEX_POINT ( 'NONE', #1 ) ;
#65 = ORIENTED_EDGE ( 'NONE', *, *, #221, .T. ) ;
#66 = ORIENTED_EDGE ( 'NONE', *, *, #72, .T. ) ;
#67 = EDGE_LOOP ( 'NONE', ( #65, #69 ) ) ;
#68 = DATE_AND_TIME ( #233, #37 ) ;
#69 = ORIENTED_EDGE ( 'NONE', *, *, #131, .T. ) ;
#70 = CARTESIAN_POINT ( 'NONE',  ( 12.50000000000000000, 1.530808498934191521E-15, 1010.000000000000000 ) ) ;
#71 = DIRECTION ( 'NONE',  ( 1.000000000000000000, 0.000000000000000000, 0.000000000000000000 ) ) ;
#72 = EDGE_CURVE ( 'NONE', #45, #90, #36, .T. ) ;
#73 = CARTESIAN_POINT ( 'NONE',  ( 16.00000000000000000, 1.959434878635765131E-15, 10.00000000000000000 ) ) ;
#74 = APPROVAL ( #204, 'NEURÈENÝ' ) ;
#75 = CARTESIAN_POINT ( 'NONE',  ( -12.70000000000000107, 1.555301434917138630E-15, 9.999999999999992895 ) ) ;
#76 = AXIS2_PLACEMENT_3D ( 'NONE', #288, #30, #125 ) ;
#77 = CARTESIAN_POINT ( 'NONE',  ( 12.50000000000000000, 1.530808498934191521E-15, 10.19999999999998685 ) ) ;
#78 = MECHANICAL_CONTEXT ( 'NONE', #263, 'mechanical' ) ;
#79 = DIRECTION ( 'NONE',  ( 0.000000000000000000, 0.000000000000000000, 1.000000000000000000 ) ) ;
#80 = CARTESIAN_POINT ( 'NONE',  ( 0.000000000000000000, 0.000000000000000000, 10.19999999999998685 ) ) ;
#81 = APPROVAL_PERSON_ORGANIZATION ( #174, #121, #247 ) ;
#82 = ADVANCED_FACE ( 'NONE', ( #55 ), #8, .T. ) ;
#83 = CARTESIAN_POINT ( 'NONE',  ( 0.000000000000000000, 0.000000000000000000, 10.19999999999998685 ) ) ;
#84 = VECTOR ( 'NONE', #237, 1000.000000000000000 ) ;
#85 = PERSON_AND_ORGANIZATION ( #231, #241 ) ;
#86 = CARTESIAN_POINT ( 'NONE',  ( -16.00000000000000000, 0.000000000000000000, 10.00000000000000000 ) ) ;
#87 = EDGE_CURVE ( 'NONE', #300, #160, #94, .T. ) ;
#88 = CARTESIAN_POINT ( 'NONE',  ( 0.000000000000000000, 0.000000000000000000, 10.00000000000000000 ) ) ;
#89 = UNCERTAINTY_MEASURE_WITH_UNIT (LENGTH_MEASURE( 1.000000000000000082E-05 ), #222, 'distance_accuracy_value', 'NONE');
#90 = VERTEX_POINT ( 'NONE', #75 ) ;
#91 = EDGE_CURVE ( 'NONE', #283, #302, #305, .T. ) ;
#92 = VERTEX_POINT ( 'NONE', #97 ) ;
#93 = PLANE ( 'NONE',  #255 ) ;
#94 = LINE ( 'NONE', #70, #143 ) ;
#95 = AXIS2_PLACEMENT_3D ( 'NONE', #285, #50, #215 ) ;
#96 = CARTESIAN_POINT ( 'NONE',  ( 0.000000000000000000, 0.000000000000000000, 1010.000000000000000 ) ) ;
#97 = CARTESIAN_POINT ( 'NONE',  ( 16.00000000000000000, 1.959434878635765131E-15, 10.00000000000000000 ) ) ;
#98 = DIRECTION ( 'NONE',  ( -1.000000000000000000, 0.000000000000000000, 0.000000000000000000 ) ) ;
#99 = AXIS2_PLACEMENT_3D ( 'NONE', #88, #236, #118 ) ;
#100 = DIRECTION ( 'NONE',  ( -0.000000000000000000, -0.000000000000000000, -1.000000000000000000 ) ) ;
#101 = EDGE_CURVE ( 'NONE', #300, #22, #271, .T. ) ;
#102 = PERSON_AND_ORGANIZATION ( #231, #241 ) ;
#103 = EDGE_CURVE ( 'NONE', #109, #92, #275, .T. ) ;
#104 =( NAMED_UNIT ( * ) PLANE_ANGLE_UNIT ( ) SI_UNIT ( $, .RADIAN. ) );
#105 = ORIENTED_EDGE ( 'NONE', *, *, #101, .T. ) ;
#106 = LOCAL_TIME ( 11, 17, 18.00000000000000000, #270 ) ;
#107 = CARTESIAN_POINT ( 'NONE',  ( 0.000000000000000000, 0.000000000000000000, 10.00000000000000000 ) ) ;
#108 = APPROVAL_STATUS ( 'not_yet_approved' ) ;
#109 = VERTEX_POINT ( 'NONE', #52 ) ;
#110 = CLOSED_SHELL ( 'NONE', ( #294, #82, #165, #139, #2, #24, #158, #196, #269 ) ) ;
#111 = ORIENTED_EDGE ( 'NONE', *, *, #33, .F. ) ;
#112 = SHAPE_DEFINITION_REPRESENTATION ( #273, #124 ) ;
#113 = EDGE_LOOP ( 'NONE', ( #252, #254, #159, #256 ) ) ;
#114 = CC_DESIGN_PERSON_AND_ORGANIZATION_ASSIGNMENT ( #274, #154, ( #232 ) ) ;
#115 = EDGE_LOOP ( 'NONE', ( #282, #184 ) ) ;
#116 = AXIS2_PLACEMENT_3D ( 'NONE', #148, #100, #238 ) ;
#117 = CC_DESIGN_PERSON_AND_ORGANIZATION_ASSIGNMENT ( #44, #137, ( #164 ) ) ;
#118 = DIRECTION ( 'NONE',  ( 1.000000000000000000, 0.000000000000000000, -0.000000000000000000 ) ) ;
#119 = DIRECTION ( 'NONE',  ( 0.000000000000000000, -1.000000000000000000, 0.000000000000000000 ) ) ;
#120 = DIRECTION ( 'NONE',  ( -0.000000000000000000, -0.000000000000000000, -1.000000000000000000 ) ) ;
#121 = APPROVAL ( #272, 'NEURÈENÝ' ) ;
#122 = DIRECTION ( 'NONE',  ( 1.000000000000000000, 0.000000000000000000, 0.000000000000000000 ) ) ;
#123 = CYLINDRICAL_SURFACE ( 'NONE', #155, 16.00000000000000000 ) ;
#124 = ADVANCED_BREP_SHAPE_REPRESENTATION ( 'f813', ( #187, #163 ), #43 ) ;
#125 = DIRECTION ( 'NONE',  ( 1.000000000000000000, 0.000000000000000000, 0.000000000000000000 ) ) ;
#126 = CC_DESIGN_APPROVAL ( #74, ( #208 ) ) ;
#127 = CALENDAR_DATE ( 2022, 20, 6 ) ;
#128 = CIRCLE ( 'NONE', #136, 12.50000000000000000 ) ;
#129 = APPLICATION_CONTEXT ( 'configuration controlled 3d designs of mechanical parts and assemblies' ) ;
#130 = DIRECTION ( 'NONE',  ( 1.000000000000000000, 0.000000000000000000, 0.000000000000000000 ) ) ;
#131 = EDGE_CURVE ( 'NONE', #90, #64, #182, .T. ) ;
#132 = APPROVAL_ROLE ( '' ) ;
#133 = ORIENTED_EDGE ( 'NONE', *, *, #214, .F. ) ;
#134 = PERSON_AND_ORGANIZATION ( #231, #241 ) ;
#135 = ORIENTED_EDGE ( 'NONE', *, *, #178, .T. ) ;
#136 = AXIS2_PLACEMENT_3D ( 'NONE', #265, #51, #240 ) ;
#137 = PERSON_AND_ORGANIZATION_ROLE ( 'classification_officer' ) ;
#138 = ORIENTED_EDGE ( 'NONE', *, *, #41, .F. ) ;
#139 = ADVANCED_FACE ( 'NONE', ( #243 ), #123, .T. ) ;
#140 = ORIENTED_EDGE ( 'NONE', *, *, #189, .T. ) ;
#141 = SECURITY_CLASSIFICATION_LEVEL ( 'unclassified' ) ;
#142 = FACE_OUTER_BOUND ( 'NONE', #211, .T. ) ;
#143 = VECTOR ( 'NONE', #242, 1000.000000000000000 ) ;
#144 = DIRECTION ( 'NONE',  ( -1.000000000000000000, 0.000000000000000000, 0.000000000000000000 ) ) ;
#145 = DIRECTION ( 'NONE',  ( 0.000000000000000000, 0.000000000000000000, 1.000000000000000000 ) ) ;
#146 = DIRECTION ( 'NONE',  ( 0.000000000000000000, 0.000000000000000000, 1.000000000000000000 ) ) ;
#147 = AXIS2_PLACEMENT_3D ( 'NONE', #83, #79, #225 ) ;
#148 = CARTESIAN_POINT ( 'NONE',  ( 0.000000000000000000, 0.000000000000000000, 10.00000000000000000 ) ) ;
#149 = CARTESIAN_POINT ( 'NONE',  ( -12.50000000000000000, 0.000000000000000000, 10.19999999999998685 ) ) ;
#150 = TOROIDAL_SURFACE ( 'NONE', #147, 12.70000000000000107, 0.2000000000000000111 ) ;
#151 = APPLICATION_PROTOCOL_DEFINITION ( 'international standard', 'config_control_design', 1994, #263 ) ;
#152 = EDGE_LOOP ( 'NONE', ( #133, #135, #47, #111 ) ) ;
#153 = PRODUCT ( 'f813', 'f813', '', ( #78 ) ) ;
#154 = PERSON_AND_ORGANIZATION_ROLE ( 'creator' ) ;
#155 = AXIS2_PLACEMENT_3D ( 'NONE', #216, #6, #98 ) ;
#156 = PLANE ( 'NONE',  #99 ) ;
#157 = ORIENTED_EDGE ( 'NONE', *, *, #214, .T. ) ;
#158 = ADVANCED_FACE ( 'NONE', ( #26 ), #186, .T. ) ;
#159 = ORIENTED_EDGE ( 'NONE', *, *, #41, .T. ) ;
#160 = VERTEX_POINT ( 'NONE', #77 ) ;
#161 = FACE_BOUND ( 'NONE', #67, .T. ) ;
#162 = DIRECTION ( 'NONE',  ( -1.000000000000000000, 0.000000000000000000, 0.000000000000000000 ) ) ;
#163 = AXIS2_PLACEMENT_3D ( 'NONE', #248, #226, #35 ) ;
#164 = SECURITY_CLASSIFICATION ( '', '', #141 ) ;
#165 = ADVANCED_FACE ( 'NONE', ( #260 ), #49, .T. ) ;
#166 = CARTESIAN_POINT ( 'NONE',  ( 0.000000000000000000, 0.000000000000000000, 10.00000000000000000 ) ) ;
#167 = DIRECTION ( 'NONE',  ( 1.000000000000000000, 0.000000000000000000, -0.000000000000000000 ) ) ;
#168 = CARTESIAN_POINT ( 'NONE',  ( 0.000000000000000000, 0.000000000000000000, 1010.000000000000000 ) ) ;
#169 = LOCAL_TIME ( 11, 17, 18.00000000000000000, #292 ) ;
#170 = APPROVAL_PERSON_ORGANIZATION ( #198, #303, #132 ) ;
#171 = LINE ( 'NONE', #73, #84 ) ;
#172 = DATE_AND_TIME ( #193, #169 ) ;
#173 = CIRCLE ( 'NONE', #261, 12.50000000000000000 ) ;
#174 = PERSON_AND_ORGANIZATION ( #231, #241 ) ;
#175 = APPLICATION_PROTOCOL_DEFINITION ( 'international standard', 'config_control_design', 1994, #129 ) ;
#176 = CIRCLE ( 'NONE', #48, 12.70000000000000107 ) ;
#177 = ORIENTED_EDGE ( 'NONE', *, *, #281, .T. ) ;
#178 = EDGE_CURVE ( 'NONE', #92, #283, #171, .T. ) ;
#179 = PERSON_AND_ORGANIZATION_ROLE ( 'design_supplier' ) ;
#180 = DIRECTION ( 'NONE',  ( 0.000000000000000000, 0.000000000000000000, 1.000000000000000000 ) ) ;
#181 = ORIENTED_EDGE ( 'NONE', *, *, #72, .F. ) ;
#182 = CIRCLE ( 'NONE', #116, 12.70000000000000107 ) ;
#183 = FACE_OUTER_BOUND ( 'NONE', #115, .T. ) ;
#184 = ORIENTED_EDGE ( 'NONE', *, *, #91, .F. ) ;
#185 = EDGE_CURVE ( 'NONE', #160, #64, #53, .T. ) ;
#186 = CYLINDRICAL_SURFACE ( 'NONE', #291, 12.50000000000000000 ) ;
#187 = MANIFOLD_SOLID_BREP ( 'Zaoblit1', #110 ) ;
#188 = DIRECTION ( 'NONE',  ( 0.000000000000000000, 0.000000000000000000, 1.000000000000000000 ) ) ;
#189 = EDGE_CURVE ( 'NONE', #302, #283, #249, .T. ) ;
#190 = DIRECTION ( 'NONE',  ( -1.000000000000000000, 1.224646799147353207E-16, 0.000000000000000000 ) ) ;
#191 = DIRECTION ( 'NONE',  ( 0.000000000000000000, 0.000000000000000000, 1.000000000000000000 ) ) ;
#192 = AXIS2_PLACEMENT_3D ( 'NONE', #284, #264, #190 ) ;
#193 = CALENDAR_DATE ( 2022, 20, 6 ) ;
#194 = CARTESIAN_POINT ( 'NONE',  ( 0.000000000000000000, 0.000000000000000000, 10.00000000000000000 ) ) ;
#195 = DIRECTION ( 'NONE',  ( 0.000000000000000000, 0.000000000000000000, 1.000000000000000000 ) ) ;
#196 = ADVANCED_FACE ( 'NONE', ( #213 ), #3, .T. ) ;
#197 = DIRECTION ( 'NONE',  ( 1.000000000000000000, 0.000000000000000000, 0.000000000000000000 ) ) ;
#198 = PERSON_AND_ORGANIZATION ( #231, #241 ) ;
#199 = AXIS2_PLACEMENT_3D ( 'NONE', #166, #120, #144 ) ;
#200 = ORIENTED_EDGE ( 'NONE', *, *, #33, .T. ) ;
#201 = PERSON_AND_ORGANIZATION ( #231, #241 ) ;
#202 = ORIENTED_EDGE ( 'NONE', *, *, #239, .T. ) ;
#203 = DESIGN_CONTEXT ( 'detailed design', #129, 'design' ) ;
#204 = APPROVAL_STATUS ( 'not_yet_approved' ) ;
#205 = ORIENTED_EDGE ( 'NONE', *, *, #178, .F. ) ;
#206 = APPROVAL_DATE_TIME ( #39, #74 ) ;
#207 = ORIENTED_EDGE ( 'NONE', *, *, #103, .F. ) ;
#208 = PRODUCT_DEFINITION_FORMATION_WITH_SPECIFIED_SOURCE ( 'LIBOVOLNÝ', '', #153, .NOT_KNOWN. ) ;
#209 = CC_DESIGN_APPROVAL ( #303, ( #164 ) ) ;
#210 = EDGE_CURVE ( 'NONE', #22, #300, #128, .T. ) ;
#211 = EDGE_LOOP ( 'NONE', ( #40, #157 ) ) ;
#212 = CARTESIAN_POINT ( 'NONE',  ( 0.000000000000000000, 0.000000000000000000, 0.000000000000000000 ) ) ;
#213 = FACE_OUTER_BOUND ( 'NONE', #23, .T. ) ;
#214 = EDGE_CURVE ( 'NONE', #92, #109, #4, .T. ) ;
#215 = DIRECTION ( 'NONE',  ( 1.000000000000000000, 0.000000000000000000, 0.000000000000000000 ) ) ;
#216 = CARTESIAN_POINT ( 'NONE',  ( 0.000000000000000000, 0.000000000000000000, 10.00000000000000000 ) ) ;
#217 = CARTESIAN_POINT ( 'NONE',  ( 0.000000000000000000, 0.000000000000000000, 10.19999999999998685 ) ) ;
#218 = VECTOR ( 'NONE', #298, 1000.000000000000000 ) ;
#219 = LOCAL_TIME ( 11, 17, 18.00000000000000000, #253 ) ;
#220 =( NAMED_UNIT ( * ) SI_UNIT ( $, .STERADIAN. ) SOLID_ANGLE_UNIT ( ) );
#221 = EDGE_CURVE ( 'NONE', #64, #90, #176, .T. ) ;
#222 =( LENGTH_UNIT ( ) NAMED_UNIT ( * ) SI_UNIT ( .MILLI., .METRE. ) );
#223 = ORIENTED_EDGE ( 'NONE', *, *, #87, .F. ) ;
#224 = AXIS2_PLACEMENT_3D ( 'NONE', #107, #195, #130 ) ;
#225 = DIRECTION ( 'NONE',  ( 1.000000000000000000, 0.000000000000000000, 0.000000000000000000 ) ) ;
#226 = DIRECTION ( 'NONE',  ( 0.000000000000000000, 0.000000000000000000, 1.000000000000000000 ) ) ;
#227 = DATE_AND_TIME ( #257, #219 ) ;
#228 = CARTESIAN_POINT ( 'NONE',  ( 0.000000000000000000, 0.000000000000000000, 0.000000000000000000 ) ) ;
#229 = CALENDAR_DATE ( 2022, 20, 6 ) ;
#230 = DIRECTION ( 'NONE',  ( -0.000000000000000000, -0.000000000000000000, -1.000000000000000000 ) ) ;
#231 = PERSON ( 'NEURÈENÝ', 'NEURÈENÝ', 'NEURÈENÝ', ('NEURÈENÝ'), ('NEURÈENÝ'), ('NEURÈENÝ') ) ;
#232 = PRODUCT_DEFINITION ( 'NEZNÁMÝ', '', #208, #203 ) ;
#233 = CALENDAR_DATE ( 2022, 20, 6 ) ;
#234 = ORIENTED_EDGE ( 'NONE', *, *, #131, .F. ) ;
#235 = ORIENTED_EDGE ( 'NONE', *, *, #210, .F. ) ;
#236 = DIRECTION ( 'NONE',  ( 0.000000000000000000, 0.000000000000000000, 1.000000000000000000 ) ) ;
#237 = DIRECTION ( 'NONE',  ( -0.000000000000000000, -0.000000000000000000, -1.000000000000000000 ) ) ;
#238 = DIRECTION ( 'NONE',  ( 1.000000000000000000, 0.000000000000000000, 0.000000000000000000 ) ) ;
#239 = EDGE_CURVE ( 'NONE', #45, #160, #286, .T. ) ;
#240 = DIRECTION ( 'NONE',  ( 1.000000000000000000, 0.000000000000000000, 0.000000000000000000 ) ) ;
#241 = ORGANIZATION ( 'NEURÈENÝ', 'NEURÈENÝ', '' ) ;
#242 = DIRECTION ( 'NONE',  ( -0.000000000000000000, -0.000000000000000000, -1.000000000000000000 ) ) ;
#243 = FACE_OUTER_BOUND ( 'NONE', #258, .T. ) ;
#244 = FACE_OUTER_BOUND ( 'NONE', #42, .T. ) ;
#245 = AXIS2_PLACEMENT_3D ( 'NONE', #212, #146, #71 ) ;
#246 = DIRECTION ( 'NONE',  ( 0.000000000000000000, 0.000000000000000000, 1.000000000000000000 ) ) ;
#247 = APPROVAL_ROLE ( '' ) ;
#248 = CARTESIAN_POINT ( 'NONE',  ( 0.000000000000000000, 0.000000000000000000, 0.000000000000000000 ) ) ;
#249 = CIRCLE ( 'NONE', #245, 16.00000000000000000 ) ;
#250 = DIRECTION ( 'NONE',  ( -0.000000000000000000, -0.000000000000000000, -1.000000000000000000 ) ) ;
#251 = DATE_TIME_ROLE ( 'classification_date' ) ;
#252 = ORIENTED_EDGE ( 'NONE', *, *, #101, .F. ) ;
#253 = COORDINATED_UNIVERSAL_TIME_OFFSET ( 1, 0, .AHEAD. ) ;
#254 = ORIENTED_EDGE ( 'NONE', *, *, #87, .T. ) ;
#255 = AXIS2_PLACEMENT_3D ( 'NONE', #228, #180, #279 ) ;
#256 = ORIENTED_EDGE ( 'NONE', *, *, #281, .F. ) ;
#257 = CALENDAR_DATE ( 2022, 20, 6 ) ;
#258 = EDGE_LOOP ( 'NONE', ( #205, #207, #200, #140 ) ) ;
#259 = EDGE_LOOP ( 'NONE', ( #277, #66, #306, #307 ) ) ;
#260 = FACE_OUTER_BOUND ( 'NONE', #152, .T. ) ;
#261 = AXIS2_PLACEMENT_3D ( 'NONE', #217, #145, #122 ) ;
#262 = APPROVAL_PERSON_ORGANIZATION ( #201, #74, #299 ) ;
#263 = APPLICATION_CONTEXT ( 'configuration controlled 3d designs of mechanical parts and assemblies' ) ;
#264 = DIRECTION ( 'NONE',  ( 1.224646799147353207E-16, 1.000000000000000000, -0.000000000000000000 ) ) ;
#265 = CARTESIAN_POINT ( 'NONE',  ( 0.000000000000000000, 0.000000000000000000, 1010.000000000000000 ) ) ;
#266 = DIRECTION ( 'NONE',  ( 1.000000000000000000, 0.000000000000000000, 0.000000000000000000 ) ) ;
#267 = AXIS2_PLACEMENT_3D ( 'NONE', #11, #34, #197 ) ;
#268 = CARTESIAN_POINT ( 'NONE',  ( 12.70000000000000107, 0.000000000000000000, 10.19999999999998685 ) ) ;
#269 = ADVANCED_FACE ( 'NONE', ( #244 ), #150, .F. ) ;
#270 = COORDINATED_UNIVERSAL_TIME_OFFSET ( 1, 0, .AHEAD. ) ;
#271 = CIRCLE ( 'NONE', #32, 12.50000000000000000 ) ;
#272 = APPROVAL_STATUS ( 'not_yet_approved' ) ;
#273 = PRODUCT_DEFINITION_SHAPE ( 'NONE', 'NONE',  #232 ) ;
#274 = PERSON_AND_ORGANIZATION ( #231, #241 ) ;
#275 = CIRCLE ( 'NONE', #76, 16.00000000000000000 ) ;
#276 = DATE_TIME_ROLE ( 'creation_date' ) ;
#277 = ORIENTED_EDGE ( 'NONE', *, *, #239, .F. ) ;
#278 = COORDINATED_UNIVERSAL_TIME_OFFSET ( 1, 0, .AHEAD. ) ;
#279 = DIRECTION ( 'NONE',  ( 1.000000000000000000, 0.000000000000000000, -0.000000000000000000 ) ) ;
#280 = VECTOR ( 'NONE', #230, 1000.000000000000000 ) ;
#281 = EDGE_CURVE ( 'NONE', #22, #45, #31, .T. ) ;
#282 = ORIENTED_EDGE ( 'NONE', *, *, #189, .F. ) ;
#283 = VERTEX_POINT ( 'NONE', #12 ) ;
#284 = CARTESIAN_POINT ( 'NONE',  ( -12.70000000000000107, 1.555301434917138630E-15, 10.19999999999998685 ) ) ;
#285 = CARTESIAN_POINT ( 'NONE',  ( 0.000000000000000000, 0.000000000000000000, 0.000000000000000000 ) ) ;
#286 = CIRCLE ( 'NONE', #267, 12.50000000000000000 ) ;
#287 = CC_DESIGN_PERSON_AND_ORGANIZATION_ASSIGNMENT ( #102, #15, ( #153 ) ) ;
#288 = CARTESIAN_POINT ( 'NONE',  ( 0.000000000000000000, 0.000000000000000000, 10.00000000000000000 ) ) ;
#289 = DIRECTION ( 'NONE',  ( -0.000000000000000000, -0.000000000000000000, -1.000000000000000000 ) ) ;
#290 = CARTESIAN_POINT ( 'NONE',  ( 0.000000000000000000, 0.000000000000000000, 1010.000000000000000 ) ) ;
#291 = AXIS2_PLACEMENT_3D ( 'NONE', #290, #27, #162 ) ;
#292 = COORDINATED_UNIVERSAL_TIME_OFFSET ( 1, 0, .AHEAD. ) ;
#293 = FACE_OUTER_BOUND ( 'NONE', #259, .T. ) ;
#294 = ADVANCED_FACE ( 'NONE', ( #293 ), #18, .F. ) ;
#295 = CARTESIAN_POINT ( 'NONE',  ( -12.50000000000000000, 0.000000000000000000, 1010.000000000000000 ) ) ;
#296 = AXIS2_PLACEMENT_3D ( 'NONE', #80, #246, #13 ) ;
#297 = CARTESIAN_POINT ( 'NONE',  ( 12.50000000000000000, 1.530808498934191521E-15, 1010.000000000000000 ) ) ;
#298 = DIRECTION ( 'NONE',  ( -0.000000000000000000, -0.000000000000000000, -1.000000000000000000 ) ) ;
#299 = APPROVAL_ROLE ( '' ) ;
#300 = VERTEX_POINT ( 'NONE', #297 ) ;
#301 = EDGE_LOOP ( 'NONE', ( #223, #235, #177, #202 ) ) ;
#302 = VERTEX_POINT ( 'NONE', #59 ) ;
#303 = APPROVAL ( #108, 'NEURÈENÝ' ) ;
#304 = CC_DESIGN_APPROVAL ( #121, ( #232 ) ) ;
#305 = CIRCLE ( 'NONE', #95, 16.00000000000000000 ) ;
#306 = ORIENTED_EDGE ( 'NONE', *, *, #221, .F. ) ;
#307 = ORIENTED_EDGE ( 'NONE', *, *, #185, .F. ) ;
ENDSEC;
END-ISO-10303-21;
