ISO-10303-21;
HEADER;
FILE_DESCRIPTION (( 'STEP AP203' ),
    '1' );
FILE_NAME ('d2f2.STEP',
    '2022-06-20T09:54:10',
    ( '' ),
    ( '' ),
    'SwSTEP 2.0',
    'SolidWorks 2019',
    '' );
FILE_SCHEMA (( 'CONFIG_CONTROL_DESIGN' ));
ENDSEC;

DATA;
#1 = CYLINDRICAL_SURFACE ( 'NONE', #161, 6.000000000000000888 ) ;
#2 = EDGE_CURVE ( 'NONE', #96, #282, #175, .T. ) ;
#3 = DIRECTION ( 'NONE',  ( 0.000000000000000000, 0.000000000000000000, 1.000000000000000000 ) ) ;
#4 = PERSON_AND_ORGANIZATION_ROLE ( 'creator' ) ;
#5 = DIRECTION ( 'NONE',  ( -0.000000000000000000, -0.000000000000000000, -1.000000000000000000 ) ) ;
#6 = LOCAL_TIME ( 11, 54, 10.00000000000000000, #258 ) ;
#7 = CARTESIAN_POINT ( 'NONE',  ( 0.000000000000000000, 0.000000000000000000, 5.000000000000000000 ) ) ;
#8 = DIRECTION ( 'NONE',  ( 1.000000000000000000, 0.000000000000000000, -0.000000000000000000 ) ) ;
#9 = COORDINATED_UNIVERSAL_TIME_OFFSET ( 1, 0, .AHEAD. ) ;
#10 = DIRECTION ( 'NONE',  ( 0.000000000000000000, 0.000000000000000000, 1.000000000000000000 ) ) ;
#11 = CARTESIAN_POINT ( 'NONE',  ( -6.000000000000000888, 0.000000000000000000, 5.000000000000000000 ) ) ;
#12 = CARTESIAN_POINT ( 'NONE',  ( 0.000000000000000000, 0.000000000000000000, 405.0000000000000000 ) ) ;
#13 =( NAMED_UNIT ( * ) SI_UNIT ( $, .STERADIAN. ) SOLID_ANGLE_UNIT ( ) );
#14 = FACE_OUTER_BOUND ( 'NONE', #113, .T. ) ;
#15 = CIRCLE ( 'NONE', #257, 3.250000000000000444 ) ;
#16 = EDGE_LOOP ( 'NONE', ( #73, #26, #292, #208 ) ) ;
#17 = ORIENTED_EDGE ( 'NONE', *, *, #2, .F. ) ;
#18 = LOCAL_TIME ( 11, 54, 10.00000000000000000, #122 ) ;
#19 = ORIENTED_EDGE ( 'NONE', *, *, #247, .T. ) ;
#20 = CARTESIAN_POINT ( 'NONE',  ( -6.000000000000000888, 0.000000000000000000, 5.000000000000000000 ) ) ;
#21 = AXIS2_PLACEMENT_3D ( 'NONE', #223, #5, #146 ) ;
#22 = EDGE_CURVE ( 'NONE', #261, #92, #15, .T. ) ;
#23 = DIRECTION ( 'NONE',  ( 1.000000000000000000, 0.000000000000000000, 0.000000000000000000 ) ) ;
#24 = CIRCLE ( 'NONE', #71, 6.000000000000000888 ) ;
#25 = APPROVAL_ROLE ( '' ) ;
#26 = ORIENTED_EDGE ( 'NONE', *, *, #117, .F. ) ;
#27 = DIRECTION ( 'NONE',  ( -0.000000000000000000, -0.000000000000000000, -1.000000000000000000 ) ) ;
#28 = CC_DESIGN_PERSON_AND_ORGANIZATION_ASSIGNMENT ( #271, #265, ( #180 ) ) ;
#29 = EDGE_CURVE ( 'NONE', #282, #96, #293, .T. ) ;
#30 = VECTOR ( 'NONE', #266, 1000.000000000000000 ) ;
#31 = PERSON_AND_ORGANIZATION ( #94, #224 ) ;
#32 = FACE_OUTER_BOUND ( 'NONE', #260, .T. ) ;
#33 = AXIS2_PLACEMENT_3D ( 'NONE', #12, #111, #203 ) ;
#34 = COORDINATED_UNIVERSAL_TIME_OFFSET ( 1, 0, .AHEAD. ) ;
#35 = APPROVAL_DATE_TIME ( #190, #296 ) ;
#36 = AXIS2_PLACEMENT_3D ( 'NONE', #68, #251, #173 ) ;
#37 = APPROVAL_STATUS ( 'not_yet_approved' ) ;
#38 = CARTESIAN_POINT ( 'NONE',  ( 6.000000000000000888, 7.347880794884120722E-16, 0.000000000000000000 ) ) ;
#39 = DATE_TIME_ROLE ( 'classification_date' ) ;
#40 = DIRECTION ( 'NONE',  ( 0.000000000000000000, 0.000000000000000000, 1.000000000000000000 ) ) ;
#41 = ADVANCED_FACE ( 'NONE', ( #166 ), #289, .T. ) ;
#42 = ORIENTED_EDGE ( 'NONE', *, *, #54, .T. ) ;
#43 = APPLICATION_CONTEXT ( 'configuration controlled 3d designs of mechanical parts and assemblies' ) ;
#44 = AXIS2_PLACEMENT_3D ( 'NONE', #249, #66, #132 ) ;
#45 = DIRECTION ( 'NONE',  ( 1.000000000000000000, 0.000000000000000000, 0.000000000000000000 ) ) ;
#46 = EDGE_LOOP ( 'NONE', ( #48, #141 ) ) ;
#47 = EDGE_CURVE ( 'NONE', #213, #52, #119, .T. ) ;
#48 = ORIENTED_EDGE ( 'NONE', *, *, #88, .F. ) ;
#49 = ORIENTED_EDGE ( 'NONE', *, *, #227, .T. ) ;
#50 = CC_DESIGN_SECURITY_CLASSIFICATION ( #67, ( #290 ) ) ;
#51 = ORIENTED_EDGE ( 'NONE', *, *, #301, .T. ) ;
#52 = VERTEX_POINT ( 'NONE', #241 ) ;
#53 = MANIFOLD_SOLID_BREP ( 'Zaoblit1', #210 ) ;
#54 = EDGE_CURVE ( 'NONE', #256, #235, #216, .T. ) ;
#55 = ADVANCED_BREP_SHAPE_REPRESENTATION ( 'd2f2', ( #53, #183 ), #212 ) ;
#56 = DIRECTION ( 'NONE',  ( 0.000000000000000000, 0.000000000000000000, 1.000000000000000000 ) ) ;
#57 = PLANE ( 'NONE',  #299 ) ;
#58 = CIRCLE ( 'NONE', #64, 3.250000000000000444 ) ;
#59 = SECURITY_CLASSIFICATION_LEVEL ( 'unclassified' ) ;
#60 = LINE ( 'NONE', #120, #280 ) ;
#61 = CARTESIAN_POINT ( 'NONE',  ( 3.450000000000000178, 0.000000000000000000, 4.999999999999991118 ) ) ;
#62 = CARTESIAN_POINT ( 'NONE',  ( 0.000000000000000000, 0.000000000000000000, 5.000000000000000000 ) ) ;
#63 = DIRECTION ( 'NONE',  ( 1.000000000000000000, 0.000000000000000000, 0.000000000000000000 ) ) ;
#64 = AXIS2_PLACEMENT_3D ( 'NONE', #206, #154, #63 ) ;
#65 = CYLINDRICAL_SURFACE ( 'NONE', #36, 3.250000000000000444 ) ;
#66 = DIRECTION ( 'NONE',  ( 0.000000000000000000, 0.000000000000000000, 1.000000000000000000 ) ) ;
#67 = SECURITY_CLASSIFICATION ( '', '', #59 ) ;
#68 = CARTESIAN_POINT ( 'NONE',  ( 0.000000000000000000, 0.000000000000000000, 405.0000000000000000 ) ) ;
#69 = EDGE_CURVE ( 'NONE', #256, #213, #263, .T. ) ;
#70 = EDGE_LOOP ( 'NONE', ( #135, #42 ) ) ;
#71 = AXIS2_PLACEMENT_3D ( 'NONE', #159, #259, #45 ) ;
#72 = PRODUCT_DEFINITION_SHAPE ( 'NONE', 'NONE',  #180 ) ;
#73 = ORIENTED_EDGE ( 'NONE', *, *, #301, .F. ) ;
#74 = CIRCLE ( 'NONE', #244, 6.000000000000000888 ) ;
#75 = ORIENTED_EDGE ( 'NONE', *, *, #88, .T. ) ;
#76 = ORIENTED_EDGE ( 'NONE', *, *, #69, .F. ) ;
#77 = DIRECTION ( 'NONE',  ( 0.000000000000000000, 0.000000000000000000, 1.000000000000000000 ) ) ;
#78 = AXIS2_PLACEMENT_3D ( 'NONE', #123, #191, #127 ) ;
#79 = EDGE_CURVE ( 'NONE', #235, #52, #145, .T. ) ;
#80 = DIRECTION ( 'NONE',  ( 0.000000000000000000, 0.000000000000000000, 1.000000000000000000 ) ) ;
#81 = LOCAL_TIME ( 11, 54, 10.00000000000000000, #130 ) ;
#82 = CARTESIAN_POINT ( 'NONE',  ( 0.000000000000000000, 0.000000000000000000, 0.000000000000000000 ) ) ;
#83 = PERSON_AND_ORGANIZATION ( #94, #224 ) ;
#84 = PERSON_AND_ORGANIZATION ( #94, #224 ) ;
#85 = APPROVAL ( #200, 'NEURÈENÝ' ) ;
#86 = CARTESIAN_POINT ( 'NONE',  ( 3.250000000000000444, 3.980102097228898231E-16, 405.0000000000000000 ) ) ;
#87 = DIRECTION ( 'NONE',  ( 1.000000000000000000, 0.000000000000000000, 0.000000000000000000 ) ) ;
#88 = EDGE_CURVE ( 'NONE', #52, #213, #74, .T. ) ;
#89 = CC_DESIGN_DATE_AND_TIME_ASSIGNMENT ( #297, #39, ( #67 ) ) ;
#90 = CARTESIAN_POINT ( 'NONE',  ( -3.450000000000000178, 4.225031457058368824E-16, 5.199999999999982414 ) ) ;
#91 = SHAPE_DEFINITION_REPRESENTATION ( #72, #55 ) ;
#92 = VERTEX_POINT ( 'NONE', #237 ) ;
#93 = ORIENTED_EDGE ( 'NONE', *, *, #22, .T. ) ;
#94 = PERSON ( 'NEURÈENÝ', 'NEURÈENÝ', 'NEURÈENÝ', ('NEURÈENÝ'), ('NEURÈENÝ'), ('NEURÈENÝ') ) ;
#95 = LOCAL_TIME ( 11, 54, 10.00000000000000000, #9 ) ;
#96 = VERTEX_POINT ( 'NONE', #291 ) ;
#97 = VERTEX_POINT ( 'NONE', #169 ) ;
#98 = CIRCLE ( 'NONE', #44, 3.250000000000000444 ) ;
#99 = FACE_OUTER_BOUND ( 'NONE', #46, .T. ) ;
#100 = FACE_BOUND ( 'NONE', #303, .T. ) ;
#101 = EDGE_CURVE ( 'NONE', #138, #92, #60, .T. ) ;
#102 = DIRECTION ( 'NONE',  ( 1.000000000000000000, 0.000000000000000000, 0.000000000000000000 ) ) ;
#103 = AXIS2_PLACEMENT_3D ( 'NONE', #262, #167, #125 ) ;
#104 = CARTESIAN_POINT ( 'NONE',  ( 0.000000000000000000, 0.000000000000000000, 405.0000000000000000 ) ) ;
#105 = AXIS2_PLACEMENT_3D ( 'NONE', #298, #40, #8 ) ;
#106 = APPROVAL_STATUS ( 'not_yet_approved' ) ;
#107 = DIRECTION ( 'NONE',  ( 1.000000000000000000, 0.000000000000000000, 0.000000000000000000 ) ) ;
#108 = APPLICATION_PROTOCOL_DEFINITION ( 'international standard', 'config_control_design', 1994, #112 ) ;
#109 = DIRECTION ( 'NONE',  ( -0.000000000000000000, -0.000000000000000000, -1.000000000000000000 ) ) ;
#110 = CC_DESIGN_PERSON_AND_ORGANIZATION_ASSIGNMENT ( #31, #4, ( #290 ) ) ;
#111 = DIRECTION ( 'NONE',  ( -0.000000000000000000, -0.000000000000000000, -1.000000000000000000 ) ) ;
#112 = APPLICATION_CONTEXT ( 'configuration controlled 3d designs of mechanical parts and assemblies' ) ;
#113 = EDGE_LOOP ( 'NONE', ( #305, #19, #211, #186 ) ) ;
#114 = AXIS2_PLACEMENT_3D ( 'NONE', #151, #134, #229 ) ;
#115 = EDGE_LOOP ( 'NONE', ( #209, #51, #93, #234 ) ) ;
#116 = ADVANCED_FACE ( 'NONE', ( #243 ), #118, .T. ) ;
#117 = EDGE_CURVE ( 'NONE', #138, #97, #187, .T. ) ;
#118 = CYLINDRICAL_SURFACE ( 'NONE', #21, 6.000000000000000888 ) ;
#119 = CIRCLE ( 'NONE', #103, 6.000000000000000888 ) ;
#120 = CARTESIAN_POINT ( 'NONE',  ( -3.250000000000000444, 0.000000000000000000, 405.0000000000000000 ) ) ;
#121 = DESIGN_CONTEXT ( 'detailed design', #112, 'design' ) ;
#122 = COORDINATED_UNIVERSAL_TIME_OFFSET ( 1, 0, .AHEAD. ) ;
#123 = CARTESIAN_POINT ( 'NONE',  ( 0.000000000000000000, 0.000000000000000000, 5.000000000000000000 ) ) ;
#124 = DIRECTION ( 'NONE',  ( 1.000000000000000000, 0.000000000000000000, 0.000000000000000000 ) ) ;
#125 = DIRECTION ( 'NONE',  ( 1.000000000000000000, 0.000000000000000000, 0.000000000000000000 ) ) ;
#126 = DATE_TIME_ROLE ( 'creation_date' ) ;
#127 = DIRECTION ( 'NONE',  ( 1.000000000000000000, 0.000000000000000000, 0.000000000000000000 ) ) ;
#128 = PERSON_AND_ORGANIZATION ( #94, #224 ) ;
#129 = CARTESIAN_POINT ( 'NONE',  ( 0.000000000000000000, 0.000000000000000000, 5.199999999999982414 ) ) ;
#130 = COORDINATED_UNIVERSAL_TIME_OFFSET ( 1, 0, .AHEAD. ) ;
#131 = DIRECTION ( 'NONE',  ( 1.224646799147353207E-16, 1.000000000000000000, -0.000000000000000000 ) ) ;
#132 = DIRECTION ( 'NONE',  ( 1.000000000000000000, 0.000000000000000000, 0.000000000000000000 ) ) ;
#133 = CC_DESIGN_APPROVAL ( #296, ( #180 ) ) ;
#134 = DIRECTION ( 'NONE',  ( 0.000000000000000000, -1.000000000000000000, 0.000000000000000000 ) ) ;
#135 = ORIENTED_EDGE ( 'NONE', *, *, #273, .T. ) ;
#136 = AXIS2_PLACEMENT_3D ( 'NONE', #269, #275, #253 ) ;
#137 = CC_DESIGN_DATE_AND_TIME_ASSIGNMENT ( #222, #126, ( #180 ) ) ;
#138 = VERTEX_POINT ( 'NONE', #195 ) ;
#139 = UNCERTAINTY_MEASURE_WITH_UNIT (LENGTH_MEASURE( 1.000000000000000082E-05 ), #158, 'distance_accuracy_value', 'NONE');
#140 = APPLICATION_PROTOCOL_DEFINITION ( 'international standard', 'config_control_design', 1994, #43 ) ;
#141 = ORIENTED_EDGE ( 'NONE', *, *, #47, .F. ) ;
#142 = ADVANCED_FACE ( 'NONE', ( #99 ), #57, .F. ) ;
#143 = APPROVAL_PERSON_ORGANIZATION ( #202, #284, #274 ) ;
#144 = ORIENTED_EDGE ( 'NONE', *, *, #117, .T. ) ;
#145 = LINE ( 'NONE', #20, #204 ) ;
#146 = DIRECTION ( 'NONE',  ( -1.000000000000000000, 0.000000000000000000, 0.000000000000000000 ) ) ;
#147 = DIRECTION ( 'NONE',  ( 0.000000000000000000, 0.000000000000000000, 1.000000000000000000 ) ) ;
#148 = ORIENTED_EDGE ( 'NONE', *, *, #54, .F. ) ;
#149 = CARTESIAN_POINT ( 'NONE',  ( 0.000000000000000000, 0.000000000000000000, 0.000000000000000000 ) ) ;
#150 = DIRECTION ( 'NONE',  ( -0.000000000000000000, -0.000000000000000000, -1.000000000000000000 ) ) ;
#151 = CARTESIAN_POINT ( 'NONE',  ( 3.450000000000000178, 0.000000000000000000, 5.199999999999982414 ) ) ;
#152 = TOROIDAL_SURFACE ( 'NONE', #136, 3.450000000000000178, 0.2000000000000000111 ) ;
#153 = CALENDAR_DATE ( 2022, 20, 6 ) ;
#154 = DIRECTION ( 'NONE',  ( 0.000000000000000000, 0.000000000000000000, 1.000000000000000000 ) ) ;
#155 = DATE_AND_TIME ( #279, #6 ) ;
#156 = PLANE ( 'NONE',  #105 ) ;
#157 = APPROVAL_PERSON_ORGANIZATION ( #83, #85, #295 ) ;
#158 =( LENGTH_UNIT ( ) NAMED_UNIT ( * ) SI_UNIT ( .MILLI., .METRE. ) );
#159 = CARTESIAN_POINT ( 'NONE',  ( 0.000000000000000000, 0.000000000000000000, 5.000000000000000000 ) ) ;
#160 = EDGE_LOOP ( 'NONE', ( #76, #232, #302, #75 ) ) ;
#161 = AXIS2_PLACEMENT_3D ( 'NONE', #62, #150, #188 ) ;
#162 = CC_DESIGN_PERSON_AND_ORGANIZATION_ASSIGNMENT ( #128, #245, ( #181 ) ) ;
#163 = EDGE_LOOP ( 'NONE', ( #148, #306, #185, #182 ) ) ;
#164 = ORIENTED_EDGE ( 'NONE', *, *, #214, .T. ) ;
#165 = TOROIDAL_SURFACE ( 'NONE', #207, 3.450000000000000178, 0.2000000000000000111 ) ;
#166 = FACE_OUTER_BOUND ( 'NONE', #189, .T. ) ;
#167 = DIRECTION ( 'NONE',  ( 0.000000000000000000, 0.000000000000000000, 1.000000000000000000 ) ) ;
#168 = ADVANCED_FACE ( 'NONE', ( #267 ), #1, .T. ) ;
#169 = CARTESIAN_POINT ( 'NONE',  ( 3.250000000000000444, 3.980102097228898231E-16, 405.0000000000000000 ) ) ;
#170 = AXIS2_PLACEMENT_3D ( 'NONE', #90, #131, #178 ) ;
#171 = CARTESIAN_POINT ( 'NONE',  ( 6.000000000000000888, 7.347880794884120722E-16, 5.000000000000000000 ) ) ;
#172 = CARTESIAN_POINT ( 'NONE',  ( 0.000000000000000000, 0.000000000000000000, 5.000000000000000000 ) ) ;
#173 = DIRECTION ( 'NONE',  ( -1.000000000000000000, 0.000000000000000000, 0.000000000000000000 ) ) ;
#174 = CALENDAR_DATE ( 2022, 20, 6 ) ;
#175 = CIRCLE ( 'NONE', #78, 3.450000000000000178 ) ;
#176 = FACE_OUTER_BOUND ( 'NONE', #115, .T. ) ;
#177 = FACE_OUTER_BOUND ( 'NONE', #16, .T. ) ;
#178 = DIRECTION ( 'NONE',  ( -1.000000000000000000, 1.224646799147350742E-16, 0.000000000000000000 ) ) ;
#179 = CC_DESIGN_APPROVAL ( #284, ( #67 ) ) ;
#180 = PRODUCT_DEFINITION ( 'NEZNÁMÝ', '', #290, #121 ) ;
#181 = PRODUCT ( 'd2f2', 'd2f2', '', ( #198 ) ) ;
#182 = ORIENTED_EDGE ( 'NONE', *, *, #79, .F. ) ;
#183 = AXIS2_PLACEMENT_3D ( 'NONE', #149, #248, #124 ) ;
#184 = ADVANCED_FACE ( 'NONE', ( #32 ), #165, .F. ) ;
#185 = ORIENTED_EDGE ( 'NONE', *, *, #47, .T. ) ;
#186 = ORIENTED_EDGE ( 'NONE', *, *, #227, .F. ) ;
#187 = CIRCLE ( 'NONE', #199, 3.250000000000000444 ) ;
#188 = DIRECTION ( 'NONE',  ( -1.000000000000000000, 0.000000000000000000, 0.000000000000000000 ) ) ;
#189 = EDGE_LOOP ( 'NONE', ( #144, #164 ) ) ;
#190 = DATE_AND_TIME ( #153, #95 ) ;
#191 = DIRECTION ( 'NONE',  ( -0.000000000000000000, -0.000000000000000000, -1.000000000000000000 ) ) ;
#192 = ADVANCED_FACE ( 'NONE', ( #100, #255 ), #156, .T. ) ;
#193 = CC_DESIGN_APPROVAL ( #85, ( #290 ) ) ;
#194 = CALENDAR_DATE ( 2022, 20, 6 ) ;
#195 = CARTESIAN_POINT ( 'NONE',  ( -3.250000000000000444, 0.000000000000000000, 405.0000000000000000 ) ) ;
#196 = PERSON_AND_ORGANIZATION_ROLE ( 'design_supplier' ) ;
#197 = DIRECTION ( 'NONE',  ( -0.000000000000000000, -0.000000000000000000, -1.000000000000000000 ) ) ;
#198 = MECHANICAL_CONTEXT ( 'NONE', #43, 'mechanical' ) ;
#199 = AXIS2_PLACEMENT_3D ( 'NONE', #104, #215, #307 ) ;
#200 = APPROVAL_STATUS ( 'not_yet_approved' ) ;
#201 = CYLINDRICAL_SURFACE ( 'NONE', #33, 3.250000000000000444 ) ;
#202 = PERSON_AND_ORGANIZATION ( #94, #224 ) ;
#203 = DIRECTION ( 'NONE',  ( -1.000000000000000000, 0.000000000000000000, 0.000000000000000000 ) ) ;
#204 = VECTOR ( 'NONE', #287, 1000.000000000000000 ) ;
#205 = ADVANCED_FACE ( 'NONE', ( #14 ), #152, .F. ) ;
#206 = CARTESIAN_POINT ( 'NONE',  ( 0.000000000000000000, 0.000000000000000000, 405.0000000000000000 ) ) ;
#207 = AXIS2_PLACEMENT_3D ( 'NONE', #129, #10, #87 ) ;
#208 = ORIENTED_EDGE ( 'NONE', *, *, #221, .T. ) ;
#209 = ORIENTED_EDGE ( 'NONE', *, *, #214, .F. ) ;
#210 = CLOSED_SHELL ( 'NONE', ( #205, #236, #168, #116, #192, #142, #304, #41, #184 ) ) ;
#211 = ORIENTED_EDGE ( 'NONE', *, *, #29, .F. ) ;
#212 =( GEOMETRIC_REPRESENTATION_CONTEXT ( 3 ) GLOBAL_UNCERTAINTY_ASSIGNED_CONTEXT ( ( #139 ) ) GLOBAL_UNIT_ASSIGNED_CONTEXT ( ( #158, #270, #13 ) ) REPRESENTATION_CONTEXT ( 'NONE', 'WORKASPACE' ) );
#213 = VERTEX_POINT ( 'NONE', #38 ) ;
#214 = EDGE_CURVE ( 'NONE', #97, #138, #58, .T. ) ;
#215 = DIRECTION ( 'NONE',  ( 0.000000000000000000, 0.000000000000000000, 1.000000000000000000 ) ) ;
#216 = CIRCLE ( 'NONE', #276, 6.000000000000000888 ) ;
#217 = CIRCLE ( 'NONE', #114, 0.1999999999999996503 ) ;
#218 = DIRECTION ( 'NONE',  ( 1.000000000000000000, 0.000000000000000000, -0.000000000000000000 ) ) ;
#219 = APPROVAL_DATE_TIME ( #225, #85 ) ;
#220 = CARTESIAN_POINT ( 'NONE',  ( 0.000000000000000000, 0.000000000000000000, 405.0000000000000000 ) ) ;
#221 = EDGE_CURVE ( 'NONE', #92, #261, #98, .T. ) ;
#222 = DATE_AND_TIME ( #174, #81 ) ;
#223 = CARTESIAN_POINT ( 'NONE',  ( 0.000000000000000000, 0.000000000000000000, 5.000000000000000000 ) ) ;
#224 = ORGANIZATION ( 'NEURÈENÝ', 'NEURÈENÝ', '' ) ;
#225 = DATE_AND_TIME ( #242, #18 ) ;
#226 = CARTESIAN_POINT ( 'NONE',  ( 0.000000000000000000, 0.000000000000000000, 0.000000000000000000 ) ) ;
#227 = EDGE_CURVE ( 'NONE', #261, #282, #217, .T. ) ;
#228 = APPROVAL_PERSON_ORGANIZATION ( #84, #296, #25 ) ;
#229 = DIRECTION ( 'NONE',  ( 0.000000000000000000, 0.000000000000000000, -1.000000000000000000 ) ) ;
#230 = PRODUCT_RELATED_PRODUCT_CATEGORY ( 'detail', '', ( #181 ) ) ;
#231 = ORIENTED_EDGE ( 'NONE', *, *, #22, .F. ) ;
#232 = ORIENTED_EDGE ( 'NONE', *, *, #273, .F. ) ;
#233 = AXIS2_PLACEMENT_3D ( 'NONE', #220, #56, #264 ) ;
#234 = ORIENTED_EDGE ( 'NONE', *, *, #101, .F. ) ;
#235 = VERTEX_POINT ( 'NONE', #11 ) ;
#236 = ADVANCED_FACE ( 'NONE', ( #176 ), #201, .T. ) ;
#237 = CARTESIAN_POINT ( 'NONE',  ( -3.250000000000000444, 0.000000000000000000, 5.199999999999982414 ) ) ;
#238 = DIRECTION ( 'NONE',  ( 1.000000000000000000, 0.000000000000000000, 0.000000000000000000 ) ) ;
#239 = CARTESIAN_POINT ( 'NONE',  ( 0.000000000000000000, 0.000000000000000000, 5.199999999999982414 ) ) ;
#240 = PERSON_AND_ORGANIZATION_ROLE ( 'classification_officer' ) ;
#241 = CARTESIAN_POINT ( 'NONE',  ( -6.000000000000000888, 0.000000000000000000, 0.000000000000000000 ) ) ;
#242 = CALENDAR_DATE ( 2022, 20, 6 ) ;
#243 = FACE_OUTER_BOUND ( 'NONE', #160, .T. ) ;
#244 = AXIS2_PLACEMENT_3D ( 'NONE', #226, #77, #23 ) ;
#245 = PERSON_AND_ORGANIZATION_ROLE ( 'design_owner' ) ;
#246 = CARTESIAN_POINT ( 'NONE',  ( 6.000000000000000888, 7.347880794884120722E-16, 5.000000000000000000 ) ) ;
#247 = EDGE_CURVE ( 'NONE', #92, #96, #294, .T. ) ;
#248 = DIRECTION ( 'NONE',  ( 0.000000000000000000, 0.000000000000000000, 1.000000000000000000 ) ) ;
#249 = CARTESIAN_POINT ( 'NONE',  ( 0.000000000000000000, 0.000000000000000000, 5.199999999999982414 ) ) ;
#250 = AXIS2_PLACEMENT_3D ( 'NONE', #172, #197, #107 ) ;
#251 = DIRECTION ( 'NONE',  ( -0.000000000000000000, -0.000000000000000000, -1.000000000000000000 ) ) ;
#252 = VECTOR ( 'NONE', #109, 1000.000000000000000 ) ;
#253 = DIRECTION ( 'NONE',  ( 1.000000000000000000, 0.000000000000000000, 0.000000000000000000 ) ) ;
#254 = CC_DESIGN_PERSON_AND_ORGANIZATION_ASSIGNMENT ( #268, #240, ( #67 ) ) ;
#255 = FACE_OUTER_BOUND ( 'NONE', #70, .T. ) ;
#256 = VERTEX_POINT ( 'NONE', #246 ) ;
#257 = AXIS2_PLACEMENT_3D ( 'NONE', #239, #3, #238 ) ;
#258 = COORDINATED_UNIVERSAL_TIME_OFFSET ( 1, 0, .AHEAD. ) ;
#259 = DIRECTION ( 'NONE',  ( 0.000000000000000000, 0.000000000000000000, 1.000000000000000000 ) ) ;
#260 = EDGE_LOOP ( 'NONE', ( #286, #231, #49, #17 ) ) ;
#261 = VERTEX_POINT ( 'NONE', #278 ) ;
#262 = CARTESIAN_POINT ( 'NONE',  ( 0.000000000000000000, 0.000000000000000000, 0.000000000000000000 ) ) ;
#263 = LINE ( 'NONE', #171, #30 ) ;
#264 = DIRECTION ( 'NONE',  ( 1.000000000000000000, 0.000000000000000000, -0.000000000000000000 ) ) ;
#265 = PERSON_AND_ORGANIZATION_ROLE ( 'creator' ) ;
#266 = DIRECTION ( 'NONE',  ( -0.000000000000000000, -0.000000000000000000, -1.000000000000000000 ) ) ;
#267 = FACE_OUTER_BOUND ( 'NONE', #163, .T. ) ;
#268 = PERSON_AND_ORGANIZATION ( #94, #224 ) ;
#269 = CARTESIAN_POINT ( 'NONE',  ( 0.000000000000000000, 0.000000000000000000, 5.199999999999982414 ) ) ;
#270 =( NAMED_UNIT ( * ) PLANE_ANGLE_UNIT ( ) SI_UNIT ( $, .RADIAN. ) );
#271 = PERSON_AND_ORGANIZATION ( #94, #224 ) ;
#272 = LINE ( 'NONE', #86, #252 ) ;
#273 = EDGE_CURVE ( 'NONE', #235, #256, #24, .T. ) ;
#274 = APPROVAL_ROLE ( '' ) ;
#275 = DIRECTION ( 'NONE',  ( 0.000000000000000000, 0.000000000000000000, 1.000000000000000000 ) ) ;
#276 = AXIS2_PLACEMENT_3D ( 'NONE', #7, #80, #102 ) ;
#277 = LOCAL_TIME ( 11, 54, 10.00000000000000000, #34 ) ;
#278 = CARTESIAN_POINT ( 'NONE',  ( 3.250000000000000444, 3.980102097228898231E-16, 5.199999999999982414 ) ) ;
#279 = CALENDAR_DATE ( 2022, 20, 6 ) ;
#280 = VECTOR ( 'NONE', #27, 1000.000000000000000 ) ;
#281 = ORIENTED_EDGE ( 'NONE', *, *, #2, .T. ) ;
#282 = VERTEX_POINT ( 'NONE', #61 ) ;
#283 = CC_DESIGN_PERSON_AND_ORGANIZATION_ASSIGNMENT ( #288, #196, ( #290 ) ) ;
#284 = APPROVAL ( #37, 'NEURÈENÝ' ) ;
#285 = ORIENTED_EDGE ( 'NONE', *, *, #29, .T. ) ;
#286 = ORIENTED_EDGE ( 'NONE', *, *, #247, .F. ) ;
#287 = DIRECTION ( 'NONE',  ( -0.000000000000000000, -0.000000000000000000, -1.000000000000000000 ) ) ;
#288 = PERSON_AND_ORGANIZATION ( #94, #224 ) ;
#289 = PLANE ( 'NONE',  #233 ) ;
#290 = PRODUCT_DEFINITION_FORMATION_WITH_SPECIFIED_SOURCE ( 'LIBOVOLNÝ', '', #181, .NOT_KNOWN. ) ;
#291 = CARTESIAN_POINT ( 'NONE',  ( -3.450000000000000178, 4.225031457058368824E-16, 4.999999999999991118 ) ) ;
#292 = ORIENTED_EDGE ( 'NONE', *, *, #101, .T. ) ;
#293 = CIRCLE ( 'NONE', #250, 3.450000000000000178 ) ;
#294 = CIRCLE ( 'NONE', #170, 0.2000000000000000944 ) ;
#295 = APPROVAL_ROLE ( '' ) ;
#296 = APPROVAL ( #106, 'NEURÈENÝ' ) ;
#297 = DATE_AND_TIME ( #194, #277 ) ;
#298 = CARTESIAN_POINT ( 'NONE',  ( 0.000000000000000000, 0.000000000000000000, 5.000000000000000000 ) ) ;
#299 = AXIS2_PLACEMENT_3D ( 'NONE', #82, #147, #218 ) ;
#300 = APPROVAL_DATE_TIME ( #155, #284 ) ;
#301 = EDGE_CURVE ( 'NONE', #97, #261, #272, .T. ) ;
#302 = ORIENTED_EDGE ( 'NONE', *, *, #79, .T. ) ;
#303 = EDGE_LOOP ( 'NONE', ( #285, #281 ) ) ;
#304 = ADVANCED_FACE ( 'NONE', ( #177 ), #65, .T. ) ;
#305 = ORIENTED_EDGE ( 'NONE', *, *, #221, .F. ) ;
#306 = ORIENTED_EDGE ( 'NONE', *, *, #69, .T. ) ;
#307 = DIRECTION ( 'NONE',  ( 1.000000000000000000, 0.000000000000000000, 0.000000000000000000 ) ) ;
ENDSEC;
END-ISO-10303-21;
