ISO-10303-21;
HEADER;
FILE_DESCRIPTION (( 'STEP AP203' ),
    '1' );
FILE_NAME ('3255.STEP',
    '2022-06-20T10:08:59',
    ( '' ),
    ( '' ),
    'SwSTEP 2.0',
    'SolidWorks 2019',
    '' );
FILE_SCHEMA (( 'CONFIG_CONTROL_DESIGN' ));
ENDSEC;

DATA;
#1 = ADVANCED_FACE ( 'NONE', ( #6 ), #26, .F. ) ;
#2 = DIRECTION ( 'NONE',  ( 1.000000000000000000, 0.000000000000000000, 0.000000000000000000 ) ) ;
#3 = DIRECTION ( 'NONE',  ( 0.000000000000000000, 0.000000000000000000, 1.000000000000000000 ) ) ;
#4 = PERSON ( 'NEURÈENÝ', 'NEURÈENÝ', 'NEURÈENÝ', ('NEURÈENÝ'), ('NEURÈENÝ'), ('NEURÈENÝ') ) ;
#5 = DIRECTION ( 'NONE',  ( 0.000000000000000000, -1.000000000000000000, 0.000000000000000000 ) ) ;
#6 = FACE_OUTER_BOUND ( 'NONE', #259, .T. ) ;
#7 = APPROVAL_PERSON_ORGANIZATION ( #206, #119, #113 ) ;
#8 = CARTESIAN_POINT ( 'NONE',  ( 0.000000000000000000, 0.000000000000000000, 3.000000000000000000 ) ) ;
#9 = CC_DESIGN_PERSON_AND_ORGANIZATION_ASSIGNMENT ( #63, #177, ( #61 ) ) ;
#10 = FACE_OUTER_BOUND ( 'NONE', #237, .T. ) ;
#11 = CARTESIAN_POINT ( 'NONE',  ( -2.200000000000000178, 2.694222958124177006E-16, 2.999999999999990674 ) ) ;
#12 = CIRCLE ( 'NONE', #246, 0.2000000000000000944 ) ;
#13 = DIRECTION ( 'NONE',  ( -1.000000000000000000, 0.000000000000000000, 0.000000000000000000 ) ) ;
#14 = AXIS2_PLACEMENT_3D ( 'NONE', #231, #18, #109 ) ;
#15 = DIRECTION ( 'NONE',  ( 1.000000000000000000, 0.000000000000000000, 0.000000000000000000 ) ) ;
#16 = APPLICATION_PROTOCOL_DEFINITION ( 'international standard', 'config_control_design', 1994, #253 ) ;
#17 = VECTOR ( 'NONE', #212, 1000.000000000000000 ) ;
#18 = DIRECTION ( 'NONE',  ( 0.000000000000000000, 0.000000000000000000, 1.000000000000000000 ) ) ;
#19 = AXIS2_PLACEMENT_3D ( 'NONE', #153, #152, #15 ) ;
#20 = EDGE_LOOP ( 'NONE', ( #229, #160, #233, #164 ) ) ;
#21 = LOCAL_TIME ( 12, 8, 59.00000000000000000, #23 ) ;
#22 = EDGE_CURVE ( 'NONE', #209, #280, #219, .T. ) ;
#23 = COORDINATED_UNIVERSAL_TIME_OFFSET ( 1, 0, .AHEAD. ) ;
#24 = ORIENTED_EDGE ( 'NONE', *, *, #257, .F. ) ;
#25 = VERTEX_POINT ( 'NONE', #143 ) ;
#26 = TOROIDAL_SURFACE ( 'NONE', #227, 2.200000000000000178, 0.2000000000000000111 ) ;
#27 = PERSON_AND_ORGANIZATION ( #4, #72 ) ;
#28 = EDGE_CURVE ( 'NONE', #305, #64, #192, .T. ) ;
#29 = ORIENTED_EDGE ( 'NONE', *, *, #301, .F. ) ;
#30 = CIRCLE ( 'NONE', #194, 2.200000000000000178 ) ;
#31 = ORIENTED_EDGE ( 'NONE', *, *, #97, .T. ) ;
#32 = PLANE ( 'NONE',  #267 ) ;
#33 = DIRECTION ( 'NONE',  ( -0.000000000000000000, -0.000000000000000000, -1.000000000000000000 ) ) ;
#34 = LINE ( 'NONE', #74, #17 ) ;
#35 = CYLINDRICAL_SURFACE ( 'NONE', #77, 4.000000000000000000 ) ;
#36 = AXIS2_PLACEMENT_3D ( 'NONE', #191, #126, #38 ) ;
#37 = EDGE_CURVE ( 'NONE', #112, #205, #166, .T. ) ;
#38 = DIRECTION ( 'NONE',  ( 1.000000000000000000, 0.000000000000000000, -0.000000000000000000 ) ) ;
#39 = CC_DESIGN_SECURITY_CLASSIFICATION ( #128, ( #61 ) ) ;
#40 = DIRECTION ( 'NONE',  ( 1.000000000000000000, 0.000000000000000000, 0.000000000000000000 ) ) ;
#41 = CARTESIAN_POINT ( 'NONE',  ( 0.000000000000000000, 0.000000000000000000, 3.000000000000000000 ) ) ;
#42 = AXIS2_PLACEMENT_3D ( 'NONE', #242, #291, #225 ) ;
#43 = CARTESIAN_POINT ( 'NONE',  ( 0.000000000000000000, 0.000000000000000000, 633.0000000000000000 ) ) ;
#44 = APPLICATION_CONTEXT ( 'configuration controlled 3d designs of mechanical parts and assemblies' ) ;
#45 = CALENDAR_DATE ( 2022, 20, 6 ) ;
#46 = PERSON_AND_ORGANIZATION_ROLE ( 'creator' ) ;
#47 = VERTEX_POINT ( 'NONE', #79 ) ;
#48 = EDGE_LOOP ( 'NONE', ( #29, #24, #203, #256 ) ) ;
#49 = ADVANCED_FACE ( 'NONE', ( #263 ), #172, .T. ) ;
#50 = DATE_AND_TIME ( #85, #21 ) ;
#51 = FACE_OUTER_BOUND ( 'NONE', #232, .T. ) ;
#52 = DIRECTION ( 'NONE',  ( -1.000000000000000000, 0.000000000000000000, 0.000000000000000000 ) ) ;
#53 = PRODUCT_RELATED_PRODUCT_CATEGORY ( 'detail', '', ( #266 ) ) ;
#54 = CARTESIAN_POINT ( 'NONE',  ( 0.000000000000000000, 0.000000000000000000, 3.000000000000000000 ) ) ;
#55 =( GEOMETRIC_REPRESENTATION_CONTEXT ( 3 ) GLOBAL_UNCERTAINTY_ASSIGNED_CONTEXT ( ( #162 ) ) GLOBAL_UNIT_ASSIGNED_CONTEXT ( ( #275, #174, #60 ) ) REPRESENTATION_CONTEXT ( 'NONE', 'WORKASPACE' ) );
#56 = AXIS2_PLACEMENT_3D ( 'NONE', #41, #103, #13 ) ;
#57 = CARTESIAN_POINT ( 'NONE',  ( -2.000000000000000000, 0.000000000000000000, 3.199999999999980638 ) ) ;
#58 = DIRECTION ( 'NONE',  ( -0.000000000000000000, -0.000000000000000000, -1.000000000000000000 ) ) ;
#59 = CARTESIAN_POINT ( 'NONE',  ( -2.000000000000000000, 0.000000000000000000, 633.0000000000000000 ) ) ;
#60 =( NAMED_UNIT ( * ) SI_UNIT ( $, .STERADIAN. ) SOLID_ANGLE_UNIT ( ) );
#61 = PRODUCT_DEFINITION_FORMATION_WITH_SPECIFIED_SOURCE ( 'LIBOVOLNÝ', '', #266, .NOT_KNOWN. ) ;
#62 = ADVANCED_FACE ( 'NONE', ( #148 ), #245, .F. ) ;
#63 = PERSON_AND_ORGANIZATION ( #4, #72 ) ;
#64 = VERTEX_POINT ( 'NONE', #144 ) ;
#65 = APPLICATION_PROTOCOL_DEFINITION ( 'international standard', 'config_control_design', 1994, #44 ) ;
#66 = CALENDAR_DATE ( 2022, 20, 6 ) ;
#67 = ORIENTED_EDGE ( 'NONE', *, *, #130, .T. ) ;
#68 = PERSON_AND_ORGANIZATION_ROLE ( 'classification_officer' ) ;
#69 = PERSON_AND_ORGANIZATION_ROLE ( 'design_owner' ) ;
#70 = AXIS2_PLACEMENT_3D ( 'NONE', #8, #270, #240 ) ;
#71 = DIRECTION ( 'NONE',  ( -0.000000000000000000, -0.000000000000000000, -1.000000000000000000 ) ) ;
#72 = ORGANIZATION ( 'NEURÈENÝ', 'NEURÈENÝ', '' ) ;
#73 = ORIENTED_EDGE ( 'NONE', *, *, #87, .F. ) ;
#74 = CARTESIAN_POINT ( 'NONE',  ( 2.000000000000000000, 2.449293598294706414E-16, 633.0000000000000000 ) ) ;
#75 = FACE_OUTER_BOUND ( 'NONE', #154, .T. ) ;
#76 = EDGE_CURVE ( 'NONE', #88, #112, #224, .T. ) ;
#77 = AXIS2_PLACEMENT_3D ( 'NONE', #218, #286, #287 ) ;
#78 = APPROVAL_PERSON_ORGANIZATION ( #187, #222, #86 ) ;
#79 = CARTESIAN_POINT ( 'NONE',  ( 2.000000000000000000, 2.449293598294706414E-16, 3.199999999999980638 ) ) ;
#80 = VECTOR ( 'NONE', #95, 1000.000000000000000 ) ;
#81 = CARTESIAN_POINT ( 'NONE',  ( -2.200000000000000178, 2.694222958124177006E-16, 3.199999999999980638 ) ) ;
#82 = DIRECTION ( 'NONE',  ( 1.000000000000000000, 0.000000000000000000, 0.000000000000000000 ) ) ;
#83 = DIRECTION ( 'NONE',  ( 0.000000000000000000, 0.000000000000000000, 1.000000000000000000 ) ) ;
#84 = AXIS2_PLACEMENT_3D ( 'NONE', #104, #132, #150 ) ;
#85 = CALENDAR_DATE ( 2022, 20, 6 ) ;
#86 = APPROVAL_ROLE ( '' ) ;
#87 = EDGE_CURVE ( 'NONE', #47, #64, #12, .T. ) ;
#88 = VERTEX_POINT ( 'NONE', #121 ) ;
#89 = DATE_AND_TIME ( #45, #262 ) ;
#90 = APPROVAL_PERSON_ORGANIZATION ( #278, #293, #182 ) ;
#91 = ORIENTED_EDGE ( 'NONE', *, *, #269, .F. ) ;
#92 = APPROVAL_DATE_TIME ( #297, #119 ) ;
#93 = ORIENTED_EDGE ( 'NONE', *, *, #22, .T. ) ;
#94 = ORIENTED_EDGE ( 'NONE', *, *, #179, .T. ) ;
#95 = DIRECTION ( 'NONE',  ( -0.000000000000000000, -0.000000000000000000, -1.000000000000000000 ) ) ;
#96 = DIRECTION ( 'NONE',  ( -0.000000000000000000, -0.000000000000000000, -1.000000000000000000 ) ) ;
#97 = EDGE_CURVE ( 'NONE', #280, #47, #34, .T. ) ;
#98 = LINE ( 'NONE', #147, #146 ) ;
#99 = CARTESIAN_POINT ( 'NONE',  ( 0.000000000000000000, 0.000000000000000000, 3.199999999999980638 ) ) ;
#100 = CIRCLE ( 'NONE', #276, 4.000000000000000000 ) ;
#101 = CC_DESIGN_APPROVAL ( #119, ( #61 ) ) ;
#102 = LINE ( 'NONE', #124, #80 ) ;
#103 = DIRECTION ( 'NONE',  ( -0.000000000000000000, -0.000000000000000000, -1.000000000000000000 ) ) ;
#104 = CARTESIAN_POINT ( 'NONE',  ( 0.000000000000000000, 0.000000000000000000, 3.000000000000000000 ) ) ;
#105 = CARTESIAN_POINT ( 'NONE',  ( 0.000000000000000000, 0.000000000000000000, 0.000000000000000000 ) ) ;
#106 = DIRECTION ( 'NONE',  ( 0.000000000000000000, 0.000000000000000000, 1.000000000000000000 ) ) ;
#107 = CC_DESIGN_DATE_AND_TIME_ASSIGNMENT ( #204, #208, ( #128 ) ) ;
#108 = CLOSED_SHELL ( 'NONE', ( #1, #296, #167, #272, #171, #62, #49, #139, #195 ) ) ;
#109 = DIRECTION ( 'NONE',  ( 1.000000000000000000, 0.000000000000000000, 0.000000000000000000 ) ) ;
#110 = ORIENTED_EDGE ( 'NONE', *, *, #179, .F. ) ;
#111 = COORDINATED_UNIVERSAL_TIME_OFFSET ( 1, 0, .AHEAD. ) ;
#112 = VERTEX_POINT ( 'NONE', #214 ) ;
#113 = APPROVAL_ROLE ( '' ) ;
#114 = ORIENTED_EDGE ( 'NONE', *, *, #257, .T. ) ;
#115 = SECURITY_CLASSIFICATION_LEVEL ( 'unclassified' ) ;
#116 = ORIENTED_EDGE ( 'NONE', *, *, #217, .F. ) ;
#117 = DESIGN_CONTEXT ( 'detailed design', #44, 'design' ) ;
#118 = ORIENTED_EDGE ( 'NONE', *, *, #130, .F. ) ;
#119 = APPROVAL ( #134, 'NEURÈENÝ' ) ;
#120 = DIRECTION ( 'NONE',  ( 1.000000000000000000, 0.000000000000000000, 0.000000000000000000 ) ) ;
#121 = CARTESIAN_POINT ( 'NONE',  ( -4.000000000000000000, 0.000000000000000000, 3.000000000000000000 ) ) ;
#122 = AXIS2_PLACEMENT_3D ( 'NONE', #105, #83, #226 ) ;
#123 = EDGE_CURVE ( 'NONE', #142, #47, #183, .T. ) ;
#124 = CARTESIAN_POINT ( 'NONE',  ( -4.000000000000000000, 0.000000000000000000, 3.000000000000000000 ) ) ;
#125 = CARTESIAN_POINT ( 'NONE',  ( 0.000000000000000000, 0.000000000000000000, 3.199999999999980638 ) ) ;
#126 = DIRECTION ( 'NONE',  ( 0.000000000000000000, 0.000000000000000000, 1.000000000000000000 ) ) ;
#127 = TOROIDAL_SURFACE ( 'NONE', #19, 2.200000000000000178, 0.2000000000000000111 ) ;
#128 = SECURITY_CLASSIFICATION ( '', '', #115 ) ;
#129 = DIRECTION ( 'NONE',  ( -0.000000000000000000, -0.000000000000000000, -1.000000000000000000 ) ) ;
#130 = EDGE_CURVE ( 'NONE', #88, #25, #102, .T. ) ;
#131 = CYLINDRICAL_SURFACE ( 'NONE', #56, 4.000000000000000000 ) ;
#132 = DIRECTION ( 'NONE',  ( 0.000000000000000000, 0.000000000000000000, 1.000000000000000000 ) ) ;
#133 = DIRECTION ( 'NONE',  ( 1.000000000000000000, 0.000000000000000000, 0.000000000000000000 ) ) ;
#134 = APPROVAL_STATUS ( 'not_yet_approved' ) ;
#135 = ORIENTED_EDGE ( 'NONE', *, *, #251, .F. ) ;
#136 = PERSON_AND_ORGANIZATION ( #4, #72 ) ;
#137 = EDGE_LOOP ( 'NONE', ( #184, #300 ) ) ;
#138 = ORIENTED_EDGE ( 'NONE', *, *, #251, .T. ) ;
#139 = ADVANCED_FACE ( 'NONE', ( #75 ), #32, .T. ) ;
#140 = CALENDAR_DATE ( 2022, 20, 6 ) ;
#141 = LOCAL_TIME ( 12, 8, 59.00000000000000000, #236 ) ;
#142 = VERTEX_POINT ( 'NONE', #57 ) ;
#143 = CARTESIAN_POINT ( 'NONE',  ( -4.000000000000000000, 0.000000000000000000, 0.000000000000000000 ) ) ;
#144 = CARTESIAN_POINT ( 'NONE',  ( 2.200000000000000178, 0.000000000000000000, 2.999999999999990674 ) ) ;
#145 = PLANE ( 'NONE',  #42 ) ;
#146 = VECTOR ( 'NONE', #71, 1000.000000000000000 ) ;
#147 = CARTESIAN_POINT ( 'NONE',  ( -2.000000000000000000, 0.000000000000000000, 633.0000000000000000 ) ) ;
#148 = FACE_OUTER_BOUND ( 'NONE', #181, .T. ) ;
#149 = AXIS2_PLACEMENT_3D ( 'NONE', #193, #3, #168 ) ;
#150 = DIRECTION ( 'NONE',  ( 1.000000000000000000, 0.000000000000000000, 0.000000000000000000 ) ) ;
#151 = CARTESIAN_POINT ( 'NONE',  ( 0.000000000000000000, 0.000000000000000000, 3.000000000000000000 ) ) ;
#152 = DIRECTION ( 'NONE',  ( 0.000000000000000000, 0.000000000000000000, 1.000000000000000000 ) ) ;
#153 = CARTESIAN_POINT ( 'NONE',  ( 0.000000000000000000, 0.000000000000000000, 3.199999999999980638 ) ) ;
#154 = EDGE_LOOP ( 'NONE', ( #93, #138 ) ) ;
#155 = COORDINATED_UNIVERSAL_TIME_OFFSET ( 1, 0, .AHEAD. ) ;
#156 = CC_DESIGN_PERSON_AND_ORGANIZATION_ASSIGNMENT ( #228, #306, ( #213 ) ) ;
#157 = APPROVAL_DATE_TIME ( #282, #222 ) ;
#158 = LOCAL_TIME ( 12, 8, 59.00000000000000000, #111 ) ;
#159 = EDGE_LOOP ( 'NONE', ( #94, #281 ) ) ;
#160 = ORIENTED_EDGE ( 'NONE', *, *, #22, .F. ) ;
#161 = EDGE_CURVE ( 'NONE', #209, #142, #98, .T. ) ;
#162 = UNCERTAINTY_MEASURE_WITH_UNIT (LENGTH_MEASURE( 1.000000000000000082E-05 ), #275, 'distance_accuracy_value', 'NONE');
#163 = DATE_TIME_ROLE ( 'creation_date' ) ;
#164 = ORIENTED_EDGE ( 'NONE', *, *, #123, .T. ) ;
#165 = CIRCLE ( 'NONE', #122, 4.000000000000000000 ) ;
#166 = LINE ( 'NONE', #189, #295 ) ;
#167 = ADVANCED_FACE ( 'NONE', ( #51 ), #35, .T. ) ;
#168 = DIRECTION ( 'NONE',  ( 1.000000000000000000, 0.000000000000000000, 0.000000000000000000 ) ) ;
#169 = FACE_BOUND ( 'NONE', #159, .T. ) ;
#170 = DIRECTION ( 'NONE',  ( 0.000000000000000000, 0.000000000000000000, 1.000000000000000000 ) ) ;
#171 = ADVANCED_FACE ( 'NONE', ( #169, #268 ), #145, .T. ) ;
#172 = CYLINDRICAL_SURFACE ( 'NONE', #239, 2.000000000000000000 ) ;
#173 = DIRECTION ( 'NONE',  ( 1.224646799147353207E-16, 1.000000000000000000, -0.000000000000000000 ) ) ;
#174 =( NAMED_UNIT ( * ) PLANE_ANGLE_UNIT ( ) SI_UNIT ( $, .RADIAN. ) );
#175 = EDGE_CURVE ( 'NONE', #112, #88, #250, .T. ) ;
#176 = DIRECTION ( 'NONE',  ( -1.000000000000000000, 0.000000000000000000, 0.000000000000000000 ) ) ;
#177 = PERSON_AND_ORGANIZATION_ROLE ( 'design_supplier' ) ;
#178 = ADVANCED_BREP_SHAPE_REPRESENTATION ( '3255', ( #215, #14 ), #55 ) ;
#179 = EDGE_CURVE ( 'NONE', #64, #305, #30, .T. ) ;
#180 = MECHANICAL_CONTEXT ( 'NONE', #253, 'mechanical' ) ;
#181 = EDGE_LOOP ( 'NONE', ( #91, #116 ) ) ;
#182 = APPROVAL_ROLE ( '' ) ;
#183 = CIRCLE ( 'NONE', #211, 2.000000000000000000 ) ;
#184 = ORIENTED_EDGE ( 'NONE', *, *, #76, .T. ) ;
#185 = ORIENTED_EDGE ( 'NONE', *, *, #269, .T. ) ;
#186 = CC_DESIGN_PERSON_AND_ORGANIZATION_ASSIGNMENT ( #255, #46, ( #61 ) ) ;
#187 = PERSON_AND_ORGANIZATION ( #4, #72 ) ;
#188 = ORIENTED_EDGE ( 'NONE', *, *, #175, .F. ) ;
#189 = CARTESIAN_POINT ( 'NONE',  ( 4.000000000000000000, 4.898587196589412829E-16, 3.000000000000000000 ) ) ;
#190 = DIRECTION ( 'NONE',  ( 0.000000000000000000, 0.000000000000000000, 1.000000000000000000 ) ) ;
#191 = CARTESIAN_POINT ( 'NONE',  ( 0.000000000000000000, 0.000000000000000000, 0.000000000000000000 ) ) ;
#192 = CIRCLE ( 'NONE', #234, 2.200000000000000178 ) ;
#193 = CARTESIAN_POINT ( 'NONE',  ( 0.000000000000000000, 0.000000000000000000, 633.0000000000000000 ) ) ;
#194 = AXIS2_PLACEMENT_3D ( 'NONE', #151, #249, #82 ) ;
#195 = ADVANCED_FACE ( 'NONE', ( #252 ), #127, .F. ) ;
#196 = CARTESIAN_POINT ( 'NONE',  ( 0.000000000000000000, 0.000000000000000000, 0.000000000000000000 ) ) ;
#197 = CC_DESIGN_PERSON_AND_ORGANIZATION_ASSIGNMENT ( #27, #69, ( #266 ) ) ;
#198 = AXIS2_PLACEMENT_3D ( 'NONE', #81, #173, #294 ) ;
#199 = FACE_OUTER_BOUND ( 'NONE', #307, .T. ) ;
#200 = DIRECTION ( 'NONE',  ( 0.000000000000000000, 0.000000000000000000, 1.000000000000000000 ) ) ;
#201 = CIRCLE ( 'NONE', #241, 2.000000000000000000 ) ;
#202 = AXIS2_PLACEMENT_3D ( 'NONE', #223, #129, #176 ) ;
#203 = ORIENTED_EDGE ( 'NONE', *, *, #87, .T. ) ;
#204 = DATE_AND_TIME ( #140, #158 ) ;
#205 = VERTEX_POINT ( 'NONE', #290 ) ;
#206 = PERSON_AND_ORGANIZATION ( #4, #72 ) ;
#207 = ORIENTED_EDGE ( 'NONE', *, *, #217, .T. ) ;
#208 = DATE_TIME_ROLE ( 'classification_date' ) ;
#209 = VERTEX_POINT ( 'NONE', #59 ) ;
#210 = ORIENTED_EDGE ( 'NONE', *, *, #161, .F. ) ;
#211 = AXIS2_PLACEMENT_3D ( 'NONE', #125, #190, #120 ) ;
#212 = DIRECTION ( 'NONE',  ( -0.000000000000000000, -0.000000000000000000, -1.000000000000000000 ) ) ;
#213 = PRODUCT_DEFINITION ( 'NEZNÁMÝ', '', #61, #117 ) ;
#214 = CARTESIAN_POINT ( 'NONE',  ( 4.000000000000000000, 4.898587196589412829E-16, 3.000000000000000000 ) ) ;
#215 = MANIFOLD_SOLID_BREP ( 'Zaoblit1', #108 ) ;
#216 = DIRECTION ( 'NONE',  ( 0.000000000000000000, 0.000000000000000000, -1.000000000000000000 ) ) ;
#217 = EDGE_CURVE ( 'NONE', #205, #25, #100, .T. ) ;
#218 = CARTESIAN_POINT ( 'NONE',  ( 0.000000000000000000, 0.000000000000000000, 3.000000000000000000 ) ) ;
#219 = CIRCLE ( 'NONE', #149, 2.000000000000000000 ) ;
#220 = CARTESIAN_POINT ( 'NONE',  ( 0.000000000000000000, 0.000000000000000000, 633.0000000000000000 ) ) ;
#221 = CARTESIAN_POINT ( 'NONE',  ( 0.000000000000000000, 0.000000000000000000, 3.199999999999980638 ) ) ;
#222 = APPROVAL ( #302, 'NEURÈENÝ' ) ;
#223 = CARTESIAN_POINT ( 'NONE',  ( 0.000000000000000000, 0.000000000000000000, 633.0000000000000000 ) ) ;
#224 = CIRCLE ( 'NONE', #70, 4.000000000000000000 ) ;
#225 = DIRECTION ( 'NONE',  ( 1.000000000000000000, 0.000000000000000000, -0.000000000000000000 ) ) ;
#226 = DIRECTION ( 'NONE',  ( 1.000000000000000000, 0.000000000000000000, 0.000000000000000000 ) ) ;
#227 = AXIS2_PLACEMENT_3D ( 'NONE', #99, #238, #2 ) ;
#228 = PERSON_AND_ORGANIZATION ( #4, #72 ) ;
#229 = ORIENTED_EDGE ( 'NONE', *, *, #97, .F. ) ;
#230 = CIRCLE ( 'NONE', #198, 0.2000000000000000944 ) ;
#231 = CARTESIAN_POINT ( 'NONE',  ( 0.000000000000000000, 0.000000000000000000, 0.000000000000000000 ) ) ;
#232 = EDGE_LOOP ( 'NONE', ( #188, #258, #207, #118 ) ) ;
#233 = ORIENTED_EDGE ( 'NONE', *, *, #161, .T. ) ;
#234 = AXIS2_PLACEMENT_3D ( 'NONE', #54, #96, #265 ) ;
#235 = ORIENTED_EDGE ( 'NONE', *, *, #301, .T. ) ;
#236 = COORDINATED_UNIVERSAL_TIME_OFFSET ( 1, 0, .AHEAD. ) ;
#237 = EDGE_LOOP ( 'NONE', ( #271, #303, #67, #185 ) ) ;
#238 = DIRECTION ( 'NONE',  ( 0.000000000000000000, 0.000000000000000000, 1.000000000000000000 ) ) ;
#239 = AXIS2_PLACEMENT_3D ( 'NONE', #220, #58, #52 ) ;
#240 = DIRECTION ( 'NONE',  ( 1.000000000000000000, 0.000000000000000000, 0.000000000000000000 ) ) ;
#241 = AXIS2_PLACEMENT_3D ( 'NONE', #221, #200, #247 ) ;
#242 = CARTESIAN_POINT ( 'NONE',  ( 0.000000000000000000, 0.000000000000000000, 3.000000000000000000 ) ) ;
#243 = CC_DESIGN_DATE_AND_TIME_ASSIGNMENT ( #89, #163, ( #213 ) ) ;
#244 = CARTESIAN_POINT ( 'NONE',  ( 0.000000000000000000, 0.000000000000000000, 633.0000000000000000 ) ) ;
#245 = PLANE ( 'NONE',  #36 ) ;
#246 = AXIS2_PLACEMENT_3D ( 'NONE', #288, #5, #216 ) ;
#247 = DIRECTION ( 'NONE',  ( 1.000000000000000000, 0.000000000000000000, 0.000000000000000000 ) ) ;
#248 = CARTESIAN_POINT ( 'NONE',  ( 2.000000000000000000, 2.449293598294706414E-16, 633.0000000000000000 ) ) ;
#249 = DIRECTION ( 'NONE',  ( -0.000000000000000000, -0.000000000000000000, -1.000000000000000000 ) ) ;
#250 = CIRCLE ( 'NONE', #84, 4.000000000000000000 ) ;
#251 = EDGE_CURVE ( 'NONE', #280, #209, #261, .T. ) ;
#252 = FACE_OUTER_BOUND ( 'NONE', #48, .T. ) ;
#253 = APPLICATION_CONTEXT ( 'configuration controlled 3d designs of mechanical parts and assemblies' ) ;
#254 = APPROVAL_STATUS ( 'not_yet_approved' ) ;
#255 = PERSON_AND_ORGANIZATION ( #4, #72 ) ;
#256 = ORIENTED_EDGE ( 'NONE', *, *, #28, .F. ) ;
#257 = EDGE_CURVE ( 'NONE', #47, #142, #201, .T. ) ;
#258 = ORIENTED_EDGE ( 'NONE', *, *, #37, .T. ) ;
#259 = EDGE_LOOP ( 'NONE', ( #283, #235, #110, #73 ) ) ;
#260 = SHAPE_DEFINITION_REPRESENTATION ( #264, #178 ) ;
#261 = CIRCLE ( 'NONE', #298, 2.000000000000000000 ) ;
#262 = LOCAL_TIME ( 12, 8, 59.00000000000000000, #155 ) ;
#263 = FACE_OUTER_BOUND ( 'NONE', #20, .T. ) ;
#264 = PRODUCT_DEFINITION_SHAPE ( 'NONE', 'NONE',  #213 ) ;
#265 = DIRECTION ( 'NONE',  ( 1.000000000000000000, 0.000000000000000000, 0.000000000000000000 ) ) ;
#266 = PRODUCT ( '3255', '3255', '', ( #180 ) ) ;
#267 = AXIS2_PLACEMENT_3D ( 'NONE', #244, #170, #285 ) ;
#268 = FACE_OUTER_BOUND ( 'NONE', #137, .T. ) ;
#269 = EDGE_CURVE ( 'NONE', #25, #205, #165, .T. ) ;
#270 = DIRECTION ( 'NONE',  ( 0.000000000000000000, 0.000000000000000000, 1.000000000000000000 ) ) ;
#271 = ORIENTED_EDGE ( 'NONE', *, *, #37, .F. ) ;
#272 = ADVANCED_FACE ( 'NONE', ( #10 ), #131, .T. ) ;
#273 = DIRECTION ( 'NONE',  ( 0.000000000000000000, 0.000000000000000000, 1.000000000000000000 ) ) ;
#274 = LOCAL_TIME ( 12, 8, 59.00000000000000000, #299 ) ;
#275 =( LENGTH_UNIT ( ) NAMED_UNIT ( * ) SI_UNIT ( .MILLI., .METRE. ) );
#276 = AXIS2_PLACEMENT_3D ( 'NONE', #196, #273, #40 ) ;
#277 = CC_DESIGN_APPROVAL ( #222, ( #128 ) ) ;
#278 = PERSON_AND_ORGANIZATION ( #4, #72 ) ;
#279 = APPROVAL_DATE_TIME ( #50, #293 ) ;
#280 = VERTEX_POINT ( 'NONE', #248 ) ;
#281 = ORIENTED_EDGE ( 'NONE', *, *, #28, .T. ) ;
#282 = DATE_AND_TIME ( #66, #141 ) ;
#283 = ORIENTED_EDGE ( 'NONE', *, *, #123, .F. ) ;
#284 = CC_DESIGN_PERSON_AND_ORGANIZATION_ASSIGNMENT ( #136, #68, ( #128 ) ) ;
#285 = DIRECTION ( 'NONE',  ( 1.000000000000000000, 0.000000000000000000, -0.000000000000000000 ) ) ;
#286 = DIRECTION ( 'NONE',  ( -0.000000000000000000, -0.000000000000000000, -1.000000000000000000 ) ) ;
#287 = DIRECTION ( 'NONE',  ( -1.000000000000000000, 0.000000000000000000, 0.000000000000000000 ) ) ;
#288 = CARTESIAN_POINT ( 'NONE',  ( 2.200000000000000178, 0.000000000000000000, 3.199999999999980638 ) ) ;
#289 = CYLINDRICAL_SURFACE ( 'NONE', #202, 2.000000000000000000 ) ;
#290 = CARTESIAN_POINT ( 'NONE',  ( 4.000000000000000000, 4.898587196589412829E-16, 0.000000000000000000 ) ) ;
#291 = DIRECTION ( 'NONE',  ( 0.000000000000000000, 0.000000000000000000, 1.000000000000000000 ) ) ;
#292 = CC_DESIGN_APPROVAL ( #293, ( #213 ) ) ;
#293 = APPROVAL ( #254, 'NEURÈENÝ' ) ;
#294 = DIRECTION ( 'NONE',  ( -1.000000000000000000, 1.224646799147353207E-16, 0.000000000000000000 ) ) ;
#295 = VECTOR ( 'NONE', #33, 1000.000000000000000 ) ;
#296 = ADVANCED_FACE ( 'NONE', ( #199 ), #289, .T. ) ;
#297 = DATE_AND_TIME ( #304, #274 ) ;
#298 = AXIS2_PLACEMENT_3D ( 'NONE', #43, #106, #133 ) ;
#299 = COORDINATED_UNIVERSAL_TIME_OFFSET ( 1, 0, .AHEAD. ) ;
#300 = ORIENTED_EDGE ( 'NONE', *, *, #175, .T. ) ;
#301 = EDGE_CURVE ( 'NONE', #142, #305, #230, .T. ) ;
#302 = APPROVAL_STATUS ( 'not_yet_approved' ) ;
#303 = ORIENTED_EDGE ( 'NONE', *, *, #76, .F. ) ;
#304 = CALENDAR_DATE ( 2022, 20, 6 ) ;
#305 = VERTEX_POINT ( 'NONE', #11 ) ;
#306 = PERSON_AND_ORGANIZATION_ROLE ( 'creator' ) ;
#307 = EDGE_LOOP ( 'NONE', ( #135, #31, #114, #210 ) ) ;
ENDSEC;
END-ISO-10303-21;
