ISO-10303-21;
HEADER;
FILE_DESCRIPTION (( 'STEP AP203' ),
    '1' );
FILE_NAME ('4dc4.STEP',
    '2022-06-20T09:23:02',
    ( '' ),
    ( '' ),
    'SwSTEP 2.0',
    'SolidWorks 2019',
    '' );
FILE_SCHEMA (( 'CONFIG_CONTROL_DESIGN' ));
ENDSEC;

DATA;
#1 = APPROVAL_ROLE ( '' ) ;
#2 = CARTESIAN_POINT ( 'NONE',  ( -8.000000000000000000, 0.000000000000000000, 1006.999999999999886 ) ) ;
#3 = DIRECTION ( 'NONE',  ( 0.000000000000000000, 0.000000000000000000, 1.000000000000000000 ) ) ;
#4 = CARTESIAN_POINT ( 'NONE',  ( 0.000000000000000000, 0.000000000000000000, 7.199999999999984190 ) ) ;
#5 = COORDINATED_UNIVERSAL_TIME_OFFSET ( 1, 0, .AHEAD. ) ;
#6 = DIRECTION ( 'NONE',  ( 1.000000000000000000, 0.000000000000000000, 0.000000000000000000 ) ) ;
#7 = CYLINDRICAL_SURFACE ( 'NONE', #191, 11.00000000000000000 ) ;
#8 = CARTESIAN_POINT ( 'NONE',  ( 0.000000000000000000, 0.000000000000000000, 1006.999999999999886 ) ) ;
#9 = EDGE_LOOP ( 'NONE', ( #155, #276 ) ) ;
#10 = FACE_OUTER_BOUND ( 'NONE', #176, .T. ) ;
#11 = DIRECTION ( 'NONE',  ( 1.000000000000000000, 0.000000000000000000, 0.000000000000000000 ) ) ;
#12 = LOCAL_TIME ( 11, 23, 2.000000000000000000, #256 ) ;
#13 = CARTESIAN_POINT ( 'NONE',  ( 11.00000000000000000, 1.347111479062088405E-15, 0.000000000000000000 ) ) ;
#14 = CC_DESIGN_PERSON_AND_ORGANIZATION_ASSIGNMENT ( #197, #266, ( #141 ) ) ;
#15 = CARTESIAN_POINT ( 'NONE',  ( -11.00000000000000000, 0.000000000000000000, 0.000000000000000000 ) ) ;
#16 = AXIS2_PLACEMENT_3D ( 'NONE', #242, #29, #127 ) ;
#17 = AXIS2_PLACEMENT_3D ( 'NONE', #291, #87, #175 ) ;
#18 = CARTESIAN_POINT ( 'NONE',  ( -8.000000000000000000, 0.000000000000000000, 1006.999999999999886 ) ) ;
#19 = AXIS2_PLACEMENT_3D ( 'NONE', #57, #162, #283 ) ;
#20 = ORIENTED_EDGE ( 'NONE', *, *, #61, .T. ) ;
#21 = CC_DESIGN_DATE_AND_TIME_ASSIGNMENT ( #212, #147, ( #94 ) ) ;
#22 = DIRECTION ( 'NONE',  ( 1.000000000000000000, 0.000000000000000000, 0.000000000000000000 ) ) ;
#23 = ORIENTED_EDGE ( 'NONE', *, *, #271, .T. ) ;
#24 = EDGE_LOOP ( 'NONE', ( #297, #121, #292, #20 ) ) ;
#25 = CARTESIAN_POINT ( 'NONE',  ( 0.000000000000000000, 0.000000000000000000, 7.199999999999984190 ) ) ;
#26 = EDGE_CURVE ( 'NONE', #152, #180, #111, .T. ) ;
#27 = APPROVAL_DATE_TIME ( #165, #215 ) ;
#28 = AXIS2_PLACEMENT_3D ( 'NONE', #160, #156, #208 ) ;
#29 = DIRECTION ( 'NONE',  ( 0.000000000000000000, 0.000000000000000000, 1.000000000000000000 ) ) ;
#30 = COORDINATED_UNIVERSAL_TIME_OFFSET ( 1, 0, .AHEAD. ) ;
#31 = VECTOR ( 'NONE', #77, 1000.000000000000000 ) ;
#32 = APPLICATION_CONTEXT ( 'configuration controlled 3d designs of mechanical parts and assemblies' ) ;
#33 = CARTESIAN_POINT ( 'NONE',  ( 8.200000000000001066, 0.000000000000000000, 7.199999999999984190 ) ) ;
#34 = DIRECTION ( 'NONE',  ( 0.000000000000000000, 0.000000000000000000, 1.000000000000000000 ) ) ;
#35 = AXIS2_PLACEMENT_3D ( 'NONE', #8, #289, #106 ) ;
#36 = CC_DESIGN_SECURITY_CLASSIFICATION ( #130, ( #141 ) ) ;
#37 = APPROVAL ( #102, 'NEURÈENÝ' ) ;
#38 = DIRECTION ( 'NONE',  ( 0.000000000000000000, 0.000000000000000000, 1.000000000000000000 ) ) ;
#39 = ORIENTED_EDGE ( 'NONE', *, *, #271, .F. ) ;
#40 = UNCERTAINTY_MEASURE_WITH_UNIT (LENGTH_MEASURE( 1.000000000000000082E-05 ), #305, 'distance_accuracy_value', 'NONE');
#41 = ADVANCED_FACE ( 'NONE', ( #68 ), #303, .T. ) ;
#42 = ORIENTED_EDGE ( 'NONE', *, *, #233, .F. ) ;
#43 = VERTEX_POINT ( 'NONE', #230 ) ;
#44 = VERTEX_POINT ( 'NONE', #253 ) ;
#45 = AXIS2_PLACEMENT_3D ( 'NONE', #251, #153, #22 ) ;
#46 =( GEOMETRIC_REPRESENTATION_CONTEXT ( 3 ) GLOBAL_UNCERTAINTY_ASSIGNED_CONTEXT ( ( #40 ) ) GLOBAL_UNIT_ASSIGNED_CONTEXT ( ( #305, #261, #122 ) ) REPRESENTATION_CONTEXT ( 'NONE', 'WORKASPACE' ) );
#47 = ORIENTED_EDGE ( 'NONE', *, *, #189, .F. ) ;
#48 = ORIENTED_EDGE ( 'NONE', *, *, #112, .T. ) ;
#49 = CLOSED_SHELL ( 'NONE', ( #204, #142, #161, #41, #151, #72, #66, #104, #223 ) ) ;
#50 = DIRECTION ( 'NONE',  ( 1.000000000000000000, 0.000000000000000000, 0.000000000000000000 ) ) ;
#51 = SECURITY_CLASSIFICATION_LEVEL ( 'unclassified' ) ;
#52 = APPROVAL_PERSON_ORGANIZATION ( #103, #307, #268 ) ;
#53 = DIRECTION ( 'NONE',  ( 0.000000000000000000, 0.000000000000000000, 1.000000000000000000 ) ) ;
#54 = CARTESIAN_POINT ( 'NONE',  ( 8.200000000000001066, 0.000000000000000000, 6.999999999999992006 ) ) ;
#55 = CC_DESIGN_PERSON_AND_ORGANIZATION_ASSIGNMENT ( #188, #67, ( #252 ) ) ;
#56 = DATE_AND_TIME ( #219, #145 ) ;
#57 = CARTESIAN_POINT ( 'NONE',  ( 0.000000000000000000, 0.000000000000000000, 1006.999999999999886 ) ) ;
#58 = CARTESIAN_POINT ( 'NONE',  ( 0.000000000000000000, 0.000000000000000000, 7.000000000000000000 ) ) ;
#59 = TOROIDAL_SURFACE ( 'NONE', #45, 8.200000000000001066, 0.2000000000000000111 ) ;
#60 = DIRECTION ( 'NONE',  ( 1.000000000000000000, 0.000000000000000000, 0.000000000000000000 ) ) ;
#61 = EDGE_CURVE ( 'NONE', #63, #135, #172, .T. ) ;
#62 = CARTESIAN_POINT ( 'NONE',  ( 0.000000000000000000, 0.000000000000000000, 1006.999999999999886 ) ) ;
#63 = VERTEX_POINT ( 'NONE', #15 ) ;
#64 = VERTEX_POINT ( 'NONE', #18 ) ;
#65 = VERTEX_POINT ( 'NONE', #92 ) ;
#66 = ADVANCED_FACE ( 'NONE', ( #203 ), #299, .T. ) ;
#67 = PERSON_AND_ORGANIZATION_ROLE ( 'design_owner' ) ;
#68 = FACE_OUTER_BOUND ( 'NONE', #24, .T. ) ;
#69 = MECHANICAL_CONTEXT ( 'NONE', #32, 'mechanical' ) ;
#70 = ORIENTED_EDGE ( 'NONE', *, *, #78, .T. ) ;
#71 = CARTESIAN_POINT ( 'NONE',  ( 0.000000000000000000, 0.000000000000000000, 0.000000000000000000 ) ) ;
#72 = ADVANCED_FACE ( 'NONE', ( #231 ), #285, .F. ) ;
#73 = ORIENTED_EDGE ( 'NONE', *, *, #189, .T. ) ;
#74 = APPROVAL_ROLE ( '' ) ;
#75 = TOROIDAL_SURFACE ( 'NONE', #248, 8.200000000000001066, 0.2000000000000000111 ) ;
#76 = CC_DESIGN_APPROVAL ( #307, ( #141 ) ) ;
#77 = DIRECTION ( 'NONE',  ( -0.000000000000000000, -0.000000000000000000, -1.000000000000000000 ) ) ;
#78 = EDGE_CURVE ( 'NONE', #64, #43, #240, .T. ) ;
#79 = PERSON_AND_ORGANIZATION ( #115, #93 ) ;
#80 = CALENDAR_DATE ( 2022, 20, 6 ) ;
#81 = DIRECTION ( 'NONE',  ( 0.000000000000000000, 0.000000000000000000, 1.000000000000000000 ) ) ;
#82 = CALENDAR_DATE ( 2022, 20, 6 ) ;
#83 = CC_DESIGN_DATE_AND_TIME_ASSIGNMENT ( #243, #246, ( #130 ) ) ;
#84 = PERSON_AND_ORGANIZATION_ROLE ( 'design_supplier' ) ;
#85 = DIRECTION ( 'NONE',  ( 0.000000000000000000, -1.000000000000000000, 0.000000000000000000 ) ) ;
#86 = CYLINDRICAL_SURFACE ( 'NONE', #35, 8.000000000000000000 ) ;
#87 = DIRECTION ( 'NONE',  ( 0.000000000000000000, 0.000000000000000000, 1.000000000000000000 ) ) ;
#88 = EDGE_CURVE ( 'NONE', #44, #135, #164, .T. ) ;
#89 = DIRECTION ( 'NONE',  ( -1.000000000000000000, 0.000000000000000000, 0.000000000000000000 ) ) ;
#90 = APPROVAL_STATUS ( 'not_yet_approved' ) ;
#91 = CARTESIAN_POINT ( 'NONE',  ( 0.000000000000000000, 0.000000000000000000, 7.000000000000000000 ) ) ;
#92 = CARTESIAN_POINT ( 'NONE',  ( 8.000000000000000000, 9.797174393178825657E-16, 1006.999999999999886 ) ) ;
#93 = ORGANIZATION ( 'NEURÈENÝ', 'NEURÈENÝ', '' ) ;
#94 = PRODUCT_DEFINITION ( 'NEZNÁMÝ', '', #141, #183 ) ;
#95 = CARTESIAN_POINT ( 'NONE',  ( 0.000000000000000000, 0.000000000000000000, 1006.999999999999886 ) ) ;
#96 = ORIENTED_EDGE ( 'NONE', *, *, #88, .T. ) ;
#97 = ORIENTED_EDGE ( 'NONE', *, *, #26, .F. ) ;
#98 = AXIS2_PLACEMENT_3D ( 'NONE', #58, #38, #60 ) ;
#99 = EDGE_LOOP ( 'NONE', ( #258, #47 ) ) ;
#100 = CIRCLE ( 'NONE', #140, 0.1999999999999996503 ) ;
#101 = PRODUCT_RELATED_PRODUCT_CATEGORY ( 'detail', '', ( #252 ) ) ;
#102 = APPROVAL_STATUS ( 'not_yet_approved' ) ;
#103 = PERSON_AND_ORGANIZATION ( #115, #93 ) ;
#104 = ADVANCED_FACE ( 'NONE', ( #192 ), #126, .T. ) ;
#105 = DIRECTION ( 'NONE',  ( -0.000000000000000000, -0.000000000000000000, -1.000000000000000000 ) ) ;
#106 = DIRECTION ( 'NONE',  ( -1.000000000000000000, 0.000000000000000000, 0.000000000000000000 ) ) ;
#107 = DIRECTION ( 'NONE',  ( 1.000000000000000000, 0.000000000000000000, 0.000000000000000000 ) ) ;
#108 = APPLICATION_PROTOCOL_DEFINITION ( 'international standard', 'config_control_design', 1994, #32 ) ;
#109 = DIRECTION ( 'NONE',  ( 0.000000000000000000, 0.000000000000000000, 1.000000000000000000 ) ) ;
#110 = ORIENTED_EDGE ( 'NONE', *, *, #275, .F. ) ;
#111 = CIRCLE ( 'NONE', #28, 8.200000000000001066 ) ;
#112 = EDGE_CURVE ( 'NONE', #205, #43, #124, .T. ) ;
#113 = CIRCLE ( 'NONE', #98, 11.00000000000000000 ) ;
#114 = ORIENTED_EDGE ( 'NONE', *, *, #78, .F. ) ;
#115 = PERSON ( 'NEURÈENÝ', 'NEURÈENÝ', 'NEURÈENÝ', ('NEURÈENÝ'), ('NEURÈENÝ'), ('NEURÈENÝ') ) ;
#116 = AXIS2_PLACEMENT_3D ( 'NONE', #62, #207, #302 ) ;
#117 = ORIENTED_EDGE ( 'NONE', *, *, #112, .F. ) ;
#118 = PERSON_AND_ORGANIZATION ( #115, #93 ) ;
#119 = EDGE_CURVE ( 'NONE', #43, #205, #178, .T. ) ;
#120 = EDGE_LOOP ( 'NONE', ( #42, #281, #48, #114 ) ) ;
#121 = ORIENTED_EDGE ( 'NONE', *, *, #250, .F. ) ;
#122 =( NAMED_UNIT ( * ) SI_UNIT ( $, .STERADIAN. ) SOLID_ANGLE_UNIT ( ) );
#123 = COORDINATED_UNIVERSAL_TIME_OFFSET ( 1, 0, .AHEAD. ) ;
#124 = CIRCLE ( 'NONE', #154, 8.000000000000000000 ) ;
#125 = CC_DESIGN_APPROVAL ( #37, ( #130 ) ) ;
#126 = PLANE ( 'NONE',  #16 ) ;
#127 = DIRECTION ( 'NONE',  ( 1.000000000000000000, 0.000000000000000000, -0.000000000000000000 ) ) ;
#128 = CC_DESIGN_PERSON_AND_ORGANIZATION_ASSIGNMENT ( #196, #170, ( #94 ) ) ;
#129 = LINE ( 'NONE', #146, #279 ) ;
#130 = SECURITY_CLASSIFICATION ( '', '', #51 ) ;
#131 = LINE ( 'NONE', #199, #226 ) ;
#132 = DIRECTION ( 'NONE',  ( 0.000000000000000000, 0.000000000000000000, 1.000000000000000000 ) ) ;
#133 = EDGE_CURVE ( 'NONE', #137, #63, #129, .T. ) ;
#134 = CARTESIAN_POINT ( 'NONE',  ( 0.000000000000000000, 0.000000000000000000, 7.000000000000000000 ) ) ;
#135 = VERTEX_POINT ( 'NONE', #13 ) ;
#136 = DIRECTION ( 'NONE',  ( -1.000000000000000000, 0.000000000000000000, 0.000000000000000000 ) ) ;
#137 = VERTEX_POINT ( 'NONE', #222 ) ;
#138 = ORIENTED_EDGE ( 'NONE', *, *, #119, .F. ) ;
#139 = CARTESIAN_POINT ( 'NONE',  ( 0.000000000000000000, 0.000000000000000000, 0.000000000000000000 ) ) ;
#140 = AXIS2_PLACEMENT_3D ( 'NONE', #33, #85, #171 ) ;
#141 = PRODUCT_DEFINITION_FORMATION_WITH_SPECIFIED_SOURCE ( 'LIBOVOLNÝ', '', #252, .NOT_KNOWN. ) ;
#142 = ADVANCED_FACE ( 'NONE', ( #267 ), #86, .T. ) ;
#143 = CARTESIAN_POINT ( 'NONE',  ( 11.00000000000000000, 1.347111479062088405E-15, 7.000000000000000000 ) ) ;
#144 = PERSON_AND_ORGANIZATION_ROLE ( 'classification_officer' ) ;
#145 = LOCAL_TIME ( 11, 23, 2.000000000000000000, #5 ) ;
#146 = CARTESIAN_POINT ( 'NONE',  ( -11.00000000000000000, 0.000000000000000000, 7.000000000000000000 ) ) ;
#147 = DATE_TIME_ROLE ( 'creation_date' ) ;
#148 = FACE_OUTER_BOUND ( 'NONE', #9, .T. ) ;
#149 = AXIS2_PLACEMENT_3D ( 'NONE', #4, #109, #11 ) ;
#150 = AXIS2_PLACEMENT_3D ( 'NONE', #265, #53, #6 ) ;
#151 = ADVANCED_FACE ( 'NONE', ( #244, #148 ), #227, .T. ) ;
#152 = VERTEX_POINT ( 'NONE', #247 ) ;
#153 = DIRECTION ( 'NONE',  ( 0.000000000000000000, 0.000000000000000000, 1.000000000000000000 ) ) ;
#154 = AXIS2_PLACEMENT_3D ( 'NONE', #25, #81, #216 ) ;
#155 = ORIENTED_EDGE ( 'NONE', *, *, #250, .T. ) ;
#156 = DIRECTION ( 'NONE',  ( -0.000000000000000000, -0.000000000000000000, -1.000000000000000000 ) ) ;
#157 = APPLICATION_PROTOCOL_DEFINITION ( 'international standard', 'config_control_design', 1994, #209 ) ;
#158 = CARTESIAN_POINT ( 'NONE',  ( 0.000000000000000000, 0.000000000000000000, 7.000000000000000000 ) ) ;
#159 = ORIENTED_EDGE ( 'NONE', *, *, #220, .F. ) ;
#160 = CARTESIAN_POINT ( 'NONE',  ( 0.000000000000000000, 0.000000000000000000, 7.000000000000000000 ) ) ;
#161 = ADVANCED_FACE ( 'NONE', ( #296 ), #7, .T. ) ;
#162 = DIRECTION ( 'NONE',  ( 0.000000000000000000, 0.000000000000000000, 1.000000000000000000 ) ) ;
#163 = LOCAL_TIME ( 11, 23, 2.000000000000000000, #30 ) ;
#164 = LINE ( 'NONE', #143, #200 ) ;
#165 = DATE_AND_TIME ( #286, #12 ) ;
#166 = EDGE_CURVE ( 'NONE', #180, #152, #269, .T. ) ;
#167 = DATE_AND_TIME ( #82, #214 ) ;
#168 = APPROVAL_DATE_TIME ( #167, #37 ) ;
#169 = DIRECTION ( 'NONE',  ( -0.000000000000000000, -0.000000000000000000, -1.000000000000000000 ) ) ;
#170 = PERSON_AND_ORGANIZATION_ROLE ( 'creator' ) ;
#171 = DIRECTION ( 'NONE',  ( 0.000000000000000000, 0.000000000000000000, -1.000000000000000000 ) ) ;
#172 = CIRCLE ( 'NONE', #260, 11.00000000000000000 ) ;
#173 = CARTESIAN_POINT ( 'NONE',  ( 0.000000000000000000, 0.000000000000000000, 0.000000000000000000 ) ) ;
#174 = CARTESIAN_POINT ( 'NONE',  ( 8.000000000000000000, 9.797174393178825657E-16, 7.199999999999984190 ) ) ;
#175 = DIRECTION ( 'NONE',  ( 1.000000000000000000, 0.000000000000000000, -0.000000000000000000 ) ) ;
#176 = EDGE_LOOP ( 'NONE', ( #185, #117, #23, #97 ) ) ;
#177 = DIRECTION ( 'NONE',  ( -0.000000000000000000, -0.000000000000000000, -1.000000000000000000 ) ) ;
#178 = CIRCLE ( 'NONE', #149, 8.000000000000000000 ) ;
#179 = AXIS2_PLACEMENT_3D ( 'NONE', #71, #206, #295 ) ;
#180 = VERTEX_POINT ( 'NONE', #54 ) ;
#181 = DIRECTION ( 'NONE',  ( -0.000000000000000000, -0.000000000000000000, -1.000000000000000000 ) ) ;
#182 = ORIENTED_EDGE ( 'NONE', *, *, #133, .F. ) ;
#183 = DESIGN_CONTEXT ( 'detailed design', #209, 'design' ) ;
#184 = CIRCLE ( 'NONE', #202, 11.00000000000000000 ) ;
#185 = ORIENTED_EDGE ( 'NONE', *, *, #239, .F. ) ;
#186 = LOCAL_TIME ( 11, 23, 2.000000000000000000, #123 ) ;
#187 = ORIENTED_EDGE ( 'NONE', *, *, #193, .F. ) ;
#188 = PERSON_AND_ORGANIZATION ( #115, #93 ) ;
#189 = EDGE_CURVE ( 'NONE', #135, #63, #184, .T. ) ;
#190 = DIRECTION ( 'NONE',  ( 1.000000000000000000, 0.000000000000000000, -0.000000000000000000 ) ) ;
#191 = AXIS2_PLACEMENT_3D ( 'NONE', #91, #105, #89 ) ;
#192 = FACE_OUTER_BOUND ( 'NONE', #225, .T. ) ;
#193 = EDGE_CURVE ( 'NONE', #65, #205, #131, .T. ) ;
#194 = APPROVAL_STATUS ( 'not_yet_approved' ) ;
#195 = CALENDAR_DATE ( 2022, 20, 6 ) ;
#196 = PERSON_AND_ORGANIZATION ( #115, #93 ) ;
#197 = PERSON_AND_ORGANIZATION ( #115, #93 ) ;
#198 = CC_DESIGN_PERSON_AND_ORGANIZATION_ASSIGNMENT ( #290, #84, ( #141 ) ) ;
#199 = CARTESIAN_POINT ( 'NONE',  ( 8.000000000000000000, 9.797174393178825657E-16, 1006.999999999999886 ) ) ;
#200 = VECTOR ( 'NONE', #263, 1000.000000000000000 ) ;
#201 = ORIENTED_EDGE ( 'NONE', *, *, #166, .T. ) ;
#202 = AXIS2_PLACEMENT_3D ( 'NONE', #173, #34, #107 ) ;
#203 = FACE_OUTER_BOUND ( 'NONE', #255, .T. ) ;
#204 = ADVANCED_FACE ( 'NONE', ( #224 ), #75, .F. ) ;
#205 = VERTEX_POINT ( 'NONE', #174 ) ;
#206 = DIRECTION ( 'NONE',  ( 0.000000000000000000, 0.000000000000000000, 1.000000000000000000 ) ) ;
#207 = DIRECTION ( 'NONE',  ( 0.000000000000000000, 0.000000000000000000, 1.000000000000000000 ) ) ;
#208 = DIRECTION ( 'NONE',  ( 1.000000000000000000, 0.000000000000000000, 0.000000000000000000 ) ) ;
#209 = APPLICATION_CONTEXT ( 'configuration controlled 3d designs of mechanical parts and assemblies' ) ;
#210 = DIRECTION ( 'NONE',  ( -0.000000000000000000, -0.000000000000000000, -1.000000000000000000 ) ) ;
#211 = DIRECTION ( 'NONE',  ( 1.224646799147353207E-16, 1.000000000000000000, -0.000000000000000000 ) ) ;
#212 = DATE_AND_TIME ( #80, #163 ) ;
#213 = AXIS2_PLACEMENT_3D ( 'NONE', #95, #181, #136 ) ;
#214 = LOCAL_TIME ( 11, 23, 2.000000000000000000, #287 ) ;
#215 = APPROVAL ( #90, 'NEURÈENÝ' ) ;
#216 = DIRECTION ( 'NONE',  ( 1.000000000000000000, 0.000000000000000000, 0.000000000000000000 ) ) ;
#217 = APPROVAL_DATE_TIME ( #56, #307 ) ;
#218 = AXIS2_PLACEMENT_3D ( 'NONE', #158, #210, #234 ) ;
#219 = CALENDAR_DATE ( 2022, 20, 6 ) ;
#220 = EDGE_CURVE ( 'NONE', #44, #137, #113, .T. ) ;
#221 = CIRCLE ( 'NONE', #19, 8.000000000000000000 ) ;
#222 = CARTESIAN_POINT ( 'NONE',  ( -11.00000000000000000, 0.000000000000000000, 7.000000000000000000 ) ) ;
#223 = ADVANCED_FACE ( 'NONE', ( #10 ), #59, .F. ) ;
#224 = FACE_OUTER_BOUND ( 'NONE', #277, .T. ) ;
#225 = EDGE_LOOP ( 'NONE', ( #301, #232 ) ) ;
#226 = VECTOR ( 'NONE', #177, 1000.000000000000000 ) ;
#227 = PLANE ( 'NONE',  #17 ) ;
#228 = ORIENTED_EDGE ( 'NONE', *, *, #166, .F. ) ;
#229 = ORIENTED_EDGE ( 'NONE', *, *, #239, .T. ) ;
#230 = CARTESIAN_POINT ( 'NONE',  ( -8.000000000000000000, 0.000000000000000000, 7.199999999999984190 ) ) ;
#231 = FACE_OUTER_BOUND ( 'NONE', #99, .T. ) ;
#232 = ORIENTED_EDGE ( 'NONE', *, *, #233, .T. ) ;
#233 = EDGE_CURVE ( 'NONE', #65, #64, #236, .T. ) ;
#234 = DIRECTION ( 'NONE',  ( -1.000000000000000000, 0.000000000000000000, 0.000000000000000000 ) ) ;
#235 = CARTESIAN_POINT ( 'NONE',  ( -8.200000000000001066, 1.004210375300829674E-15, 7.199999999999984190 ) ) ;
#236 = CIRCLE ( 'NONE', #116, 8.000000000000000000 ) ;
#237 = ADVANCED_BREP_SHAPE_REPRESENTATION ( '4dc4', ( #238, #179 ), #46 ) ;
#238 = MANIFOLD_SOLID_BREP ( 'Zaoblit1', #49 ) ;
#239 = EDGE_CURVE ( 'NONE', #43, #152, #241, .T. ) ;
#240 = LINE ( 'NONE', #2, #31 ) ;
#241 = CIRCLE ( 'NONE', #284, 0.2000000000000005107 ) ;
#242 = CARTESIAN_POINT ( 'NONE',  ( 0.000000000000000000, 0.000000000000000000, 1006.999999999999886 ) ) ;
#243 = DATE_AND_TIME ( #195, #186 ) ;
#244 = FACE_BOUND ( 'NONE', #282, .T. ) ;
#245 = PRODUCT_DEFINITION_SHAPE ( 'NONE', 'NONE',  #94 ) ;
#246 = DATE_TIME_ROLE ( 'classification_date' ) ;
#247 = CARTESIAN_POINT ( 'NONE',  ( -8.200000000000001066, 1.004210375300829674E-15, 6.999999999999992006 ) ) ;
#248 = AXIS2_PLACEMENT_3D ( 'NONE', #294, #132, #249 ) ;
#249 = DIRECTION ( 'NONE',  ( 1.000000000000000000, 0.000000000000000000, 0.000000000000000000 ) ) ;
#250 = EDGE_CURVE ( 'NONE', #137, #44, #273, .T. ) ;
#251 = CARTESIAN_POINT ( 'NONE',  ( 0.000000000000000000, 0.000000000000000000, 7.199999999999984190 ) ) ;
#252 = PRODUCT ( '4dc4', '4dc4', '', ( #69 ) ) ;
#253 = CARTESIAN_POINT ( 'NONE',  ( 11.00000000000000000, 1.347111479062088405E-15, 7.000000000000000000 ) ) ;
#254 = AXIS2_PLACEMENT_3D ( 'NONE', #139, #3, #190 ) ;
#255 = EDGE_LOOP ( 'NONE', ( #187, #110, #70, #278 ) ) ;
#256 = COORDINATED_UNIVERSAL_TIME_OFFSET ( 1, 0, .AHEAD. ) ;
#257 = ORIENTED_EDGE ( 'NONE', *, *, #26, .T. ) ;
#258 = ORIENTED_EDGE ( 'NONE', *, *, #61, .F. ) ;
#259 = DIRECTION ( 'NONE',  ( 0.000000000000000000, 0.000000000000000000, 1.000000000000000000 ) ) ;
#260 = AXIS2_PLACEMENT_3D ( 'NONE', #304, #259, #50 ) ;
#261 =( NAMED_UNIT ( * ) PLANE_ANGLE_UNIT ( ) SI_UNIT ( $, .RADIAN. ) );
#262 = CC_DESIGN_APPROVAL ( #215, ( #94 ) ) ;
#263 = DIRECTION ( 'NONE',  ( -0.000000000000000000, -0.000000000000000000, -1.000000000000000000 ) ) ;
#264 = SHAPE_DEFINITION_REPRESENTATION ( #245, #237 ) ;
#265 = CARTESIAN_POINT ( 'NONE',  ( 0.000000000000000000, 0.000000000000000000, 7.000000000000000000 ) ) ;
#266 = PERSON_AND_ORGANIZATION_ROLE ( 'creator' ) ;
#267 = FACE_OUTER_BOUND ( 'NONE', #120, .T. ) ;
#268 = APPROVAL_ROLE ( '' ) ;
#269 = CIRCLE ( 'NONE', #280, 8.200000000000001066 ) ;
#270 = EDGE_LOOP ( 'NONE', ( #159, #96, #73, #182 ) ) ;
#271 = EDGE_CURVE ( 'NONE', #205, #180, #100, .T. ) ;
#272 = DIRECTION ( 'NONE',  ( 1.000000000000000000, 0.000000000000000000, 0.000000000000000000 ) ) ;
#273 = CIRCLE ( 'NONE', #150, 11.00000000000000000 ) ;
#274 = APPROVAL_PERSON_ORGANIZATION ( #118, #215, #74 ) ;
#275 = EDGE_CURVE ( 'NONE', #64, #65, #221, .T. ) ;
#276 = ORIENTED_EDGE ( 'NONE', *, *, #220, .T. ) ;
#277 = EDGE_LOOP ( 'NONE', ( #138, #229, #228, #39 ) ) ;
#278 = ORIENTED_EDGE ( 'NONE', *, *, #119, .T. ) ;
#279 = VECTOR ( 'NONE', #169, 1000.000000000000000 ) ;
#280 = AXIS2_PLACEMENT_3D ( 'NONE', #134, #293, #272 ) ;
#281 = ORIENTED_EDGE ( 'NONE', *, *, #193, .T. ) ;
#282 = EDGE_LOOP ( 'NONE', ( #201, #257 ) ) ;
#283 = DIRECTION ( 'NONE',  ( 1.000000000000000000, 0.000000000000000000, 0.000000000000000000 ) ) ;
#284 = AXIS2_PLACEMENT_3D ( 'NONE', #235, #211, #306 ) ;
#285 = PLANE ( 'NONE',  #254 ) ;
#286 = CALENDAR_DATE ( 2022, 20, 6 ) ;
#287 = COORDINATED_UNIVERSAL_TIME_OFFSET ( 1, 0, .AHEAD. ) ;
#288 = PERSON_AND_ORGANIZATION ( #115, #93 ) ;
#289 = DIRECTION ( 'NONE',  ( -0.000000000000000000, -0.000000000000000000, -1.000000000000000000 ) ) ;
#290 = PERSON_AND_ORGANIZATION ( #115, #93 ) ;
#291 = CARTESIAN_POINT ( 'NONE',  ( 0.000000000000000000, 0.000000000000000000, 7.000000000000000000 ) ) ;
#292 = ORIENTED_EDGE ( 'NONE', *, *, #133, .T. ) ;
#293 = DIRECTION ( 'NONE',  ( -0.000000000000000000, -0.000000000000000000, -1.000000000000000000 ) ) ;
#294 = CARTESIAN_POINT ( 'NONE',  ( 0.000000000000000000, 0.000000000000000000, 7.199999999999984190 ) ) ;
#295 = DIRECTION ( 'NONE',  ( 1.000000000000000000, 0.000000000000000000, 0.000000000000000000 ) ) ;
#296 = FACE_OUTER_BOUND ( 'NONE', #270, .T. ) ;
#297 = ORIENTED_EDGE ( 'NONE', *, *, #88, .F. ) ;
#298 = APPROVAL_PERSON_ORGANIZATION ( #288, #37, #1 ) ;
#299 = CYLINDRICAL_SURFACE ( 'NONE', #213, 8.000000000000000000 ) ;
#300 = CC_DESIGN_PERSON_AND_ORGANIZATION_ASSIGNMENT ( #79, #144, ( #130 ) ) ;
#301 = ORIENTED_EDGE ( 'NONE', *, *, #275, .T. ) ;
#302 = DIRECTION ( 'NONE',  ( 1.000000000000000000, 0.000000000000000000, 0.000000000000000000 ) ) ;
#303 = CYLINDRICAL_SURFACE ( 'NONE', #218, 11.00000000000000000 ) ;
#304 = CARTESIAN_POINT ( 'NONE',  ( 0.000000000000000000, 0.000000000000000000, 0.000000000000000000 ) ) ;
#305 =( LENGTH_UNIT ( ) NAMED_UNIT ( * ) SI_UNIT ( .MILLI., .METRE. ) );
#306 = DIRECTION ( 'NONE',  ( -1.000000000000000000, 1.224646799147353207E-16, 0.000000000000000000 ) ) ;
#307 = APPROVAL ( #194, 'NEURÈENÝ' ) ;
ENDSEC;
END-ISO-10303-21;
