ISO-10303-21;
HEADER;
FILE_DESCRIPTION (( 'STEP AP203' ),
    '1' );
FILE_NAME ('2f47.STEP',
    '2022-06-20T10:03:59',
    ( '' ),
    ( '' ),
    'SwSTEP 2.0',
    'SolidWorks 2019',
    '' );
FILE_SCHEMA (( 'CONFIG_CONTROL_DESIGN' ));
ENDSEC;

DATA;
#1 = ORIENTED_EDGE ( 'NONE', *, *, #191, .T. ) ;
#2 = LOCAL_TIME ( 12, 3, 59.00000000000000000, #187 ) ;
#3 = CARTESIAN_POINT ( 'NONE',  ( 2.700000000000000178, 0.000000000000000000, 3.000000000000004441 ) ) ;
#4 = CARTESIAN_POINT ( 'NONE',  ( 0.000000000000000000, 0.000000000000000000, 203.0000000000000000 ) ) ;
#5 = DIRECTION ( 'NONE',  ( -0.000000000000000000, -0.000000000000000000, -1.000000000000000000 ) ) ;
#6 = EDGE_CURVE ( 'NONE', #231, #210, #147, .T. ) ;
#7 = CARTESIAN_POINT ( 'NONE',  ( 0.000000000000000000, 0.000000000000000000, 3.000000000000000000 ) ) ;
#8 = DIRECTION ( 'NONE',  ( 1.000000000000000000, 0.000000000000000000, -0.000000000000000000 ) ) ;
#9 = EDGE_CURVE ( 'NONE', #138, #277, #248, .T. ) ;
#10 = DIRECTION ( 'NONE',  ( 1.000000000000000000, 0.000000000000000000, -0.000000000000000000 ) ) ;
#11 = DIRECTION ( 'NONE',  ( -0.000000000000000000, -0.000000000000000000, -1.000000000000000000 ) ) ;
#12 = VECTOR ( 'NONE', #177, 1000.000000000000000 ) ;
#13 = CARTESIAN_POINT ( 'NONE',  ( 0.000000000000000000, 0.000000000000000000, 3.000000000000000000 ) ) ;
#14 = CARTESIAN_POINT ( 'NONE',  ( 0.000000000000000000, 0.000000000000000000, 3.000000000000000000 ) ) ;
#15 = AXIS2_PLACEMENT_3D ( 'NONE', #96, #283, #51 ) ;
#16 = CARTESIAN_POINT ( 'NONE',  ( -5.000000000000000000, 0.000000000000000000, 0.000000000000000000 ) ) ;
#17 = AXIS2_PLACEMENT_3D ( 'NONE', #224, #109, #293 ) ;
#18 = PERSON_AND_ORGANIZATION_ROLE ( 'design_owner' ) ;
#19 = ADVANCED_FACE ( 'NONE', ( #150 ), #261, .T. ) ;
#20 = APPROVAL_STATUS ( 'not_yet_approved' ) ;
#21 = VERTEX_POINT ( 'NONE', #194 ) ;
#22 = EDGE_LOOP ( 'NONE', ( #53, #63 ) ) ;
#23 = PRODUCT_DEFINITION_FORMATION_WITH_SPECIFIED_SOURCE ( 'LIBOVOLNÝ', '', #125, .NOT_KNOWN. ) ;
#24 = ORIENTED_EDGE ( 'NONE', *, *, #127, .T. ) ;
#25 = ORIENTED_EDGE ( 'NONE', *, *, #9, .T. ) ;
#26 = AXIS2_PLACEMENT_3D ( 'NONE', #122, #212, #241 ) ;
#27 = CARTESIAN_POINT ( 'NONE',  ( 0.000000000000000000, 0.000000000000000000, 0.000000000000000000 ) ) ;
#28 = AXIS2_PLACEMENT_3D ( 'NONE', #290, #195, #58 ) ;
#29 = ORIENTED_EDGE ( 'NONE', *, *, #67, .T. ) ;
#30 = DIRECTION ( 'NONE',  ( -1.000000000000000000, 1.224646799147353207E-16, 0.000000000000000000 ) ) ;
#31 = DIRECTION ( 'NONE',  ( 0.000000000000000000, 0.000000000000000000, 1.000000000000000000 ) ) ;
#32 = UNCERTAINTY_MEASURE_WITH_UNIT (LENGTH_MEASURE( 1.000000000000000082E-05 ), #57, 'distance_accuracy_value', 'NONE');
#33 = SECURITY_CLASSIFICATION ( '', '', #144 ) ;
#34 = DIRECTION ( 'NONE',  ( -0.000000000000000000, -0.000000000000000000, -1.000000000000000000 ) ) ;
#35 = DIRECTION ( 'NONE',  ( 0.000000000000000000, 0.000000000000000000, 1.000000000000000000 ) ) ;
#36 = CIRCLE ( 'NONE', #203, 2.500000000000000000 ) ;
#37 = LOCAL_TIME ( 12, 3, 59.00000000000000000, #272 ) ;
#38 = EDGE_CURVE ( 'NONE', #277, #138, #160, .T. ) ;
#39 = CARTESIAN_POINT ( 'NONE',  ( 5.000000000000000000, 6.123233995736766282E-16, 3.000000000000000000 ) ) ;
#40 = PLANE ( 'NONE',  #137 ) ;
#41 = COORDINATED_UNIVERSAL_TIME_OFFSET ( 1, 0, .AHEAD. ) ;
#42 = ORIENTED_EDGE ( 'NONE', *, *, #233, .F. ) ;
#43 = AXIS2_PLACEMENT_3D ( 'NONE', #101, #215, #287 ) ;
#44 = APPROVAL_STATUS ( 'not_yet_approved' ) ;
#45 = ORIENTED_EDGE ( 'NONE', *, *, #67, .F. ) ;
#46 = VERTEX_POINT ( 'NONE', #3 ) ;
#47 = ORIENTED_EDGE ( 'NONE', *, *, #93, .T. ) ;
#48 = APPROVAL_PERSON_ORGANIZATION ( #300, #229, #184 ) ;
#49 = CALENDAR_DATE ( 2022, 20, 6 ) ;
#50 = DIRECTION ( 'NONE',  ( 1.000000000000000000, 0.000000000000000000, 0.000000000000000000 ) ) ;
#51 = DIRECTION ( 'NONE',  ( 1.000000000000000000, 0.000000000000000000, 0.000000000000000000 ) ) ;
#52 = AXIS2_PLACEMENT_3D ( 'NONE', #13, #11, #103 ) ;
#53 = ORIENTED_EDGE ( 'NONE', *, *, #100, .T. ) ;
#54 = DIRECTION ( 'NONE',  ( 0.000000000000000000, 0.000000000000000000, 1.000000000000000000 ) ) ;
#55 = CARTESIAN_POINT ( 'NONE',  ( -2.500000000000000000, 0.000000000000000000, 203.0000000000000000 ) ) ;
#56 = EDGE_CURVE ( 'NONE', #277, #228, #240, .T. ) ;
#57 =( LENGTH_UNIT ( ) NAMED_UNIT ( * ) SI_UNIT ( .MILLI., .METRE. ) );
#58 = DIRECTION ( 'NONE',  ( -1.000000000000000000, 0.000000000000000000, 0.000000000000000000 ) ) ;
#59 = AXIS2_PLACEMENT_3D ( 'NONE', #128, #74, #174 ) ;
#60 = ADVANCED_FACE ( 'NONE', ( #264 ), #87, .F. ) ;
#61 = DIRECTION ( 'NONE',  ( 1.000000000000000000, 0.000000000000000000, 0.000000000000000000 ) ) ;
#62 = DIRECTION ( 'NONE',  ( 0.000000000000000000, 0.000000000000000000, 1.000000000000000000 ) ) ;
#63 = ORIENTED_EDGE ( 'NONE', *, *, #223, .T. ) ;
#64 = EDGE_LOOP ( 'NONE', ( #305, #145, #69, #112 ) ) ;
#65 = DATE_AND_TIME ( #276, #123 ) ;
#66 = ORIENTED_EDGE ( 'NONE', *, *, #140, .F. ) ;
#67 = EDGE_CURVE ( 'NONE', #21, #228, #36, .T. ) ;
#68 = CALENDAR_DATE ( 2022, 20, 6 ) ;
#69 = ORIENTED_EDGE ( 'NONE', *, *, #91, .T. ) ;
#70 = CIRCLE ( 'NONE', #149, 5.000000000000000000 ) ;
#71 = FACE_OUTER_BOUND ( 'NONE', #141, .T. ) ;
#72 = CARTESIAN_POINT ( 'NONE',  ( 0.000000000000000000, 0.000000000000000000, 3.200000000000008171 ) ) ;
#73 = ADVANCED_FACE ( 'NONE', ( #238 ), #126, .T. ) ;
#74 = DIRECTION ( 'NONE',  ( 0.000000000000000000, 0.000000000000000000, 1.000000000000000000 ) ) ;
#75 = AXIS2_PLACEMENT_3D ( 'NONE', #27, #35, #78 ) ;
#76 = CARTESIAN_POINT ( 'NONE',  ( -5.000000000000000000, 0.000000000000000000, 3.000000000000000000 ) ) ;
#77 = CARTESIAN_POINT ( 'NONE',  ( 0.000000000000000000, 0.000000000000000000, 203.0000000000000000 ) ) ;
#78 = DIRECTION ( 'NONE',  ( 1.000000000000000000, 0.000000000000000000, -0.000000000000000000 ) ) ;
#79 = CARTESIAN_POINT ( 'NONE',  ( 5.000000000000000000, 6.123233995736766282E-16, 0.000000000000000000 ) ) ;
#80 = CARTESIAN_POINT ( 'NONE',  ( -2.700000000000000178, 3.306546357697853733E-16, 3.000000000000004441 ) ) ;
#81 = LINE ( 'NONE', #221, #281 ) ;
#82 = CC_DESIGN_APPROVAL ( #242, ( #298 ) ) ;
#83 = PERSON_AND_ORGANIZATION ( #168, #226 ) ;
#84 = APPLICATION_PROTOCOL_DEFINITION ( 'international standard', 'config_control_design', 1994, #204 ) ;
#85 = ORIENTED_EDGE ( 'NONE', *, *, #131, .F. ) ;
#86 = EDGE_CURVE ( 'NONE', #21, #254, #285, .T. ) ;
#87 = TOROIDAL_SURFACE ( 'NONE', #303, 2.700000000000000178, 0.2000000000000000111 ) ;
#88 = APPROVAL_ROLE ( '' ) ;
#89 = EDGE_LOOP ( 'NONE', ( #189, #235, #24, #85 ) ) ;
#90 = APPROVAL_PERSON_ORGANIZATION ( #299, #242, #161 ) ;
#91 = EDGE_CURVE ( 'NONE', #228, #46, #268, .T. ) ;
#92 = ORIENTED_EDGE ( 'NONE', *, *, #208, .T. ) ;
#93 = EDGE_CURVE ( 'NONE', #254, #46, #181, .T. ) ;
#94 = ORIENTED_EDGE ( 'NONE', *, *, #38, .T. ) ;
#95 = TOROIDAL_SURFACE ( 'NONE', #222, 2.700000000000000178, 0.2000000000000000111 ) ;
#96 = CARTESIAN_POINT ( 'NONE',  ( 0.000000000000000000, 0.000000000000000000, 203.0000000000000000 ) ) ;
#97 = DIRECTION ( 'NONE',  ( 0.000000000000000000, 0.000000000000000000, -1.000000000000000000 ) ) ;
#98 = DIRECTION ( 'NONE',  ( -0.000000000000000000, -0.000000000000000000, -1.000000000000000000 ) ) ;
#99 = VECTOR ( 'NONE', #5, 1000.000000000000000 ) ;
#100 = EDGE_CURVE ( 'NONE', #207, #188, #70, .T. ) ;
#101 = CARTESIAN_POINT ( 'NONE',  ( 0.000000000000000000, 0.000000000000000000, 3.200000000000008171 ) ) ;
#102 = CARTESIAN_POINT ( 'NONE',  ( 0.000000000000000000, 0.000000000000000000, 3.000000000000000000 ) ) ;
#103 = DIRECTION ( 'NONE',  ( 1.000000000000000000, 0.000000000000000000, 0.000000000000000000 ) ) ;
#104 = VECTOR ( 'NONE', #98, 1000.000000000000000 ) ;
#105 = CIRCLE ( 'NONE', #213, 5.000000000000000000 ) ;
#106 = DIRECTION ( 'NONE',  ( 0.000000000000000000, 0.000000000000000000, 1.000000000000000000 ) ) ;
#107 = CARTESIAN_POINT ( 'NONE',  ( 2.500000000000000000, 3.061616997868383141E-16, 203.0000000000000000 ) ) ;
#108 = CC_DESIGN_PERSON_AND_ORGANIZATION_ASSIGNMENT ( #234, #273, ( #33 ) ) ;
#109 = DIRECTION ( 'NONE',  ( 0.000000000000000000, 0.000000000000000000, 1.000000000000000000 ) ) ;
#110 = CALENDAR_DATE ( 2022, 20, 6 ) ;
#111 = APPROVAL_STATUS ( 'not_yet_approved' ) ;
#112 = ORIENTED_EDGE ( 'NONE', *, *, #93, .F. ) ;
#113 = DATE_AND_TIME ( #110, #2 ) ;
#114 = EDGE_LOOP ( 'NONE', ( #307, #202, #159, #29 ) ) ;
#115 = DATE_AND_TIME ( #49, #257 ) ;
#116 = ORIENTED_EDGE ( 'NONE', *, *, #86, .T. ) ;
#117 = CIRCLE ( 'NONE', #43, 2.500000000000000000 ) ;
#118 = ORIENTED_EDGE ( 'NONE', *, *, #208, .F. ) ;
#119 = PRODUCT_RELATED_PRODUCT_CATEGORY ( 'detail', '', ( #125 ) ) ;
#120 = MANIFOLD_SOLID_BREP ( 'Zaoblit1', #255 ) ;
#121 = EDGE_LOOP ( 'NONE', ( #25, #94 ) ) ;
#122 = CARTESIAN_POINT ( 'NONE',  ( 0.000000000000000000, 0.000000000000000000, 203.0000000000000000 ) ) ;
#123 = LOCAL_TIME ( 12, 3, 59.00000000000000000, #278 ) ;
#124 = CARTESIAN_POINT ( 'NONE',  ( 0.000000000000000000, 0.000000000000000000, 3.200000000000008171 ) ) ;
#125 = PRODUCT ( '2f47', '2f47', '', ( #201 ) ) ;
#126 = PLANE ( 'NONE',  #244 ) ;
#127 = EDGE_CURVE ( 'NONE', #228, #21, #117, .T. ) ;
#128 = CARTESIAN_POINT ( 'NONE',  ( 0.000000000000000000, 0.000000000000000000, 0.000000000000000000 ) ) ;
#129 = DIRECTION ( 'NONE',  ( -1.000000000000000000, 0.000000000000000000, 0.000000000000000000 ) ) ;
#130 = DIRECTION ( 'NONE',  ( -0.000000000000000000, -0.000000000000000000, -1.000000000000000000 ) ) ;
#131 = EDGE_CURVE ( 'NONE', #138, #21, #289, .T. ) ;
#132 = DIRECTION ( 'NONE',  ( 1.000000000000000000, 0.000000000000000000, 0.000000000000000000 ) ) ;
#133 = FACE_OUTER_BOUND ( 'NONE', #22, .T. ) ;
#134 = CARTESIAN_POINT ( 'NONE',  ( -5.000000000000000000, 0.000000000000000000, 3.000000000000000000 ) ) ;
#135 =( NAMED_UNIT ( * ) PLANE_ANGLE_UNIT ( ) SI_UNIT ( $, .RADIAN. ) );
#136 = PERSON_AND_ORGANIZATION ( #168, #226 ) ;
#137 = AXIS2_PLACEMENT_3D ( 'NONE', #178, #243, #10 ) ;
#138 = VERTEX_POINT ( 'NONE', #55 ) ;
#139 = APPROVAL_DATE_TIME ( #115, #229 ) ;
#140 = EDGE_CURVE ( 'NONE', #207, #231, #284, .T. ) ;
#141 = EDGE_LOOP ( 'NONE', ( #185, #42 ) ) ;
#142 = AXIS2_PLACEMENT_3D ( 'NONE', #171, #214, #97 ) ;
#143 = APPROVAL ( #20, 'NEURÈENÝ' ) ;
#144 = SECURITY_CLASSIFICATION_LEVEL ( 'unclassified' ) ;
#145 = ORIENTED_EDGE ( 'NONE', *, *, #127, .F. ) ;
#146 = DIRECTION ( 'NONE',  ( 1.000000000000000000, 0.000000000000000000, 0.000000000000000000 ) ) ;
#147 = CIRCLE ( 'NONE', #59, 5.000000000000000000 ) ;
#148 = DIRECTION ( 'NONE',  ( 0.000000000000000000, 0.000000000000000000, 1.000000000000000000 ) ) ;
#149 = AXIS2_PLACEMENT_3D ( 'NONE', #7, #152, #193 ) ;
#150 = FACE_OUTER_BOUND ( 'NONE', #301, .T. ) ;
#151 = ADVANCED_FACE ( 'NONE', ( #175 ), #262, .T. ) ;
#152 = DIRECTION ( 'NONE',  ( 0.000000000000000000, 0.000000000000000000, 1.000000000000000000 ) ) ;
#153 = DIRECTION ( 'NONE',  ( -0.000000000000000000, -0.000000000000000000, -1.000000000000000000 ) ) ;
#154 = CIRCLE ( 'NONE', #17, 5.000000000000000000 ) ;
#155 = AXIS2_PLACEMENT_3D ( 'NONE', #14, #197, #247 ) ;
#156 = APPLICATION_PROTOCOL_DEFINITION ( 'international standard', 'config_control_design', 1994, #196 ) ;
#157 = ADVANCED_FACE ( 'NONE', ( #71 ), #236, .F. ) ;
#158 = CYLINDRICAL_SURFACE ( 'NONE', #155, 5.000000000000000000 ) ;
#159 = ORIENTED_EDGE ( 'NONE', *, *, #131, .T. ) ;
#160 = CIRCLE ( 'NONE', #15, 2.500000000000000000 ) ;
#161 = APPROVAL_ROLE ( '' ) ;
#162 = CC_DESIGN_APPROVAL ( #143, ( #33 ) ) ;
#163 = EDGE_LOOP ( 'NONE', ( #92, #47 ) ) ;
#164 = APPROVAL_DATE_TIME ( #65, #143 ) ;
#165 = ORIENTED_EDGE ( 'NONE', *, *, #91, .F. ) ;
#166 = CC_DESIGN_PERSON_AND_ORGANIZATION_ASSIGNMENT ( #83, #199, ( #23 ) ) ;
#167 = ORIENTED_EDGE ( 'NONE', *, *, #140, .T. ) ;
#168 = PERSON ( 'NEURÈENÝ', 'NEURÈENÝ', 'NEURÈENÝ', ('NEURÈENÝ'), ('NEURÈENÝ'), ('NEURÈENÝ') ) ;
#169 = PERSON_AND_ORGANIZATION ( #168, #226 ) ;
#170 = ORIENTED_EDGE ( 'NONE', *, *, #191, .F. ) ;
#171 = CARTESIAN_POINT ( 'NONE',  ( 2.700000000000000178, 0.000000000000000000, 3.200000000000008171 ) ) ;
#172 = PRODUCT_DEFINITION_SHAPE ( 'NONE', 'NONE',  #298 ) ;
#173 = DIRECTION ( 'NONE',  ( 1.000000000000000000, 0.000000000000000000, 0.000000000000000000 ) ) ;
#174 = DIRECTION ( 'NONE',  ( 1.000000000000000000, 0.000000000000000000, 0.000000000000000000 ) ) ;
#175 = FACE_OUTER_BOUND ( 'NONE', #89, .T. ) ;
#176 = CC_DESIGN_DATE_AND_TIME_ASSIGNMENT ( #186, #306, ( #298 ) ) ;
#177 = DIRECTION ( 'NONE',  ( -0.000000000000000000, -0.000000000000000000, -1.000000000000000000 ) ) ;
#178 = CARTESIAN_POINT ( 'NONE',  ( 0.000000000000000000, 0.000000000000000000, 3.000000000000000000 ) ) ;
#179 = APPROVAL_PERSON_ORGANIZATION ( #198, #143, #88 ) ;
#180 = FACE_OUTER_BOUND ( 'NONE', #274, .T. ) ;
#181 = CIRCLE ( 'NONE', #237, 2.700000000000000178 ) ;
#182 = CALENDAR_DATE ( 2022, 20, 6 ) ;
#183 = ORIENTED_EDGE ( 'NONE', *, *, #223, .F. ) ;
#184 = APPROVAL_ROLE ( '' ) ;
#185 = ORIENTED_EDGE ( 'NONE', *, *, #6, .F. ) ;
#186 = DATE_AND_TIME ( #68, #265 ) ;
#187 = COORDINATED_UNIVERSAL_TIME_OFFSET ( 1, 0, .AHEAD. ) ;
#188 = VERTEX_POINT ( 'NONE', #39 ) ;
#189 = ORIENTED_EDGE ( 'NONE', *, *, #38, .F. ) ;
#190 = CARTESIAN_POINT ( 'NONE',  ( 2.500000000000000000, 3.061616997868383141E-16, 203.0000000000000000 ) ) ;
#191 = EDGE_CURVE ( 'NONE', #188, #210, #81, .T. ) ;
#192 = CARTESIAN_POINT ( 'NONE',  ( -2.500000000000000000, 0.000000000000000000, 203.0000000000000000 ) ) ;
#193 = DIRECTION ( 'NONE',  ( 1.000000000000000000, 0.000000000000000000, 0.000000000000000000 ) ) ;
#194 = CARTESIAN_POINT ( 'NONE',  ( -2.500000000000000000, 0.000000000000000000, 3.200000000000008171 ) ) ;
#195 = DIRECTION ( 'NONE',  ( -0.000000000000000000, -0.000000000000000000, -1.000000000000000000 ) ) ;
#196 = APPLICATION_CONTEXT ( 'configuration controlled 3d designs of mechanical parts and assemblies' ) ;
#197 = DIRECTION ( 'NONE',  ( -0.000000000000000000, -0.000000000000000000, -1.000000000000000000 ) ) ;
#198 = PERSON_AND_ORGANIZATION ( #168, #226 ) ;
#199 = PERSON_AND_ORGANIZATION_ROLE ( 'design_supplier' ) ;
#200 = ORIENTED_EDGE ( 'NONE', *, *, #100, .F. ) ;
#201 = MECHANICAL_CONTEXT ( 'NONE', #196, 'mechanical' ) ;
#202 = ORIENTED_EDGE ( 'NONE', *, *, #9, .F. ) ;
#203 = AXIS2_PLACEMENT_3D ( 'NONE', #72, #148, #173 ) ;
#204 = APPLICATION_CONTEXT ( 'configuration controlled 3d designs of mechanical parts and assemblies' ) ;
#205 = PERSON_AND_ORGANIZATION ( #168, #226 ) ;
#206 = AXIS2_PLACEMENT_3D ( 'NONE', #209, #62, #249 ) ;
#207 = VERTEX_POINT ( 'NONE', #134 ) ;
#208 = EDGE_CURVE ( 'NONE', #46, #254, #260, .T. ) ;
#209 = CARTESIAN_POINT ( 'NONE',  ( 0.000000000000000000, 0.000000000000000000, 0.000000000000000000 ) ) ;
#210 = VERTEX_POINT ( 'NONE', #79 ) ;
#211 = ORIENTED_EDGE ( 'NONE', *, *, #6, .T. ) ;
#212 = DIRECTION ( 'NONE',  ( 0.000000000000000000, 0.000000000000000000, 1.000000000000000000 ) ) ;
#213 = AXIS2_PLACEMENT_3D ( 'NONE', #220, #106, #61 ) ;
#214 = DIRECTION ( 'NONE',  ( 0.000000000000000000, -1.000000000000000000, 0.000000000000000000 ) ) ;
#215 = DIRECTION ( 'NONE',  ( 0.000000000000000000, 0.000000000000000000, 1.000000000000000000 ) ) ;
#216 = CARTESIAN_POINT ( 'NONE',  ( -2.700000000000000178, 3.306546357697853733E-16, 3.200000000000008171 ) ) ;
#217 =( GEOMETRIC_REPRESENTATION_CONTEXT ( 3 ) GLOBAL_UNCERTAINTY_ASSIGNED_CONTEXT ( ( #32 ) ) GLOBAL_UNIT_ASSIGNED_CONTEXT ( ( #57, #135, #245 ) ) REPRESENTATION_CONTEXT ( 'NONE', 'WORKASPACE' ) );
#218 = DESIGN_CONTEXT ( 'detailed design', #204, 'design' ) ;
#219 = DIRECTION ( 'NONE',  ( -1.000000000000000000, 0.000000000000000000, 0.000000000000000000 ) ) ;
#220 = CARTESIAN_POINT ( 'NONE',  ( 0.000000000000000000, 0.000000000000000000, 3.000000000000000000 ) ) ;
#221 = CARTESIAN_POINT ( 'NONE',  ( 5.000000000000000000, 6.123233995736766282E-16, 3.000000000000000000 ) ) ;
#222 = AXIS2_PLACEMENT_3D ( 'NONE', #266, #271, #132 ) ;
#223 = EDGE_CURVE ( 'NONE', #188, #207, #105, .T. ) ;
#224 = CARTESIAN_POINT ( 'NONE',  ( 0.000000000000000000, 0.000000000000000000, 0.000000000000000000 ) ) ;
#225 = FACE_OUTER_BOUND ( 'NONE', #279, .T. ) ;
#226 = ORGANIZATION ( 'NEURÈENÝ', 'NEURÈENÝ', '' ) ;
#227 = PERSON_AND_ORGANIZATION_ROLE ( 'creator' ) ;
#228 = VERTEX_POINT ( 'NONE', #269 ) ;
#229 = APPROVAL ( #111, 'NEURÈENÝ' ) ;
#230 = DATE_TIME_ROLE ( 'classification_date' ) ;
#231 = VERTEX_POINT ( 'NONE', #16 ) ;
#232 = AXIS2_PLACEMENT_3D ( 'NONE', #216, #239, #30 ) ;
#233 = EDGE_CURVE ( 'NONE', #210, #231, #154, .T. ) ;
#234 = PERSON_AND_ORGANIZATION ( #168, #226 ) ;
#235 = ORIENTED_EDGE ( 'NONE', *, *, #56, .T. ) ;
#236 = PLANE ( 'NONE',  #75 ) ;
#237 = AXIS2_PLACEMENT_3D ( 'NONE', #282, #34, #146 ) ;
#238 = FACE_OUTER_BOUND ( 'NONE', #121, .T. ) ;
#239 = DIRECTION ( 'NONE',  ( 1.224646799147353207E-16, 1.000000000000000000, -0.000000000000000000 ) ) ;
#240 = LINE ( 'NONE', #190, #104 ) ;
#241 = DIRECTION ( 'NONE',  ( 1.000000000000000000, 0.000000000000000000, 0.000000000000000000 ) ) ;
#242 = APPROVAL ( #44, 'NEURÈENÝ' ) ;
#243 = DIRECTION ( 'NONE',  ( 0.000000000000000000, 0.000000000000000000, 1.000000000000000000 ) ) ;
#244 = AXIS2_PLACEMENT_3D ( 'NONE', #4, #31, #8 ) ;
#245 =( NAMED_UNIT ( * ) SI_UNIT ( $, .STERADIAN. ) SOLID_ANGLE_UNIT ( ) );
#246 = CC_DESIGN_DATE_AND_TIME_ASSIGNMENT ( #113, #230, ( #33 ) ) ;
#247 = DIRECTION ( 'NONE',  ( -1.000000000000000000, 0.000000000000000000, 0.000000000000000000 ) ) ;
#248 = CIRCLE ( 'NONE', #26, 2.500000000000000000 ) ;
#249 = DIRECTION ( 'NONE',  ( 1.000000000000000000, 0.000000000000000000, 0.000000000000000000 ) ) ;
#250 = APPROVAL_DATE_TIME ( #253, #242 ) ;
#251 = SHAPE_DEFINITION_REPRESENTATION ( #172, #288 ) ;
#252 = ORIENTED_EDGE ( 'NONE', *, *, #233, .T. ) ;
#253 = DATE_AND_TIME ( #182, #37 ) ;
#254 = VERTEX_POINT ( 'NONE', #80 ) ;
#255 = CLOSED_SHELL ( 'NONE', ( #275, #151, #286, #19, #302, #157, #280, #73, #60 ) ) ;
#256 = COORDINATED_UNIVERSAL_TIME_OFFSET ( 1, 0, .AHEAD. ) ;
#257 = LOCAL_TIME ( 12, 3, 59.00000000000000000, #256 ) ;
#258 = DIRECTION ( 'NONE',  ( -0.000000000000000000, -0.000000000000000000, -1.000000000000000000 ) ) ;
#259 = CC_DESIGN_PERSON_AND_ORGANIZATION_ASSIGNMENT ( #169, #304, ( #298 ) ) ;
#260 = CIRCLE ( 'NONE', #52, 2.700000000000000178 ) ;
#261 = CYLINDRICAL_SURFACE ( 'NONE', #291, 5.000000000000000000 ) ;
#262 = CYLINDRICAL_SURFACE ( 'NONE', #270, 2.500000000000000000 ) ;
#263 = CC_DESIGN_PERSON_AND_ORGANIZATION_ASSIGNMENT ( #205, #18, ( #125 ) ) ;
#264 = FACE_OUTER_BOUND ( 'NONE', #64, .T. ) ;
#265 = LOCAL_TIME ( 12, 3, 59.00000000000000000, #41 ) ;
#266 = CARTESIAN_POINT ( 'NONE',  ( 0.000000000000000000, 0.000000000000000000, 3.200000000000008171 ) ) ;
#267 = FACE_OUTER_BOUND ( 'NONE', #114, .T. ) ;
#268 = CIRCLE ( 'NONE', #142, 0.2000000000000000944 ) ;
#269 = CARTESIAN_POINT ( 'NONE',  ( 2.500000000000000000, 3.061616997868383141E-16, 3.200000000000008171 ) ) ;
#270 = AXIS2_PLACEMENT_3D ( 'NONE', #77, #153, #129 ) ;
#271 = DIRECTION ( 'NONE',  ( 0.000000000000000000, 0.000000000000000000, 1.000000000000000000 ) ) ;
#272 = COORDINATED_UNIVERSAL_TIME_OFFSET ( 1, 0, .AHEAD. ) ;
#273 = PERSON_AND_ORGANIZATION_ROLE ( 'classification_officer' ) ;
#274 = EDGE_LOOP ( 'NONE', ( #183, #1, #252, #66 ) ) ;
#275 = ADVANCED_FACE ( 'NONE', ( #225 ), #95, .F. ) ;
#276 = CALENDAR_DATE ( 2022, 20, 6 ) ;
#277 = VERTEX_POINT ( 'NONE', #107 ) ;
#278 = COORDINATED_UNIVERSAL_TIME_OFFSET ( 1, 0, .AHEAD. ) ;
#279 = EDGE_LOOP ( 'NONE', ( #45, #116, #118, #165 ) ) ;
#280 = ADVANCED_FACE ( 'NONE', ( #267 ), #295, .T. ) ;
#281 = VECTOR ( 'NONE', #130, 1000.000000000000000 ) ;
#282 = CARTESIAN_POINT ( 'NONE',  ( 0.000000000000000000, 0.000000000000000000, 3.000000000000000000 ) ) ;
#283 = DIRECTION ( 'NONE',  ( 0.000000000000000000, 0.000000000000000000, 1.000000000000000000 ) ) ;
#284 = LINE ( 'NONE', #76, #99 ) ;
#285 = CIRCLE ( 'NONE', #232, 0.2000000000000000944 ) ;
#286 = ADVANCED_FACE ( 'NONE', ( #180 ), #158, .T. ) ;
#287 = DIRECTION ( 'NONE',  ( 1.000000000000000000, 0.000000000000000000, 0.000000000000000000 ) ) ;
#288 = ADVANCED_BREP_SHAPE_REPRESENTATION ( '2f47', ( #120, #206 ), #217 ) ;
#289 = LINE ( 'NONE', #192, #12 ) ;
#290 = CARTESIAN_POINT ( 'NONE',  ( 0.000000000000000000, 0.000000000000000000, 203.0000000000000000 ) ) ;
#291 = AXIS2_PLACEMENT_3D ( 'NONE', #102, #258, #219 ) ;
#292 = CC_DESIGN_SECURITY_CLASSIFICATION ( #33, ( #23 ) ) ;
#293 = DIRECTION ( 'NONE',  ( 1.000000000000000000, 0.000000000000000000, 0.000000000000000000 ) ) ;
#294 = CC_DESIGN_PERSON_AND_ORGANIZATION_ASSIGNMENT ( #136, #227, ( #23 ) ) ;
#295 = CYLINDRICAL_SURFACE ( 'NONE', #28, 2.500000000000000000 ) ;
#296 = FACE_BOUND ( 'NONE', #163, .T. ) ;
#297 = CC_DESIGN_APPROVAL ( #229, ( #23 ) ) ;
#298 = PRODUCT_DEFINITION ( 'NEZNÁMÝ', '', #23, #218 ) ;
#299 = PERSON_AND_ORGANIZATION ( #168, #226 ) ;
#300 = PERSON_AND_ORGANIZATION ( #168, #226 ) ;
#301 = EDGE_LOOP ( 'NONE', ( #170, #200, #167, #211 ) ) ;
#302 = ADVANCED_FACE ( 'NONE', ( #296, #133 ), #40, .T. ) ;
#303 = AXIS2_PLACEMENT_3D ( 'NONE', #124, #54, #50 ) ;
#304 = PERSON_AND_ORGANIZATION_ROLE ( 'creator' ) ;
#305 = ORIENTED_EDGE ( 'NONE', *, *, #86, .F. ) ;
#306 = DATE_TIME_ROLE ( 'creation_date' ) ;
#307 = ORIENTED_EDGE ( 'NONE', *, *, #56, .F. ) ;
ENDSEC;
END-ISO-10303-21;
