ISO-10303-21;
HEADER;
FILE_DESCRIPTION (( 'STEP AP203' ),
    '1' );
FILE_NAME ('3563.STEP',
    '2022-06-20T10:21:17',
    ( '' ),
    ( '' ),
    'SwSTEP 2.0',
    'SolidWorks 2019',
    '' );
FILE_SCHEMA (( 'CONFIG_CONTROL_DESIGN' ));
ENDSEC;

DATA;
#1 = AXIS2_PLACEMENT_3D ( 'NONE', #131, #33, #137 ) ;
#2 = CARTESIAN_POINT ( 'NONE',  ( -2.000000000000000000, 0.000000000000000000, 1.500000000000000000 ) ) ;
#3 = CARTESIAN_POINT ( 'NONE',  ( 1.149999999999999911, 0.000000000000000000, 1.700000000000007061 ) ) ;
#4 = DIRECTION ( 'NONE',  ( 0.000000000000000000, 0.000000000000000000, 1.000000000000000000 ) ) ;
#5 = AXIS2_PLACEMENT_3D ( 'NONE', #27, #126, #105 ) ;
#6 = PERSON ( 'NEURÈENÝ', 'NEURÈENÝ', 'NEURÈENÝ', ('NEURÈENÝ'), ('NEURÈENÝ'), ('NEURÈENÝ') ) ;
#7 = DIRECTION ( 'NONE',  ( -0.000000000000000000, -0.000000000000000000, -1.000000000000000000 ) ) ;
#8 = ADVANCED_FACE ( 'NONE', ( #24 ), #138, .F. ) ;
#9 = CARTESIAN_POINT ( 'NONE',  ( -0.9499999999999999556, 0.000000000000000000, 126.5000000000000000 ) ) ;
#10 = APPLICATION_CONTEXT ( 'configuration controlled 3d designs of mechanical parts and assemblies' ) ;
#11 = CIRCLE ( 'NONE', #290, 0.2000000000000000944 ) ;
#12 = PERSON_AND_ORGANIZATION_ROLE ( 'design_owner' ) ;
#13 = DIRECTION ( 'NONE',  ( 0.000000000000000000, 0.000000000000000000, 1.000000000000000000 ) ) ;
#14 =( NAMED_UNIT ( * ) SI_UNIT ( $, .STERADIAN. ) SOLID_ANGLE_UNIT ( ) );
#15 = CC_DESIGN_APPROVAL ( #182, ( #94 ) ) ;
#16 = PERSON_AND_ORGANIZATION_ROLE ( 'creator' ) ;
#17 = VERTEX_POINT ( 'NONE', #121 ) ;
#18 = VERTEX_POINT ( 'NONE', #263 ) ;
#19 = VERTEX_POINT ( 'NONE', #143 ) ;
#20 = AXIS2_PLACEMENT_3D ( 'NONE', #265, #163, #306 ) ;
#21 = PERSON_AND_ORGANIZATION ( #6, #79 ) ;
#22 = ORIENTED_EDGE ( 'NONE', *, *, #185, .F. ) ;
#23 = PERSON_AND_ORGANIZATION ( #6, #79 ) ;
#24 = FACE_OUTER_BOUND ( 'NONE', #266, .T. ) ;
#25 = DIRECTION ( 'NONE',  ( 0.000000000000000000, -1.000000000000000000, 0.000000000000000000 ) ) ;
#26 = ADVANCED_FACE ( 'NONE', ( #244 ), #298, .T. ) ;
#27 = CARTESIAN_POINT ( 'NONE',  ( 0.000000000000000000, 0.000000000000000000, 1.500000000000000000 ) ) ;
#28 = LINE ( 'NONE', #2, #144 ) ;
#29 = FACE_OUTER_BOUND ( 'NONE', #259, .T. ) ;
#30 = DIRECTION ( 'NONE',  ( -1.000000000000000000, 0.000000000000000000, 0.000000000000000000 ) ) ;
#31 = DIRECTION ( 'NONE',  ( 1.000000000000000000, 0.000000000000000000, 0.000000000000000000 ) ) ;
#32 = ORIENTED_EDGE ( 'NONE', *, *, #176, .T. ) ;
#33 = DIRECTION ( 'NONE',  ( 0.000000000000000000, 0.000000000000000000, 1.000000000000000000 ) ) ;
#34 = LOCAL_TIME ( 12, 21, 17.00000000000000000, #162 ) ;
#35 = CC_DESIGN_PERSON_AND_ORGANIZATION_ASSIGNMENT ( #21, #280, ( #95 ) ) ;
#36 = CALENDAR_DATE ( 2022, 20, 6 ) ;
#37 = APPROVAL_DATE_TIME ( #87, #235 ) ;
#38 = CC_DESIGN_DATE_AND_TIME_ASSIGNMENT ( #240, #164, ( #94 ) ) ;
#39 = AXIS2_PLACEMENT_3D ( 'NONE', #92, #188, #278 ) ;
#40 = SECURITY_CLASSIFICATION ( '', '', #220 ) ;
#41 = ORIENTED_EDGE ( 'NONE', *, *, #57, .F. ) ;
#42 = CALENDAR_DATE ( 2022, 20, 6 ) ;
#43 = ORIENTED_EDGE ( 'NONE', *, *, #211, .T. ) ;
#44 = CALENDAR_DATE ( 2022, 20, 6 ) ;
#45 = EDGE_LOOP ( 'NONE', ( #300, #32, #91, #282 ) ) ;
#46 = APPROVAL_PERSON_ORGANIZATION ( #304, #235, #159 ) ;
#47 = COORDINATED_UNIVERSAL_TIME_OFFSET ( 1, 0, .AHEAD. ) ;
#48 = ORIENTED_EDGE ( 'NONE', *, *, #262, .T. ) ;
#49 = VERTEX_POINT ( 'NONE', #65 ) ;
#50 = ADVANCED_FACE ( 'NONE', ( #261 ), #142, .F. ) ;
#51 = CARTESIAN_POINT ( 'NONE',  ( -1.149999999999999911, 1.408343819019456028E-16, 1.700000000000007061 ) ) ;
#52 = EDGE_CURVE ( 'NONE', #49, #169, #28, .T. ) ;
#53 = CARTESIAN_POINT ( 'NONE',  ( 0.000000000000000000, 0.000000000000000000, 1.700000000000007061 ) ) ;
#54 = DIRECTION ( 'NONE',  ( 0.000000000000000000, 0.000000000000000000, 1.000000000000000000 ) ) ;
#55 = EDGE_CURVE ( 'NONE', #197, #83, #107, .T. ) ;
#56 = FACE_OUTER_BOUND ( 'NONE', #239, .T. ) ;
#57 = EDGE_CURVE ( 'NONE', #19, #83, #59, .T. ) ;
#58 = CARTESIAN_POINT ( 'NONE',  ( 0.000000000000000000, 0.000000000000000000, 1.500000000000000000 ) ) ;
#59 = CIRCLE ( 'NONE', #63, 1.149999999999999911 ) ;
#60 = EDGE_CURVE ( 'NONE', #305, #85, #103, .T. ) ;
#61 =( NAMED_UNIT ( * ) PLANE_ANGLE_UNIT ( ) SI_UNIT ( $, .RADIAN. ) );
#62 = ORIENTED_EDGE ( 'NONE', *, *, #211, .F. ) ;
#63 = AXIS2_PLACEMENT_3D ( 'NONE', #200, #251, #149 ) ;
#64 = APPROVAL_DATE_TIME ( #234, #182 ) ;
#65 = CARTESIAN_POINT ( 'NONE',  ( -2.000000000000000000, 0.000000000000000000, 1.500000000000000000 ) ) ;
#66 = ORIENTED_EDGE ( 'NONE', *, *, #75, .T. ) ;
#67 = PRODUCT_RELATED_PRODUCT_CATEGORY ( 'detail', '', ( #180 ) ) ;
#68 = DESIGN_CONTEXT ( 'detailed design', #10, 'design' ) ;
#69 = EDGE_LOOP ( 'NONE', ( #62, #284 ) ) ;
#70 = AXIS2_PLACEMENT_3D ( 'NONE', #53, #269, #73 ) ;
#71 = EDGE_LOOP ( 'NONE', ( #22, #190, #113, #66 ) ) ;
#72 = FACE_BOUND ( 'NONE', #245, .T. ) ;
#73 = DIRECTION ( 'NONE',  ( 1.000000000000000000, 0.000000000000000000, 0.000000000000000000 ) ) ;
#74 = CARTESIAN_POINT ( 'NONE',  ( 0.000000000000000000, 0.000000000000000000, 1.500000000000000000 ) ) ;
#75 = EDGE_CURVE ( 'NONE', #85, #197, #100, .T. ) ;
#76 = CARTESIAN_POINT ( 'NONE',  ( 0.000000000000000000, 0.000000000000000000, 0.000000000000000000 ) ) ;
#77 = LINE ( 'NONE', #268, #307 ) ;
#78 = DIRECTION ( 'NONE',  ( 1.000000000000000000, 0.000000000000000000, 0.000000000000000000 ) ) ;
#79 = ORGANIZATION ( 'NEURÈENÝ', 'NEURÈENÝ', '' ) ;
#80 = PERSON_AND_ORGANIZATION ( #6, #79 ) ;
#81 =( LENGTH_UNIT ( ) NAMED_UNIT ( * ) SI_UNIT ( .MILLI., .METRE. ) );
#82 = DATE_AND_TIME ( #299, #86 ) ;
#83 = VERTEX_POINT ( 'NONE', #286 ) ;
#84 = COORDINATED_UNIVERSAL_TIME_OFFSET ( 1, 0, .AHEAD. ) ;
#85 = VERTEX_POINT ( 'NONE', #270 ) ;
#86 = LOCAL_TIME ( 12, 21, 17.00000000000000000, #118 ) ;
#87 = DATE_AND_TIME ( #44, #271 ) ;
#88 = ORIENTED_EDGE ( 'NONE', *, *, #264, .F. ) ;
#89 = CC_DESIGN_PERSON_AND_ORGANIZATION_ASSIGNMENT ( #222, #112, ( #94 ) ) ;
#90 = APPROVAL_STATUS ( 'not_yet_approved' ) ;
#91 = ORIENTED_EDGE ( 'NONE', *, *, #233, .F. ) ;
#92 = CARTESIAN_POINT ( 'NONE',  ( 0.000000000000000000, 0.000000000000000000, 126.5000000000000000 ) ) ;
#93 = CIRCLE ( 'NONE', #70, 0.9499999999999999556 ) ;
#94 = PRODUCT_DEFINITION ( 'NEZNÁMÝ', '', #95, #68 ) ;
#95 = PRODUCT_DEFINITION_FORMATION_WITH_SPECIFIED_SOURCE ( 'LIBOVOLNÝ', '', #180, .NOT_KNOWN. ) ;
#96 = DIRECTION ( 'NONE',  ( -0.000000000000000000, -0.000000000000000000, -1.000000000000000000 ) ) ;
#97 = LINE ( 'NONE', #202, #128 ) ;
#98 = DIRECTION ( 'NONE',  ( 1.000000000000000000, 0.000000000000000000, 0.000000000000000000 ) ) ;
#99 = PRODUCT_DEFINITION_SHAPE ( 'NONE', 'NONE',  #94 ) ;
#100 = CIRCLE ( 'NONE', #275, 0.9499999999999999556 ) ;
#101 = AXIS2_PLACEMENT_3D ( 'NONE', #74, #227, #98 ) ;
#102 = MANIFOLD_SOLID_BREP ( 'Zaoblit1', #236 ) ;
#103 = LINE ( 'NONE', #175, #167 ) ;
#104 = CC_DESIGN_DATE_AND_TIME_ASSIGNMENT ( #214, #297, ( #40 ) ) ;
#105 = DIRECTION ( 'NONE',  ( 1.000000000000000000, 0.000000000000000000, -0.000000000000000000 ) ) ;
#106 = FACE_OUTER_BOUND ( 'NONE', #71, .T. ) ;
#107 = CIRCLE ( 'NONE', #204, 0.2000000000000000944 ) ;
#108 = APPROVAL_PERSON_ORGANIZATION ( #292, #182, #181 ) ;
#109 = APPROVAL_STATUS ( 'not_yet_approved' ) ;
#110 = DIRECTION ( 'NONE',  ( 1.000000000000000000, 0.000000000000000000, 0.000000000000000000 ) ) ;
#111 = DIRECTION ( 'NONE',  ( -1.000000000000000000, 0.000000000000000000, 0.000000000000000000 ) ) ;
#112 = PERSON_AND_ORGANIZATION_ROLE ( 'creator' ) ;
#113 = ORIENTED_EDGE ( 'NONE', *, *, #60, .T. ) ;
#114 = EDGE_LOOP ( 'NONE', ( #116, #281, #141, #241 ) ) ;
#115 = APPROVAL_DATE_TIME ( #82, #250 ) ;
#116 = ORIENTED_EDGE ( 'NONE', *, *, #199, .F. ) ;
#117 = CIRCLE ( 'NONE', #287, 2.000000000000000000 ) ;
#118 = COORDINATED_UNIVERSAL_TIME_OFFSET ( 1, 0, .AHEAD. ) ;
#119 = ORIENTED_EDGE ( 'NONE', *, *, #262, .F. ) ;
#120 = EDGE_CURVE ( 'NONE', #197, #85, #93, .T. ) ;
#121 = CARTESIAN_POINT ( 'NONE',  ( 0.9499999999999999556, 1.163414459189985682E-16, 126.5000000000000000 ) ) ;
#122 = DIRECTION ( 'NONE',  ( 0.000000000000000000, 0.000000000000000000, 1.000000000000000000 ) ) ;
#123 = CC_DESIGN_APPROVAL ( #235, ( #40 ) ) ;
#124 = DIRECTION ( 'NONE',  ( 1.000000000000000000, 0.000000000000000000, 0.000000000000000000 ) ) ;
#125 = ADVANCED_FACE ( 'NONE', ( #56 ), #152, .T. ) ;
#126 = DIRECTION ( 'NONE',  ( 0.000000000000000000, 0.000000000000000000, 1.000000000000000000 ) ) ;
#127 = CARTESIAN_POINT ( 'NONE',  ( 0.000000000000000000, 0.000000000000000000, 1.500000000000000000 ) ) ;
#128 = VECTOR ( 'NONE', #285, 1000.000000000000000 ) ;
#129 = CYLINDRICAL_SURFACE ( 'NONE', #256, 0.9499999999999999556 ) ;
#130 = APPLICATION_CONTEXT ( 'configuration controlled 3d designs of mechanical parts and assemblies' ) ;
#131 = CARTESIAN_POINT ( 'NONE',  ( 0.000000000000000000, 0.000000000000000000, 0.000000000000000000 ) ) ;
#132 = ORIENTED_EDGE ( 'NONE', *, *, #57, .T. ) ;
#133 = DIRECTION ( 'NONE',  ( 0.000000000000000000, 0.000000000000000000, 1.000000000000000000 ) ) ;
#134 = AXIS2_PLACEMENT_3D ( 'NONE', #127, #7, #30 ) ;
#135 = AXIS2_PLACEMENT_3D ( 'NONE', #289, #13, #78 ) ;
#136 = COORDINATED_UNIVERSAL_TIME_OFFSET ( 1, 0, .AHEAD. ) ;
#137 = DIRECTION ( 'NONE',  ( 1.000000000000000000, 0.000000000000000000, 0.000000000000000000 ) ) ;
#138 = TOROIDAL_SURFACE ( 'NONE', #20, 1.149999999999999911, 0.2000000000000000111 ) ;
#139 = AXIS2_PLACEMENT_3D ( 'NONE', #184, #232, #213 ) ;
#140 = PERSON_AND_ORGANIZATION ( #6, #79 ) ;
#141 = ORIENTED_EDGE ( 'NONE', *, *, #253, .T. ) ;
#142 = PLANE ( 'NONE',  #158 ) ;
#143 = CARTESIAN_POINT ( 'NONE',  ( -1.149999999999999911, 1.408343819019456028E-16, 1.500000000000003553 ) ) ;
#144 = VECTOR ( 'NONE', #96, 1000.000000000000000 ) ;
#145 = UNCERTAINTY_MEASURE_WITH_UNIT (LENGTH_MEASURE( 1.000000000000000082E-05 ), #81, 'distance_accuracy_value', 'NONE');
#146 = ORIENTED_EDGE ( 'NONE', *, *, #199, .T. ) ;
#147 = EDGE_LOOP ( 'NONE', ( #88, #215, #223, #255 ) ) ;
#148 = DIRECTION ( 'NONE',  ( 1.000000000000000000, 0.000000000000000000, 0.000000000000000000 ) ) ;
#149 = DIRECTION ( 'NONE',  ( 1.000000000000000000, 0.000000000000000000, 0.000000000000000000 ) ) ;
#150 = CC_DESIGN_PERSON_AND_ORGANIZATION_ASSIGNMENT ( #80, #12, ( #180 ) ) ;
#151 = DIRECTION ( 'NONE',  ( 1.000000000000000000, 0.000000000000000000, 0.000000000000000000 ) ) ;
#152 = CYLINDRICAL_SURFACE ( 'NONE', #134, 2.000000000000000000 ) ;
#153 = DIRECTION ( 'NONE',  ( -0.000000000000000000, -0.000000000000000000, -1.000000000000000000 ) ) ;
#154 = EDGE_CURVE ( 'NONE', #193, #18, #77, .T. ) ;
#155 = MECHANICAL_CONTEXT ( 'NONE', #130, 'mechanical' ) ;
#156 = EDGE_LOOP ( 'NONE', ( #195, #303 ) ) ;
#157 = CARTESIAN_POINT ( 'NONE',  ( 0.000000000000000000, 0.000000000000000000, 126.5000000000000000 ) ) ;
#158 = AXIS2_PLACEMENT_3D ( 'NONE', #76, #122, #224 ) ;
#159 = APPROVAL_ROLE ( '' ) ;
#160 = ORIENTED_EDGE ( 'NONE', *, *, #154, .F. ) ;
#161 = ADVANCED_FACE ( 'NONE', ( #72, #29 ), #170, .T. ) ;
#162 = COORDINATED_UNIVERSAL_TIME_OFFSET ( 1, 0, .AHEAD. ) ;
#163 = DIRECTION ( 'NONE',  ( 0.000000000000000000, 0.000000000000000000, 1.000000000000000000 ) ) ;
#164 = DATE_TIME_ROLE ( 'creation_date' ) ;
#165 = ORIENTED_EDGE ( 'NONE', *, *, #233, .T. ) ;
#166 = ORIENTED_EDGE ( 'NONE', *, *, #176, .F. ) ;
#167 = VECTOR ( 'NONE', #177, 1000.000000000000000 ) ;
#168 = AXIS2_PLACEMENT_3D ( 'NONE', #203, #54, #151 ) ;
#169 = VERTEX_POINT ( 'NONE', #246 ) ;
#170 = PLANE ( 'NONE',  #5 ) ;
#171 = CARTESIAN_POINT ( 'NONE',  ( 2.000000000000000000, 2.449293598294706414E-16, 1.500000000000000000 ) ) ;
#172 = LOCAL_TIME ( 12, 21, 17.00000000000000000, #47 ) ;
#173 = DIRECTION ( 'NONE',  ( 0.000000000000000000, 0.000000000000000000, 1.000000000000000000 ) ) ;
#174 = ADVANCED_FACE ( 'NONE', ( #229 ), #237, .F. ) ;
#175 = CARTESIAN_POINT ( 'NONE',  ( -0.9499999999999999556, 0.000000000000000000, 126.5000000000000000 ) ) ;
#176 = EDGE_CURVE ( 'NONE', #85, #19, #11, .T. ) ;
#177 = DIRECTION ( 'NONE',  ( -0.000000000000000000, -0.000000000000000000, -1.000000000000000000 ) ) ;
#178 = CIRCLE ( 'NONE', #139, 1.149999999999999911 ) ;
#179 = DIRECTION ( 'NONE',  ( -1.000000000000000000, 0.000000000000000000, 0.000000000000000000 ) ) ;
#180 = PRODUCT ( '3563', '3563', '', ( #155 ) ) ;
#181 = APPROVAL_ROLE ( '' ) ;
#182 = APPROVAL ( #109, 'NEURÈENÝ' ) ;
#183 = LOCAL_TIME ( 12, 21, 17.00000000000000000, #136 ) ;
#184 = CARTESIAN_POINT ( 'NONE',  ( 0.000000000000000000, 0.000000000000000000, 1.500000000000000000 ) ) ;
#185 = EDGE_CURVE ( 'NONE', #17, #197, #97, .T. ) ;
#186 = CYLINDRICAL_SURFACE ( 'NONE', #238, 2.000000000000000000 ) ;
#187 = SHAPE_DEFINITION_REPRESENTATION ( #99, #196 ) ;
#188 = DIRECTION ( 'NONE',  ( 0.000000000000000000, 0.000000000000000000, 1.000000000000000000 ) ) ;
#189 = PERSON_AND_ORGANIZATION ( #6, #79 ) ;
#190 = ORIENTED_EDGE ( 'NONE', *, *, #283, .F. ) ;
#191 = AXIS2_PLACEMENT_3D ( 'NONE', #252, #133, #31 ) ;
#192 = APPROVAL_ROLE ( '' ) ;
#193 = VERTEX_POINT ( 'NONE', #171 ) ;
#194 = PERSON_AND_ORGANIZATION_ROLE ( 'classification_officer' ) ;
#195 = ORIENTED_EDGE ( 'NONE', *, *, #283, .T. ) ;
#196 = ADVANCED_BREP_SHAPE_REPRESENTATION ( '3563', ( #102, #1 ), #247 ) ;
#197 = VERTEX_POINT ( 'NONE', #248 ) ;
#198 = CC_DESIGN_APPROVAL ( #250, ( #95 ) ) ;
#199 = EDGE_CURVE ( 'NONE', #193, #49, #243, .T. ) ;
#200 = CARTESIAN_POINT ( 'NONE',  ( 0.000000000000000000, 0.000000000000000000, 1.500000000000000000 ) ) ;
#201 = CC_DESIGN_PERSON_AND_ORGANIZATION_ASSIGNMENT ( #189, #16, ( #95 ) ) ;
#202 = CARTESIAN_POINT ( 'NONE',  ( 0.9499999999999999556, 1.163414459189985682E-16, 126.5000000000000000 ) ) ;
#203 = CARTESIAN_POINT ( 'NONE',  ( 0.000000000000000000, 0.000000000000000000, 0.000000000000000000 ) ) ;
#204 = AXIS2_PLACEMENT_3D ( 'NONE', #3, #25, #288 ) ;
#205 = CIRCLE ( 'NONE', #191, 0.9499999999999999556 ) ;
#206 = CARTESIAN_POINT ( 'NONE',  ( 0.000000000000000000, 0.000000000000000000, 1.700000000000007061 ) ) ;
#207 = DIRECTION ( 'NONE',  ( -0.000000000000000000, -0.000000000000000000, -1.000000000000000000 ) ) ;
#208 = AXIS2_PLACEMENT_3D ( 'NONE', #228, #4, #124 ) ;
#209 = DIRECTION ( 'NONE',  ( 0.000000000000000000, 0.000000000000000000, 1.000000000000000000 ) ) ;
#210 = FACE_OUTER_BOUND ( 'NONE', #147, .T. ) ;
#211 = EDGE_CURVE ( 'NONE', #169, #18, #295, .T. ) ;
#212 = ADVANCED_FACE ( 'NONE', ( #277 ), #186, .T. ) ;
#213 = DIRECTION ( 'NONE',  ( 1.000000000000000000, 0.000000000000000000, 0.000000000000000000 ) ) ;
#214 = DATE_AND_TIME ( #216, #34 ) ;
#215 = ORIENTED_EDGE ( 'NONE', *, *, #185, .T. ) ;
#216 = CALENDAR_DATE ( 2022, 20, 6 ) ;
#217 = ORIENTED_EDGE ( 'NONE', *, *, #52, .T. ) ;
#218 = CC_DESIGN_SECURITY_CLASSIFICATION ( #40, ( #95 ) ) ;
#219 = ORIENTED_EDGE ( 'NONE', *, *, #120, .F. ) ;
#220 = SECURITY_CLASSIFICATION_LEVEL ( 'unclassified' ) ;
#221 = ORIENTED_EDGE ( 'NONE', *, *, #55, .T. ) ;
#222 = PERSON_AND_ORGANIZATION ( #6, #79 ) ;
#223 = ORIENTED_EDGE ( 'NONE', *, *, #120, .T. ) ;
#224 = DIRECTION ( 'NONE',  ( 1.000000000000000000, 0.000000000000000000, -0.000000000000000000 ) ) ;
#225 = AXIS2_PLACEMENT_3D ( 'NONE', #157, #209, #110 ) ;
#226 = DIRECTION ( 'NONE',  ( 1.224646799147353207E-16, 1.000000000000000000, -0.000000000000000000 ) ) ;
#227 = DIRECTION ( 'NONE',  ( 0.000000000000000000, 0.000000000000000000, 1.000000000000000000 ) ) ;
#228 = CARTESIAN_POINT ( 'NONE',  ( 0.000000000000000000, 0.000000000000000000, 1.700000000000007061 ) ) ;
#229 = FACE_OUTER_BOUND ( 'NONE', #45, .T. ) ;
#230 = CARTESIAN_POINT ( 'NONE',  ( 0.000000000000000000, 0.000000000000000000, 126.5000000000000000 ) ) ;
#231 = CIRCLE ( 'NONE', #225, 0.9499999999999999556 ) ;
#232 = DIRECTION ( 'NONE',  ( -0.000000000000000000, -0.000000000000000000, -1.000000000000000000 ) ) ;
#233 = EDGE_CURVE ( 'NONE', #83, #19, #178, .T. ) ;
#234 = DATE_AND_TIME ( #36, #183 ) ;
#235 = APPROVAL ( #90, 'NEURÈENÝ' ) ;
#236 = CLOSED_SHELL ( 'NONE', ( #174, #260, #212, #125, #161, #50, #293, #26, #8 ) ) ;
#237 = TOROIDAL_SURFACE ( 'NONE', #208, 1.149999999999999911, 0.2000000000000000111 ) ;
#238 = AXIS2_PLACEMENT_3D ( 'NONE', #58, #207, #179 ) ;
#239 = EDGE_LOOP ( 'NONE', ( #160, #119, #217, #43 ) ) ;
#240 = DATE_AND_TIME ( #42, #172 ) ;
#241 = ORIENTED_EDGE ( 'NONE', *, *, #52, .F. ) ;
#242 = CC_DESIGN_PERSON_AND_ORGANIZATION_ASSIGNMENT ( #23, #194, ( #40 ) ) ;
#243 = CIRCLE ( 'NONE', #101, 2.000000000000000000 ) ;
#244 = FACE_OUTER_BOUND ( 'NONE', #156, .T. ) ;
#245 = EDGE_LOOP ( 'NONE', ( #165, #132 ) ) ;
#246 = CARTESIAN_POINT ( 'NONE',  ( -2.000000000000000000, 0.000000000000000000, 0.000000000000000000 ) ) ;
#247 =( GEOMETRIC_REPRESENTATION_CONTEXT ( 3 ) GLOBAL_UNCERTAINTY_ASSIGNED_CONTEXT ( ( #145 ) ) GLOBAL_UNIT_ASSIGNED_CONTEXT ( ( #81, #61, #14 ) ) REPRESENTATION_CONTEXT ( 'NONE', 'WORKASPACE' ) );
#248 = CARTESIAN_POINT ( 'NONE',  ( 0.9499999999999999556, 1.163414459189985682E-16, 1.700000000000007061 ) ) ;
#249 = DIRECTION ( 'NONE',  ( -0.000000000000000000, -0.000000000000000000, -1.000000000000000000 ) ) ;
#250 = APPROVAL ( #302, 'NEURÈENÝ' ) ;
#251 = DIRECTION ( 'NONE',  ( -0.000000000000000000, -0.000000000000000000, -1.000000000000000000 ) ) ;
#252 = CARTESIAN_POINT ( 'NONE',  ( 0.000000000000000000, 0.000000000000000000, 126.5000000000000000 ) ) ;
#253 = EDGE_CURVE ( 'NONE', #18, #169, #276, .T. ) ;
#254 = CARTESIAN_POINT ( 'NONE',  ( 0.000000000000000000, 0.000000000000000000, 1.500000000000000000 ) ) ;
#255 = ORIENTED_EDGE ( 'NONE', *, *, #60, .F. ) ;
#256 = AXIS2_PLACEMENT_3D ( 'NONE', #230, #153, #111 ) ;
#257 = DIRECTION ( 'NONE',  ( 0.000000000000000000, 0.000000000000000000, 1.000000000000000000 ) ) ;
#258 = CARTESIAN_POINT ( 'NONE',  ( 0.000000000000000000, 0.000000000000000000, 126.5000000000000000 ) ) ;
#259 = EDGE_LOOP ( 'NONE', ( #48, #146 ) ) ;
#260 = ADVANCED_FACE ( 'NONE', ( #210 ), #129, .T. ) ;
#261 = FACE_OUTER_BOUND ( 'NONE', #69, .T. ) ;
#262 = EDGE_CURVE ( 'NONE', #49, #193, #117, .T. ) ;
#263 = CARTESIAN_POINT ( 'NONE',  ( 2.000000000000000000, 2.449293598294706414E-16, 0.000000000000000000 ) ) ;
#264 = EDGE_CURVE ( 'NONE', #17, #305, #231, .T. ) ;
#265 = CARTESIAN_POINT ( 'NONE',  ( 0.000000000000000000, 0.000000000000000000, 1.700000000000007061 ) ) ;
#266 = EDGE_LOOP ( 'NONE', ( #166, #219, #221, #41 ) ) ;
#267 = DIRECTION ( 'NONE',  ( -1.000000000000000000, 1.224646799147351975E-16, 0.000000000000000000 ) ) ;
#268 = CARTESIAN_POINT ( 'NONE',  ( 2.000000000000000000, 2.449293598294706414E-16, 1.500000000000000000 ) ) ;
#269 = DIRECTION ( 'NONE',  ( 0.000000000000000000, 0.000000000000000000, 1.000000000000000000 ) ) ;
#270 = CARTESIAN_POINT ( 'NONE',  ( -0.9499999999999999556, 0.000000000000000000, 1.700000000000007061 ) ) ;
#271 = LOCAL_TIME ( 12, 21, 17.00000000000000000, #84 ) ;
#272 = DIRECTION ( 'NONE',  ( 1.000000000000000000, 0.000000000000000000, 0.000000000000000000 ) ) ;
#273 = APPLICATION_PROTOCOL_DEFINITION ( 'international standard', 'config_control_design', 1994, #10 ) ;
#274 = APPLICATION_PROTOCOL_DEFINITION ( 'international standard', 'config_control_design', 1994, #130 ) ;
#275 = AXIS2_PLACEMENT_3D ( 'NONE', #206, #173, #148 ) ;
#276 = CIRCLE ( 'NONE', #135, 2.000000000000000000 ) ;
#277 = FACE_OUTER_BOUND ( 'NONE', #114, .T. ) ;
#278 = DIRECTION ( 'NONE',  ( 1.000000000000000000, 0.000000000000000000, -0.000000000000000000 ) ) ;
#279 = APPROVAL_PERSON_ORGANIZATION ( #140, #250, #192 ) ;
#280 = PERSON_AND_ORGANIZATION_ROLE ( 'design_supplier' ) ;
#281 = ORIENTED_EDGE ( 'NONE', *, *, #154, .T. ) ;
#282 = ORIENTED_EDGE ( 'NONE', *, *, #55, .F. ) ;
#283 = EDGE_CURVE ( 'NONE', #305, #17, #205, .T. ) ;
#284 = ORIENTED_EDGE ( 'NONE', *, *, #253, .F. ) ;
#285 = DIRECTION ( 'NONE',  ( -0.000000000000000000, -0.000000000000000000, -1.000000000000000000 ) ) ;
#286 = CARTESIAN_POINT ( 'NONE',  ( 1.149999999999999911, 0.000000000000000000, 1.500000000000003553 ) ) ;
#287 = AXIS2_PLACEMENT_3D ( 'NONE', #254, #257, #272 ) ;
#288 = DIRECTION ( 'NONE',  ( 0.000000000000000000, 0.000000000000000000, -1.000000000000000000 ) ) ;
#289 = CARTESIAN_POINT ( 'NONE',  ( 0.000000000000000000, 0.000000000000000000, 0.000000000000000000 ) ) ;
#290 = AXIS2_PLACEMENT_3D ( 'NONE', #51, #226, #267 ) ;
#291 = DIRECTION ( 'NONE',  ( -1.000000000000000000, 0.000000000000000000, 0.000000000000000000 ) ) ;
#292 = PERSON_AND_ORGANIZATION ( #6, #79 ) ;
#293 = ADVANCED_FACE ( 'NONE', ( #106 ), #296, .T. ) ;
#294 = DIRECTION ( 'NONE',  ( -0.000000000000000000, -0.000000000000000000, -1.000000000000000000 ) ) ;
#295 = CIRCLE ( 'NONE', #168, 2.000000000000000000 ) ;
#296 = CYLINDRICAL_SURFACE ( 'NONE', #301, 0.9499999999999999556 ) ;
#297 = DATE_TIME_ROLE ( 'classification_date' ) ;
#298 = PLANE ( 'NONE',  #39 ) ;
#299 = CALENDAR_DATE ( 2022, 20, 6 ) ;
#300 = ORIENTED_EDGE ( 'NONE', *, *, #75, .F. ) ;
#301 = AXIS2_PLACEMENT_3D ( 'NONE', #258, #294, #291 ) ;
#302 = APPROVAL_STATUS ( 'not_yet_approved' ) ;
#303 = ORIENTED_EDGE ( 'NONE', *, *, #264, .T. ) ;
#304 = PERSON_AND_ORGANIZATION ( #6, #79 ) ;
#305 = VERTEX_POINT ( 'NONE', #9 ) ;
#306 = DIRECTION ( 'NONE',  ( 1.000000000000000000, 0.000000000000000000, 0.000000000000000000 ) ) ;
#307 = VECTOR ( 'NONE', #249, 1000.000000000000000 ) ;
ENDSEC;
END-ISO-10303-21;
