ISO-10303-21;
HEADER;
FILE_DESCRIPTION (( 'STEP AP203' ),
    '1' );
FILE_NAME ('5f66.STEP',
    '2022-06-20T10:13:14',
    ( '' ),
    ( '' ),
    'SwSTEP 2.0',
    'SolidWorks 2019',
    '' );
FILE_SCHEMA (( 'CONFIG_CONTROL_DESIGN' ));
ENDSEC;

DATA;
#1 = DATE_AND_TIME ( #131, #42 ) ;
#2 = CIRCLE ( 'NONE', #64, 1.800000000000000266 ) ;
#3 = ADVANCED_FACE ( 'NONE', ( #225 ), #246, .F. ) ;
#4 = LOCAL_TIME ( 12, 13, 14.00000000000000000, #154 ) ;
#5 = APPROVAL_DATE_TIME ( #176, #56 ) ;
#6 = DATE_AND_TIME ( #221, #4 ) ;
#7 = ORIENTED_EDGE ( 'NONE', *, *, #274, .T. ) ;
#8 = CC_DESIGN_APPROVAL ( #281, ( #125 ) ) ;
#9 = EDGE_CURVE ( 'NONE', #255, #144, #227, .T. ) ;
#10 = CARTESIAN_POINT ( 'NONE',  ( -3.000000000000000444, 0.000000000000000000, 3.000000000000000000 ) ) ;
#11 = CARTESIAN_POINT ( 'NONE',  ( 0.000000000000000000, 0.000000000000000000, 3.000000000000000000 ) ) ;
#12 = DATE_TIME_ROLE ( 'creation_date' ) ;
#13 = DIRECTION ( 'NONE',  ( 1.000000000000000000, 0.000000000000000000, 0.000000000000000000 ) ) ;
#14 = AXIS2_PLACEMENT_3D ( 'NONE', #104, #101, #81 ) ;
#15 = ORIENTED_EDGE ( 'NONE', *, *, #239, .T. ) ;
#16 = CARTESIAN_POINT ( 'NONE',  ( 0.000000000000000000, 0.000000000000000000, 0.000000000000000000 ) ) ;
#17 = EDGE_LOOP ( 'NONE', ( #112, #136, #273, #185 ) ) ;
#18 = CIRCLE ( 'NONE', #93, 1.600000000000000089 ) ;
#19 = DIRECTION ( 'NONE',  ( -1.000000000000000000, 0.000000000000000000, 0.000000000000000000 ) ) ;
#20 = MANIFOLD_SOLID_BREP ( 'Zaoblit1', #118 ) ;
#21 = DIRECTION ( 'NONE',  ( -0.000000000000000000, -0.000000000000000000, -1.000000000000000000 ) ) ;
#22 = UNCERTAINTY_MEASURE_WITH_UNIT (LENGTH_MEASURE( 1.000000000000000082E-05 ), #210, 'distance_accuracy_value', 'NONE');
#23 = DIRECTION ( 'NONE',  ( 0.000000000000000000, -1.000000000000000000, 0.000000000000000000 ) ) ;
#24 = ADVANCED_FACE ( 'NONE', ( #38 ), #103, .F. ) ;
#25 = ORIENTED_EDGE ( 'NONE', *, *, #67, .F. ) ;
#26 = DIRECTION ( 'NONE',  ( 0.000000000000000000, 0.000000000000000000, 1.000000000000000000 ) ) ;
#27 = COORDINATED_UNIVERSAL_TIME_OFFSET ( 1, 0, .AHEAD. ) ;
#28 = AXIS2_PLACEMENT_3D ( 'NONE', #11, #40, #94 ) ;
#29 = PERSON_AND_ORGANIZATION_ROLE ( 'creator' ) ;
#30 = AXIS2_PLACEMENT_3D ( 'NONE', #303, #284, #19 ) ;
#31 = APPROVAL_STATUS ( 'not_yet_approved' ) ;
#32 = APPLICATION_PROTOCOL_DEFINITION ( 'international standard', 'config_control_design', 1994, #36 ) ;
#33 = PERSON_AND_ORGANIZATION ( #58, #146 ) ;
#34 = EDGE_CURVE ( 'NONE', #297, #276, #199, .T. ) ;
#35 = ORIENTED_EDGE ( 'NONE', *, *, #201, .T. ) ;
#36 = APPLICATION_CONTEXT ( 'configuration controlled 3d designs of mechanical parts and assemblies' ) ;
#37 = COORDINATED_UNIVERSAL_TIME_OFFSET ( 1, 0, .AHEAD. ) ;
#38 = FACE_OUTER_BOUND ( 'NONE', #202, .T. ) ;
#39 = EDGE_CURVE ( 'NONE', #276, #100, #73, .T. ) ;
#40 = DIRECTION ( 'NONE',  ( -0.000000000000000000, -0.000000000000000000, -1.000000000000000000 ) ) ;
#41 = DIRECTION ( 'NONE',  ( 0.000000000000000000, 0.000000000000000000, 1.000000000000000000 ) ) ;
#42 = LOCAL_TIME ( 12, 13, 14.00000000000000000, #27 ) ;
#43 = CARTESIAN_POINT ( 'NONE',  ( -3.000000000000000444, 0.000000000000000000, 0.000000000000000000 ) ) ;
#44 = DIRECTION ( 'NONE',  ( 1.000000000000000000, 0.000000000000000000, 0.000000000000000000 ) ) ;
#45 = VERTEX_POINT ( 'NONE', #69 ) ;
#46 =( NAMED_UNIT ( * ) PLANE_ANGLE_UNIT ( ) SI_UNIT ( $, .RADIAN. ) );
#47 =( GEOMETRIC_REPRESENTATION_CONTEXT ( 3 ) GLOBAL_UNCERTAINTY_ASSIGNED_CONTEXT ( ( #22 ) ) GLOBAL_UNIT_ASSIGNED_CONTEXT ( ( #210, #46, #282 ) ) REPRESENTATION_CONTEXT ( 'NONE', 'WORKASPACE' ) );
#48 = CYLINDRICAL_SURFACE ( 'NONE', #120, 1.600000000000000089 ) ;
#49 = EDGE_LOOP ( 'NONE', ( #266, #209, #226, #88 ) ) ;
#50 = DIRECTION ( 'NONE',  ( -0.000000000000000000, -0.000000000000000000, -1.000000000000000000 ) ) ;
#51 = AXIS2_PLACEMENT_3D ( 'NONE', #182, #224, #13 ) ;
#52 = PERSON_AND_ORGANIZATION ( #58, #146 ) ;
#53 = AXIS2_PLACEMENT_3D ( 'NONE', #153, #132, #263 ) ;
#54 = CALENDAR_DATE ( 2022, 20, 6 ) ;
#55 = PERSON_AND_ORGANIZATION ( #58, #146 ) ;
#56 = APPROVAL ( #31, 'NEURÈENÝ' ) ;
#57 = APPROVAL_ROLE ( '' ) ;
#58 = PERSON ( 'NEURÈENÝ', 'NEURÈENÝ', 'NEURÈENÝ', ('NEURÈENÝ'), ('NEURÈENÝ'), ('NEURÈENÝ') ) ;
#59 = ORIENTED_EDGE ( 'NONE', *, *, #9, .T. ) ;
#60 = ORIENTED_EDGE ( 'NONE', *, *, #67, .T. ) ;
#61 = TOROIDAL_SURFACE ( 'NONE', #197, 1.800000000000000266, 0.2000000000000000111 ) ;
#62 = ORIENTED_EDGE ( 'NONE', *, *, #274, .F. ) ;
#63 = EDGE_CURVE ( 'NONE', #162, #45, #98, .T. ) ;
#64 = AXIS2_PLACEMENT_3D ( 'NONE', #115, #291, #164 ) ;
#65 = CYLINDRICAL_SURFACE ( 'NONE', #28, 3.000000000000000444 ) ;
#66 = AXIS2_PLACEMENT_3D ( 'NONE', #102, #301, #190 ) ;
#67 = EDGE_CURVE ( 'NONE', #45, #162, #18, .T. ) ;
#68 = DIRECTION ( 'NONE',  ( 1.000000000000000000, 0.000000000000000000, 0.000000000000000000 ) ) ;
#69 = CARTESIAN_POINT ( 'NONE',  ( -1.600000000000000089, 0.000000000000000000, 318.0000000000000000 ) ) ;
#70 = PLANE ( 'NONE',  #78 ) ;
#71 = ORIENTED_EDGE ( 'NONE', *, *, #89, .T. ) ;
#72 = PRODUCT_DEFINITION_FORMATION_WITH_SPECIFIED_SOURCE ( 'LIBOVOLNÝ', '', #195, .NOT_KNOWN. ) ;
#73 = LINE ( 'NONE', #10, #180 ) ;
#74 = EDGE_CURVE ( 'NONE', #144, #255, #2, .T. ) ;
#75 = ORIENTED_EDGE ( 'NONE', *, *, #89, .F. ) ;
#76 = DIRECTION ( 'NONE',  ( -0.000000000000000000, -0.000000000000000000, -1.000000000000000000 ) ) ;
#77 = CARTESIAN_POINT ( 'NONE',  ( 3.000000000000000444, 3.673940397442060361E-16, 0.000000000000000000 ) ) ;
#78 = AXIS2_PLACEMENT_3D ( 'NONE', #299, #173, #147 ) ;
#79 = CARTESIAN_POINT ( 'NONE',  ( 1.600000000000000089, 1.959434878635765230E-16, 318.0000000000000000 ) ) ;
#80 = VERTEX_POINT ( 'NONE', #248 ) ;
#81 = DIRECTION ( 'NONE',  ( 1.000000000000000000, 0.000000000000000000, 0.000000000000000000 ) ) ;
#82 = PERSON_AND_ORGANIZATION ( #58, #146 ) ;
#83 = CARTESIAN_POINT ( 'NONE',  ( 0.000000000000000000, 0.000000000000000000, 3.199999999999980638 ) ) ;
#84 = AXIS2_PLACEMENT_3D ( 'NONE', #108, #286, #149 ) ;
#85 = CC_DESIGN_DATE_AND_TIME_ASSIGNMENT ( #161, #12, ( #287 ) ) ;
#86 = COORDINATED_UNIVERSAL_TIME_OFFSET ( 1, 0, .AHEAD. ) ;
#87 = PERSON_AND_ORGANIZATION_ROLE ( 'design_owner' ) ;
#88 = ORIENTED_EDGE ( 'NONE', *, *, #39, .F. ) ;
#89 = EDGE_CURVE ( 'NONE', #162, #140, #96, .T. ) ;
#90 = CIRCLE ( 'NONE', #84, 3.000000000000000444 ) ;
#91 = APPROVAL_DATE_TIME ( #6, #247 ) ;
#92 = EDGE_LOOP ( 'NONE', ( #230, #267 ) ) ;
#93 = AXIS2_PLACEMENT_3D ( 'NONE', #229, #272, #68 ) ;
#94 = DIRECTION ( 'NONE',  ( -1.000000000000000000, 0.000000000000000000, 0.000000000000000000 ) ) ;
#95 = DIRECTION ( 'NONE',  ( 1.000000000000000000, 0.000000000000000000, 0.000000000000000000 ) ) ;
#96 = LINE ( 'NONE', #249, #292 ) ;
#97 = EDGE_LOOP ( 'NONE', ( #278, #71, #206, #62 ) ) ;
#98 = CIRCLE ( 'NONE', #259, 1.600000000000000089 ) ;
#99 = ADVANCED_FACE ( 'NONE', ( #252 ), #65, .T. ) ;
#100 = VERTEX_POINT ( 'NONE', #43 ) ;
#101 = DIRECTION ( 'NONE',  ( 0.000000000000000000, 0.000000000000000000, 1.000000000000000000 ) ) ;
#102 = CARTESIAN_POINT ( 'NONE',  ( 0.000000000000000000, 0.000000000000000000, 0.000000000000000000 ) ) ;
#103 = TOROIDAL_SURFACE ( 'NONE', #51, 1.800000000000000266, 0.2000000000000000111 ) ;
#104 = CARTESIAN_POINT ( 'NONE',  ( 0.000000000000000000, 0.000000000000000000, 0.000000000000000000 ) ) ;
#105 = APPROVAL_PERSON_ORGANIZATION ( #82, #281, #238 ) ;
#106 = CARTESIAN_POINT ( 'NONE',  ( 1.800000000000000266, 0.000000000000000000, 3.199999999999980638 ) ) ;
#107 = PERSON_AND_ORGANIZATION_ROLE ( 'classification_officer' ) ;
#108 = CARTESIAN_POINT ( 'NONE',  ( 0.000000000000000000, 0.000000000000000000, 3.000000000000000000 ) ) ;
#109 = APPROVAL_DATE_TIME ( #1, #281 ) ;
#110 = APPLICATION_PROTOCOL_DEFINITION ( 'international standard', 'config_control_design', 1994, #163 ) ;
#111 = CIRCLE ( 'NONE', #237, 1.600000000000000089 ) ;
#112 = ORIENTED_EDGE ( 'NONE', *, *, #138, .F. ) ;
#113 = EDGE_CURVE ( 'NONE', #80, #140, #170, .T. ) ;
#114 = LOCAL_TIME ( 12, 13, 14.00000000000000000, #86 ) ;
#115 = CARTESIAN_POINT ( 'NONE',  ( 0.000000000000000000, 0.000000000000000000, 3.000000000000000000 ) ) ;
#116 = DIRECTION ( 'NONE',  ( 0.000000000000000000, 0.000000000000000000, 1.000000000000000000 ) ) ;
#117 = ADVANCED_FACE ( 'NONE', ( #141 ), #204, .T. ) ;
#118 = CLOSED_SHELL ( 'NONE', ( #189, #127, #150, #99, #122, #3, #169, #117, #24 ) ) ;
#119 = CARTESIAN_POINT ( 'NONE',  ( 0.000000000000000000, 0.000000000000000000, 318.0000000000000000 ) ) ;
#120 = AXIS2_PLACEMENT_3D ( 'NONE', #234, #21, #129 ) ;
#121 = CARTESIAN_POINT ( 'NONE',  ( 0.000000000000000000, 0.000000000000000000, 318.0000000000000000 ) ) ;
#122 = ADVANCED_FACE ( 'NONE', ( #184, #275 ), #70, .T. ) ;
#123 = ORIENTED_EDGE ( 'NONE', *, *, #34, .T. ) ;
#124 = EDGE_LOOP ( 'NONE', ( #75, #25, #7, #168 ) ) ;
#125 = SECURITY_CLASSIFICATION ( '', '', #264 ) ;
#126 = CARTESIAN_POINT ( 'NONE',  ( 1.800000000000000266, 0.000000000000000000, 2.999999999999990674 ) ) ;
#127 = ADVANCED_FACE ( 'NONE', ( #145 ), #280, .T. ) ;
#128 = FACE_OUTER_BOUND ( 'NONE', #304, .T. ) ;
#129 = DIRECTION ( 'NONE',  ( -1.000000000000000000, 0.000000000000000000, 0.000000000000000000 ) ) ;
#130 = DIRECTION ( 'NONE',  ( 0.000000000000000000, 0.000000000000000000, 1.000000000000000000 ) ) ;
#131 = CALENDAR_DATE ( 2022, 20, 6 ) ;
#132 = DIRECTION ( 'NONE',  ( 0.000000000000000000, 0.000000000000000000, 1.000000000000000000 ) ) ;
#133 = PERSON_AND_ORGANIZATION ( #58, #146 ) ;
#134 = PERSON_AND_ORGANIZATION ( #58, #146 ) ;
#135 = MECHANICAL_CONTEXT ( 'NONE', #163, 'mechanical' ) ;
#136 = ORIENTED_EDGE ( 'NONE', *, *, #256, .F. ) ;
#137 = ORIENTED_EDGE ( 'NONE', *, *, #113, .F. ) ;
#138 = EDGE_CURVE ( 'NONE', #297, #207, #235, .T. ) ;
#139 = DIRECTION ( 'NONE',  ( 0.000000000000000000, 0.000000000000000000, 1.000000000000000000 ) ) ;
#140 = VERTEX_POINT ( 'NONE', #196 ) ;
#141 = FACE_OUTER_BOUND ( 'NONE', #279, .T. ) ;
#142 = CC_DESIGN_PERSON_AND_ORGANIZATION_ASSIGNMENT ( #55, #288, ( #72 ) ) ;
#143 = DIRECTION ( 'NONE',  ( 1.000000000000000000, 0.000000000000000000, 0.000000000000000000 ) ) ;
#144 = VERTEX_POINT ( 'NONE', #126 ) ;
#145 = FACE_OUTER_BOUND ( 'NONE', #97, .T. ) ;
#146 = ORGANIZATION ( 'NEURÈENÝ', 'NEURÈENÝ', '' ) ;
#147 = DIRECTION ( 'NONE',  ( 1.000000000000000000, 0.000000000000000000, -0.000000000000000000 ) ) ;
#148 = DIRECTION ( 'NONE',  ( 1.000000000000000000, 0.000000000000000000, 0.000000000000000000 ) ) ;
#149 = DIRECTION ( 'NONE',  ( 1.000000000000000000, 0.000000000000000000, 0.000000000000000000 ) ) ;
#150 = ADVANCED_FACE ( 'NONE', ( #258 ), #191, .T. ) ;
#151 = CC_DESIGN_APPROVAL ( #247, ( #287 ) ) ;
#152 = APPROVAL_STATUS ( 'not_yet_approved' ) ;
#153 = CARTESIAN_POINT ( 'NONE',  ( 0.000000000000000000, 0.000000000000000000, 0.000000000000000000 ) ) ;
#154 = COORDINATED_UNIVERSAL_TIME_OFFSET ( 1, 0, .AHEAD. ) ;
#155 = AXIS2_PLACEMENT_3D ( 'NONE', #16, #167, #208 ) ;
#156 = PERSON_AND_ORGANIZATION ( #58, #146 ) ;
#157 = VECTOR ( 'NONE', #257, 1000.000000000000000 ) ;
#158 = EDGE_CURVE ( 'NONE', #140, #80, #111, .T. ) ;
#159 = CIRCLE ( 'NONE', #14, 3.000000000000000444 ) ;
#160 = CARTESIAN_POINT ( 'NONE',  ( 0.000000000000000000, 0.000000000000000000, 3.199999999999980638 ) ) ;
#161 = DATE_AND_TIME ( #203, #251 ) ;
#162 = VERTEX_POINT ( 'NONE', #79 ) ;
#163 = APPLICATION_CONTEXT ( 'configuration controlled 3d designs of mechanical parts and assemblies' ) ;
#164 = DIRECTION ( 'NONE',  ( 1.000000000000000000, 0.000000000000000000, 0.000000000000000000 ) ) ;
#165 = ORIENTED_EDGE ( 'NONE', *, *, #74, .F. ) ;
#166 = DIRECTION ( 'NONE',  ( 1.000000000000000000, 0.000000000000000000, 0.000000000000000000 ) ) ;
#167 = DIRECTION ( 'NONE',  ( 0.000000000000000000, 0.000000000000000000, 1.000000000000000000 ) ) ;
#168 = ORIENTED_EDGE ( 'NONE', *, *, #113, .T. ) ;
#169 = ADVANCED_FACE ( 'NONE', ( #193 ), #48, .T. ) ;
#170 = CIRCLE ( 'NONE', #262, 1.600000000000000089 ) ;
#171 = CARTESIAN_POINT ( 'NONE',  ( 3.000000000000000444, 3.673940397442060361E-16, 3.000000000000000000 ) ) ;
#172 = CIRCLE ( 'NONE', #270, 0.2000000000000000944 ) ;
#173 = DIRECTION ( 'NONE',  ( 0.000000000000000000, 0.000000000000000000, 1.000000000000000000 ) ) ;
#174 = CARTESIAN_POINT ( 'NONE',  ( -1.600000000000000089, 0.000000000000000000, 318.0000000000000000 ) ) ;
#175 = ADVANCED_BREP_SHAPE_REPRESENTATION ( '5f66', ( #20, #53 ), #47 ) ;
#176 = DATE_AND_TIME ( #54, #114 ) ;
#177 = ORIENTED_EDGE ( 'NONE', *, *, #256, .T. ) ;
#178 = PERSON_AND_ORGANIZATION_ROLE ( 'design_supplier' ) ;
#179 = CIRCLE ( 'NONE', #250, 0.1999999999999998723 ) ;
#180 = VECTOR ( 'NONE', #296, 1000.000000000000000 ) ;
#181 = SHAPE_DEFINITION_REPRESENTATION ( #298, #175 ) ;
#182 = CARTESIAN_POINT ( 'NONE',  ( 0.000000000000000000, 0.000000000000000000, 3.199999999999980638 ) ) ;
#183 = CARTESIAN_POINT ( 'NONE',  ( 0.000000000000000000, 0.000000000000000000, 3.000000000000000000 ) ) ;
#184 = FACE_BOUND ( 'NONE', #216, .T. ) ;
#185 = ORIENTED_EDGE ( 'NONE', *, *, #269, .T. ) ;
#186 = ORIENTED_EDGE ( 'NONE', *, *, #239, .F. ) ;
#187 = CIRCLE ( 'NONE', #66, 3.000000000000000444 ) ;
#188 = LINE ( 'NONE', #174, #157 ) ;
#189 = ADVANCED_FACE ( 'NONE', ( #128 ), #61, .F. ) ;
#190 = DIRECTION ( 'NONE',  ( 1.000000000000000000, 0.000000000000000000, 0.000000000000000000 ) ) ;
#191 = CYLINDRICAL_SURFACE ( 'NONE', #290, 3.000000000000000444 ) ;
#192 = CC_DESIGN_APPROVAL ( #56, ( #72 ) ) ;
#193 = FACE_OUTER_BOUND ( 'NONE', #124, .T. ) ;
#194 = CALENDAR_DATE ( 2022, 20, 6 ) ;
#195 = PRODUCT ( '5f66', '5f66', '', ( #135 ) ) ;
#196 = CARTESIAN_POINT ( 'NONE',  ( 1.600000000000000089, 1.959434878635765230E-16, 3.199999999999980638 ) ) ;
#197 = AXIS2_PLACEMENT_3D ( 'NONE', #83, #130, #148 ) ;
#198 = CC_DESIGN_PERSON_AND_ORGANIZATION_ASSIGNMENT ( #33, #107, ( #125 ) ) ;
#199 = CIRCLE ( 'NONE', #222, 3.000000000000000444 ) ;
#200 = APPROVAL_PERSON_ORGANIZATION ( #156, #247, #57 ) ;
#201 = EDGE_CURVE ( 'NONE', #140, #144, #172, .T. ) ;
#202 = EDGE_LOOP ( 'NONE', ( #186, #254, #35, #244 ) ) ;
#203 = CALENDAR_DATE ( 2022, 20, 6 ) ;
#204 = PLANE ( 'NONE',  #211 ) ;
#205 = DESIGN_CONTEXT ( 'detailed design', #36, 'design' ) ;
#206 = ORIENTED_EDGE ( 'NONE', *, *, #158, .T. ) ;
#207 = VERTEX_POINT ( 'NONE', #77 ) ;
#208 = DIRECTION ( 'NONE',  ( 1.000000000000000000, 0.000000000000000000, -0.000000000000000000 ) ) ;
#209 = ORIENTED_EDGE ( 'NONE', *, *, #138, .T. ) ;
#210 =( LENGTH_UNIT ( ) NAMED_UNIT ( * ) SI_UNIT ( .MILLI., .METRE. ) );
#211 = AXIS2_PLACEMENT_3D ( 'NONE', #121, #41, #293 ) ;
#212 = DIRECTION ( 'NONE',  ( 1.224646799147353207E-16, 1.000000000000000000, -0.000000000000000000 ) ) ;
#213 = DIRECTION ( 'NONE',  ( 0.000000000000000000, 0.000000000000000000, -1.000000000000000000 ) ) ;
#214 = AXIS2_PLACEMENT_3D ( 'NONE', #228, #294, #44 ) ;
#215 = DIRECTION ( 'NONE',  ( 1.000000000000000000, 0.000000000000000000, 0.000000000000000000 ) ) ;
#216 = EDGE_LOOP ( 'NONE', ( #289, #59 ) ) ;
#217 = CC_DESIGN_SECURITY_CLASSIFICATION ( #125, ( #72 ) ) ;
#218 = CARTESIAN_POINT ( 'NONE',  ( -1.800000000000000266, 2.204364238465236069E-16, 3.199999999999980638 ) ) ;
#219 = DATE_AND_TIME ( #194, #261 ) ;
#220 = COORDINATED_UNIVERSAL_TIME_OFFSET ( 1, 0, .AHEAD. ) ;
#221 = CALENDAR_DATE ( 2022, 20, 6 ) ;
#222 = AXIS2_PLACEMENT_3D ( 'NONE', #183, #139, #166 ) ;
#223 = ORIENTED_EDGE ( 'NONE', *, *, #63, .T. ) ;
#224 = DIRECTION ( 'NONE',  ( 0.000000000000000000, 0.000000000000000000, 1.000000000000000000 ) ) ;
#225 = FACE_OUTER_BOUND ( 'NONE', #92, .T. ) ;
#226 = ORIENTED_EDGE ( 'NONE', *, *, #295, .T. ) ;
#227 = CIRCLE ( 'NONE', #214, 1.800000000000000266 ) ;
#228 = CARTESIAN_POINT ( 'NONE',  ( 0.000000000000000000, 0.000000000000000000, 3.000000000000000000 ) ) ;
#229 = CARTESIAN_POINT ( 'NONE',  ( 0.000000000000000000, 0.000000000000000000, 318.0000000000000000 ) ) ;
#230 = ORIENTED_EDGE ( 'NONE', *, *, #269, .F. ) ;
#231 = PRODUCT_RELATED_PRODUCT_CATEGORY ( 'detail', '', ( #195 ) ) ;
#232 = PERSON_AND_ORGANIZATION ( #58, #146 ) ;
#233 = CARTESIAN_POINT ( 'NONE',  ( 3.000000000000000444, 3.673940397442060361E-16, 3.000000000000000000 ) ) ;
#234 = CARTESIAN_POINT ( 'NONE',  ( 0.000000000000000000, 0.000000000000000000, 318.0000000000000000 ) ) ;
#235 = LINE ( 'NONE', #171, #240 ) ;
#236 = CARTESIAN_POINT ( 'NONE',  ( 0.000000000000000000, 0.000000000000000000, 3.000000000000000000 ) ) ;
#237 = AXIS2_PLACEMENT_3D ( 'NONE', #305, #26, #215 ) ;
#238 = APPROVAL_ROLE ( '' ) ;
#239 = EDGE_CURVE ( 'NONE', #80, #255, #179, .T. ) ;
#240 = VECTOR ( 'NONE', #50, 1000.000000000000000 ) ;
#241 = EDGE_LOOP ( 'NONE', ( #177, #123 ) ) ;
#242 = CC_DESIGN_PERSON_AND_ORGANIZATION_ASSIGNMENT ( #52, #29, ( #287 ) ) ;
#243 = APPROVAL_ROLE ( '' ) ;
#244 = ORIENTED_EDGE ( 'NONE', *, *, #9, .F. ) ;
#245 = ORIENTED_EDGE ( 'NONE', *, *, #201, .F. ) ;
#246 = PLANE ( 'NONE',  #155 ) ;
#247 = APPROVAL ( #265, 'NEURÈENÝ' ) ;
#248 = CARTESIAN_POINT ( 'NONE',  ( -1.600000000000000089, 0.000000000000000000, 3.199999999999980638 ) ) ;
#249 = CARTESIAN_POINT ( 'NONE',  ( 1.600000000000000089, 1.959434878635765230E-16, 318.0000000000000000 ) ) ;
#250 = AXIS2_PLACEMENT_3D ( 'NONE', #218, #212, #307 ) ;
#251 = LOCAL_TIME ( 12, 13, 14.00000000000000000, #37 ) ;
#252 = FACE_OUTER_BOUND ( 'NONE', #17, .T. ) ;
#253 = CC_DESIGN_DATE_AND_TIME_ASSIGNMENT ( #219, #285, ( #125 ) ) ;
#254 = ORIENTED_EDGE ( 'NONE', *, *, #158, .F. ) ;
#255 = VERTEX_POINT ( 'NONE', #283 ) ;
#256 = EDGE_CURVE ( 'NONE', #276, #297, #90, .T. ) ;
#257 = DIRECTION ( 'NONE',  ( -0.000000000000000000, -0.000000000000000000, -1.000000000000000000 ) ) ;
#258 = FACE_OUTER_BOUND ( 'NONE', #49, .T. ) ;
#259 = AXIS2_PLACEMENT_3D ( 'NONE', #119, #271, #95 ) ;
#260 = CARTESIAN_POINT ( 'NONE',  ( -3.000000000000000444, 0.000000000000000000, 3.000000000000000000 ) ) ;
#261 = LOCAL_TIME ( 12, 13, 14.00000000000000000, #220 ) ;
#262 = AXIS2_PLACEMENT_3D ( 'NONE', #160, #116, #143 ) ;
#263 = DIRECTION ( 'NONE',  ( 1.000000000000000000, 0.000000000000000000, 0.000000000000000000 ) ) ;
#264 = SECURITY_CLASSIFICATION_LEVEL ( 'unclassified' ) ;
#265 = APPROVAL_STATUS ( 'not_yet_approved' ) ;
#266 = ORIENTED_EDGE ( 'NONE', *, *, #34, .F. ) ;
#267 = ORIENTED_EDGE ( 'NONE', *, *, #295, .F. ) ;
#268 = DIRECTION ( 'NONE',  ( -0.000000000000000000, -0.000000000000000000, -1.000000000000000000 ) ) ;
#269 = EDGE_CURVE ( 'NONE', #100, #207, #187, .T. ) ;
#270 = AXIS2_PLACEMENT_3D ( 'NONE', #106, #23, #213 ) ;
#271 = DIRECTION ( 'NONE',  ( 0.000000000000000000, 0.000000000000000000, 1.000000000000000000 ) ) ;
#272 = DIRECTION ( 'NONE',  ( 0.000000000000000000, 0.000000000000000000, 1.000000000000000000 ) ) ;
#273 = ORIENTED_EDGE ( 'NONE', *, *, #39, .T. ) ;
#274 = EDGE_CURVE ( 'NONE', #45, #80, #188, .T. ) ;
#275 = FACE_OUTER_BOUND ( 'NONE', #241, .T. ) ;
#276 = VERTEX_POINT ( 'NONE', #260 ) ;
#277 = APPROVAL_PERSON_ORGANIZATION ( #232, #56, #243 ) ;
#278 = ORIENTED_EDGE ( 'NONE', *, *, #63, .F. ) ;
#279 = EDGE_LOOP ( 'NONE', ( #60, #223 ) ) ;
#280 = CYLINDRICAL_SURFACE ( 'NONE', #30, 1.600000000000000089 ) ;
#281 = APPROVAL ( #152, 'NEURÈENÝ' ) ;
#282 =( NAMED_UNIT ( * ) SI_UNIT ( $, .STERADIAN. ) SOLID_ANGLE_UNIT ( ) );
#283 = CARTESIAN_POINT ( 'NONE',  ( -1.800000000000000266, 2.204364238465236069E-16, 2.999999999999990674 ) ) ;
#284 = DIRECTION ( 'NONE',  ( -0.000000000000000000, -0.000000000000000000, -1.000000000000000000 ) ) ;
#285 = DATE_TIME_ROLE ( 'classification_date' ) ;
#286 = DIRECTION ( 'NONE',  ( 0.000000000000000000, 0.000000000000000000, 1.000000000000000000 ) ) ;
#287 = PRODUCT_DEFINITION ( 'NEZNÁMÝ', '', #72, #205 ) ;
#288 = PERSON_AND_ORGANIZATION_ROLE ( 'creator' ) ;
#289 = ORIENTED_EDGE ( 'NONE', *, *, #74, .T. ) ;
#290 = AXIS2_PLACEMENT_3D ( 'NONE', #236, #76, #300 ) ;
#291 = DIRECTION ( 'NONE',  ( -0.000000000000000000, -0.000000000000000000, -1.000000000000000000 ) ) ;
#292 = VECTOR ( 'NONE', #268, 1000.000000000000000 ) ;
#293 = DIRECTION ( 'NONE',  ( 1.000000000000000000, 0.000000000000000000, -0.000000000000000000 ) ) ;
#294 = DIRECTION ( 'NONE',  ( -0.000000000000000000, -0.000000000000000000, -1.000000000000000000 ) ) ;
#295 = EDGE_CURVE ( 'NONE', #207, #100, #159, .T. ) ;
#296 = DIRECTION ( 'NONE',  ( -0.000000000000000000, -0.000000000000000000, -1.000000000000000000 ) ) ;
#297 = VERTEX_POINT ( 'NONE', #233 ) ;
#298 = PRODUCT_DEFINITION_SHAPE ( 'NONE', 'NONE',  #287 ) ;
#299 = CARTESIAN_POINT ( 'NONE',  ( 0.000000000000000000, 0.000000000000000000, 3.000000000000000000 ) ) ;
#300 = DIRECTION ( 'NONE',  ( -1.000000000000000000, 0.000000000000000000, 0.000000000000000000 ) ) ;
#301 = DIRECTION ( 'NONE',  ( 0.000000000000000000, 0.000000000000000000, 1.000000000000000000 ) ) ;
#302 = CC_DESIGN_PERSON_AND_ORGANIZATION_ASSIGNMENT ( #134, #87, ( #195 ) ) ;
#303 = CARTESIAN_POINT ( 'NONE',  ( 0.000000000000000000, 0.000000000000000000, 318.0000000000000000 ) ) ;
#304 = EDGE_LOOP ( 'NONE', ( #137, #15, #165, #245 ) ) ;
#305 = CARTESIAN_POINT ( 'NONE',  ( 0.000000000000000000, 0.000000000000000000, 3.199999999999980638 ) ) ;
#306 = CC_DESIGN_PERSON_AND_ORGANIZATION_ASSIGNMENT ( #133, #178, ( #72 ) ) ;
#307 = DIRECTION ( 'NONE',  ( -1.000000000000000000, 1.224646799147354686E-16, 0.000000000000000000 ) ) ;
ENDSEC;
END-ISO-10303-21;
