ISO-10303-21;
HEADER;
FILE_DESCRIPTION (( 'STEP AP203' ),
    '1' );
FILE_NAME ('20f8.STEP',
    '2022-06-20T09:39:45',
    ( '' ),
    ( '' ),
    'SwSTEP 2.0',
    'SolidWorks 2019',
    '' );
FILE_SCHEMA (( 'CONFIG_CONTROL_DESIGN' ));
ENDSEC;

DATA;
#1 = CARTESIAN_POINT ( 'NONE',  ( 5.100000000000001421, 6.245698675651502811E-16, 5.199999999999996625 ) ) ;
#2 =( LENGTH_UNIT ( ) NAMED_UNIT ( * ) SI_UNIT ( .MILLI., .METRE. ) );
#3 = DIRECTION ( 'NONE',  ( 1.000000000000000000, 0.000000000000000000, -0.000000000000000000 ) ) ;
#4 = APPROVAL ( #105, 'NEURÈENÝ' ) ;
#5 = AXIS2_PLACEMENT_3D ( 'NONE', #235, #256, #140 ) ;
#6 = ORIENTED_EDGE ( 'NONE', *, *, #37, .F. ) ;
#7 = DIRECTION ( 'NONE',  ( 0.000000000000000000, 0.000000000000000000, 1.000000000000000000 ) ) ;
#8 = ORIENTED_EDGE ( 'NONE', *, *, #270, .F. ) ;
#9 = VECTOR ( 'NONE', #46, 1000.000000000000000 ) ;
#10 = EDGE_LOOP ( 'NONE', ( #280, #253, #178, #31 ) ) ;
#11 = DIRECTION ( 'NONE',  ( 0.000000000000000000, 0.000000000000000000, 1.000000000000000000 ) ) ;
#12 = DIRECTION ( 'NONE',  ( 1.000000000000000000, 0.000000000000000000, 0.000000000000000000 ) ) ;
#13 = EDGE_CURVE ( 'NONE', #64, #176, #21, .T. ) ;
#14 = CYLINDRICAL_SURFACE ( 'NONE', #141, 8.000000000000000000 ) ;
#15 = EDGE_CURVE ( 'NONE', #60, #164, #66, .T. ) ;
#16 = CIRCLE ( 'NONE', #74, 8.000000000000000000 ) ;
#17 = FACE_OUTER_BOUND ( 'NONE', #291, .T. ) ;
#18 = COORDINATED_UNIVERSAL_TIME_OFFSET ( 1, 0, .AHEAD. ) ;
#19 = DIRECTION ( 'NONE',  ( -0.000000000000000000, -0.000000000000000000, -1.000000000000000000 ) ) ;
#20 = PERSON_AND_ORGANIZATION_ROLE ( 'creator' ) ;
#21 = CIRCLE ( 'NONE', #217, 0.1999999999999996503 ) ;
#22 = PERSON_AND_ORGANIZATION ( #106, #213 ) ;
#23 = ORIENTED_EDGE ( 'NONE', *, *, #257, .T. ) ;
#24 = LOCAL_TIME ( 11, 39, 45.00000000000000000, #18 ) ;
#25 = DIRECTION ( 'NONE',  ( 1.000000000000000000, 0.000000000000000000, 0.000000000000000000 ) ) ;
#26 = ORIENTED_EDGE ( 'NONE', *, *, #149, .F. ) ;
#27 = CARTESIAN_POINT ( 'NONE',  ( 0.000000000000000000, 0.000000000000000000, 0.000000000000000000 ) ) ;
#28 = CALENDAR_DATE ( 2022, 20, 6 ) ;
#29 = CIRCLE ( 'NONE', #272, 5.300000000000000711 ) ;
#30 = EDGE_CURVE ( 'NONE', #164, #60, #136, .T. ) ;
#31 = ORIENTED_EDGE ( 'NONE', *, *, #92, .F. ) ;
#32 = DIRECTION ( 'NONE',  ( 1.000000000000000000, 0.000000000000000000, 0.000000000000000000 ) ) ;
#33 = AXIS2_PLACEMENT_3D ( 'NONE', #142, #11, #227 ) ;
#34 = ORIENTED_EDGE ( 'NONE', *, *, #221, .F. ) ;
#35 = VERTEX_POINT ( 'NONE', #38 ) ;
#36 = ORIENTED_EDGE ( 'NONE', *, *, #30, .T. ) ;
#37 = EDGE_CURVE ( 'NONE', #202, #35, #259, .T. ) ;
#38 = CARTESIAN_POINT ( 'NONE',  ( -8.000000000000000000, 0.000000000000000000, 0.000000000000000000 ) ) ;
#39 = ADVANCED_FACE ( 'NONE', ( #86 ), #183, .F. ) ;
#40 = CC_DESIGN_APPROVAL ( #299, ( #55 ) ) ;
#41 = DESIGN_CONTEXT ( 'detailed design', #110, 'design' ) ;
#42 = DIRECTION ( 'NONE',  ( 0.000000000000000000, 0.000000000000000000, 1.000000000000000000 ) ) ;
#43 = ADVANCED_BREP_SHAPE_REPRESENTATION ( '20f8', ( #247, #121 ), #138 ) ;
#44 = COORDINATED_UNIVERSAL_TIME_OFFSET ( 1, 0, .AHEAD. ) ;
#45 = DIRECTION ( 'NONE',  ( 0.000000000000000000, 0.000000000000000000, 1.000000000000000000 ) ) ;
#46 = DIRECTION ( 'NONE',  ( -0.000000000000000000, -0.000000000000000000, -1.000000000000000000 ) ) ;
#47 = DIRECTION ( 'NONE',  ( 0.000000000000000000, 0.000000000000000000, -1.000000000000000000 ) ) ;
#48 = DATE_TIME_ROLE ( 'creation_date' ) ;
#49 = CARTESIAN_POINT ( 'NONE',  ( 0.000000000000000000, 0.000000000000000000, 5.000000000000000000 ) ) ;
#50 = CC_DESIGN_DATE_AND_TIME_ASSIGNMENT ( #151, #123, ( #55 ) ) ;
#51 = APPROVAL_STATUS ( 'not_yet_approved' ) ;
#52 = CYLINDRICAL_SURFACE ( 'NONE', #96, 5.100000000000001421 ) ;
#53 = DIRECTION ( 'NONE',  ( 0.000000000000000000, 0.000000000000000000, 1.000000000000000000 ) ) ;
#54 = CIRCLE ( 'NONE', #207, 5.100000000000001421 ) ;
#55 = SECURITY_CLASSIFICATION ( '', '', #237 ) ;
#56 = APPLICATION_PROTOCOL_DEFINITION ( 'international standard', 'config_control_design', 1994, #198 ) ;
#57 = CC_DESIGN_PERSON_AND_ORGANIZATION_ASSIGNMENT ( #79, #246, ( #194 ) ) ;
#58 = AXIS2_PLACEMENT_3D ( 'NONE', #269, #131, #3 ) ;
#59 = EDGE_LOOP ( 'NONE', ( #111, #113, #295, #26 ) ) ;
#60 = VERTEX_POINT ( 'NONE', #230 ) ;
#61 = AXIS2_PLACEMENT_3D ( 'NONE', #258, #7, #32 ) ;
#62 = ORIENTED_EDGE ( 'NONE', *, *, #199, .F. ) ;
#63 = ORIENTED_EDGE ( 'NONE', *, *, #257, .F. ) ;
#64 = VERTEX_POINT ( 'NONE', #112 ) ;
#65 = CC_DESIGN_PERSON_AND_ORGANIZATION_ASSIGNMENT ( #191, #169, ( #177 ) ) ;
#66 = CIRCLE ( 'NONE', #5, 5.100000000000001421 ) ;
#67 = DIRECTION ( 'NONE',  ( 0.000000000000000000, 0.000000000000000000, 1.000000000000000000 ) ) ;
#68 = AXIS2_PLACEMENT_3D ( 'NONE', #69, #45, #303 ) ;
#69 = CARTESIAN_POINT ( 'NONE',  ( 0.000000000000000000, 0.000000000000000000, 0.000000000000000000 ) ) ;
#70 = DIRECTION ( 'NONE',  ( 0.000000000000000000, 0.000000000000000000, 1.000000000000000000 ) ) ;
#71 = CALENDAR_DATE ( 2022, 20, 6 ) ;
#72 = CYLINDRICAL_SURFACE ( 'NONE', #90, 8.000000000000000000 ) ;
#73 = PERSON_AND_ORGANIZATION ( #106, #213 ) ;
#74 = AXIS2_PLACEMENT_3D ( 'NONE', #165, #42, #211 ) ;
#75 = CC_DESIGN_SECURITY_CLASSIFICATION ( #55, ( #177 ) ) ;
#76 = CARTESIAN_POINT ( 'NONE',  ( -8.000000000000000000, 0.000000000000000000, 5.000000000000000000 ) ) ;
#77 = DATE_AND_TIME ( #261, #24 ) ;
#78 = CALENDAR_DATE ( 2022, 20, 6 ) ;
#79 = PERSON_AND_ORGANIZATION ( #106, #213 ) ;
#80 = ADVANCED_FACE ( 'NONE', ( #203 ), #278, .T. ) ;
#81 = FACE_OUTER_BOUND ( 'NONE', #10, .T. ) ;
#82 = CARTESIAN_POINT ( 'NONE',  ( 5.300000000000000711, 0.000000000000000000, 4.999999999999998224 ) ) ;
#83 = ADVANCED_FACE ( 'NONE', ( #168, #243 ), #189, .T. ) ;
#84 = ORIENTED_EDGE ( 'NONE', *, *, #37, .T. ) ;
#85 = LOCAL_TIME ( 11, 39, 45.00000000000000000, #289 ) ;
#86 = FACE_OUTER_BOUND ( 'NONE', #294, .T. ) ;
#87 = DIRECTION ( 'NONE',  ( -1.000000000000000000, 1.224646799147353454E-16, 0.000000000000000000 ) ) ;
#88 = AXIS2_PLACEMENT_3D ( 'NONE', #284, #209, #47 ) ;
#89 = ORIENTED_EDGE ( 'NONE', *, *, #13, .F. ) ;
#90 = AXIS2_PLACEMENT_3D ( 'NONE', #188, #300, #264 ) ;
#91 = ORIENTED_EDGE ( 'NONE', *, *, #158, .T. ) ;
#92 = EDGE_CURVE ( 'NONE', #60, #64, #146, .T. ) ;
#93 = CARTESIAN_POINT ( 'NONE',  ( 0.000000000000000000, 0.000000000000000000, 5.199999999999996625 ) ) ;
#94 = FACE_OUTER_BOUND ( 'NONE', #59, .T. ) ;
#95 = TOROIDAL_SURFACE ( 'NONE', #160, 5.300000000000000711, 0.2000000000000000111 ) ;
#96 = AXIS2_PLACEMENT_3D ( 'NONE', #222, #109, #107 ) ;
#97 = UNCERTAINTY_MEASURE_WITH_UNIT (LENGTH_MEASURE( 1.000000000000000082E-05 ), #2, 'distance_accuracy_value', 'NONE');
#98 = CARTESIAN_POINT ( 'NONE',  ( 0.000000000000000000, 0.000000000000000000, 5.000000000000000000 ) ) ;
#99 = CARTESIAN_POINT ( 'NONE',  ( 5.100000000000001421, 6.245698675651502811E-16, 130.0000000000000000 ) ) ;
#100 = APPROVAL_ROLE ( '' ) ;
#101 = ADVANCED_FACE ( 'NONE', ( #17 ), #14, .T. ) ;
#102 = LINE ( 'NONE', #215, #223 ) ;
#103 = PERSON_AND_ORGANIZATION ( #106, #213 ) ;
#104 = LOCAL_TIME ( 11, 39, 45.00000000000000000, #44 ) ;
#105 = APPROVAL_STATUS ( 'not_yet_approved' ) ;
#106 = PERSON ( 'NEURÈENÝ', 'NEURÈENÝ', 'NEURÈENÝ', ('NEURÈENÝ'), ('NEURÈENÝ'), ('NEURÈENÝ') ) ;
#107 = DIRECTION ( 'NONE',  ( -1.000000000000000000, 0.000000000000000000, 0.000000000000000000 ) ) ;
#108 = AXIS2_PLACEMENT_3D ( 'NONE', #161, #255, #241 ) ;
#109 = DIRECTION ( 'NONE',  ( -0.000000000000000000, -0.000000000000000000, -1.000000000000000000 ) ) ;
#110 = APPLICATION_CONTEXT ( 'configuration controlled 3d designs of mechanical parts and assemblies' ) ;
#111 = ORIENTED_EDGE ( 'NONE', *, *, #158, .F. ) ;
#112 = CARTESIAN_POINT ( 'NONE',  ( -5.100000000000001421, 0.000000000000000000, 5.199999999999996625 ) ) ;
#113 = ORIENTED_EDGE ( 'NONE', *, *, #13, .T. ) ;
#114 = EDGE_LOOP ( 'NONE', ( #185, #281 ) ) ;
#115 = AXIS2_PLACEMENT_3D ( 'NONE', #239, #167, #262 ) ;
#116 = DIRECTION ( 'NONE',  ( 1.000000000000000000, 0.000000000000000000, 0.000000000000000000 ) ) ;
#117 = PRODUCT_RELATED_PRODUCT_CATEGORY ( 'detail', '', ( #194 ) ) ;
#118 = LINE ( 'NONE', #124, #274 ) ;
#119 = APPROVAL_DATE_TIME ( #125, #299 ) ;
#120 = CARTESIAN_POINT ( 'NONE',  ( 0.000000000000000000, 0.000000000000000000, 5.199999999999996625 ) ) ;
#121 = AXIS2_PLACEMENT_3D ( 'NONE', #27, #53, #25 ) ;
#122 = CARTESIAN_POINT ( 'NONE',  ( -5.100000000000001421, 0.000000000000000000, 130.0000000000000000 ) ) ;
#123 = DATE_TIME_ROLE ( 'classification_date' ) ;
#124 = CARTESIAN_POINT ( 'NONE',  ( -8.000000000000000000, 0.000000000000000000, 5.000000000000000000 ) ) ;
#125 = DATE_AND_TIME ( #71, #254 ) ;
#126 = APPROVAL ( #166, 'NEURÈENÝ' ) ;
#127 = EDGE_CURVE ( 'NONE', #152, #202, #102, .T. ) ;
#128 = CARTESIAN_POINT ( 'NONE',  ( 5.100000000000001421, 6.245698675651502811E-16, 130.0000000000000000 ) ) ;
#129 = APPROVAL_DATE_TIME ( #290, #4 ) ;
#130 = EDGE_LOOP ( 'NONE', ( #8, #196, #296, #91 ) ) ;
#131 = DIRECTION ( 'NONE',  ( 0.000000000000000000, 0.000000000000000000, 1.000000000000000000 ) ) ;
#132 = DIRECTION ( 'NONE',  ( -0.000000000000000000, -0.000000000000000000, -1.000000000000000000 ) ) ;
#133 = PERSON_AND_ORGANIZATION ( #106, #213 ) ;
#134 = CC_DESIGN_PERSON_AND_ORGANIZATION_ASSIGNMENT ( #240, #144, ( #55 ) ) ;
#135 = EDGE_LOOP ( 'NONE', ( #89, #62, #231, #157 ) ) ;
#136 = CIRCLE ( 'NONE', #61, 5.100000000000001421 ) ;
#137 = DIRECTION ( 'NONE',  ( 1.000000000000000000, 0.000000000000000000, -0.000000000000000000 ) ) ;
#138 =( GEOMETRIC_REPRESENTATION_CONTEXT ( 3 ) GLOBAL_UNCERTAINTY_ASSIGNED_CONTEXT ( ( #97 ) ) GLOBAL_UNIT_ASSIGNED_CONTEXT ( ( #2, #153, #195 ) ) REPRESENTATION_CONTEXT ( 'NONE', 'WORKASPACE' ) );
#139 = DIRECTION ( 'NONE',  ( 1.224646799147353207E-16, 1.000000000000000000, -0.000000000000000000 ) ) ;
#140 = DIRECTION ( 'NONE',  ( 1.000000000000000000, 0.000000000000000000, 0.000000000000000000 ) ) ;
#141 = AXIS2_PLACEMENT_3D ( 'NONE', #170, #301, #214 ) ;
#142 = CARTESIAN_POINT ( 'NONE',  ( 0.000000000000000000, 0.000000000000000000, 0.000000000000000000 ) ) ;
#143 = DIRECTION ( 'NONE',  ( 1.000000000000000000, 0.000000000000000000, 0.000000000000000000 ) ) ;
#144 = PERSON_AND_ORGANIZATION_ROLE ( 'classification_officer' ) ;
#145 = CARTESIAN_POINT ( 'NONE',  ( 0.000000000000000000, 0.000000000000000000, 5.000000000000000000 ) ) ;
#146 = LINE ( 'NONE', #122, #9 ) ;
#147 = PERSON_AND_ORGANIZATION_ROLE ( 'design_supplier' ) ;
#148 = DIRECTION ( 'NONE',  ( 1.000000000000000000, 0.000000000000000000, 0.000000000000000000 ) ) ;
#149 = EDGE_CURVE ( 'NONE', #276, #277, #192, .T. ) ;
#150 = DIRECTION ( 'NONE',  ( -0.000000000000000000, -0.000000000000000000, -1.000000000000000000 ) ) ;
#151 = DATE_AND_TIME ( #287, #104 ) ;
#152 = VERTEX_POINT ( 'NONE', #190 ) ;
#153 =( NAMED_UNIT ( * ) PLANE_ANGLE_UNIT ( ) SI_UNIT ( $, .RADIAN. ) );
#154 = APPLICATION_PROTOCOL_DEFINITION ( 'international standard', 'config_control_design', 1994, #110 ) ;
#155 = AXIS2_PLACEMENT_3D ( 'NONE', #145, #70, #263 ) ;
#156 = EDGE_CURVE ( 'NONE', #205, #35, #118, .T. ) ;
#157 = ORIENTED_EDGE ( 'NONE', *, *, #206, .F. ) ;
#158 = EDGE_CURVE ( 'NONE', #64, #276, #228, .T. ) ;
#159 = CARTESIAN_POINT ( 'NONE',  ( 0.000000000000000000, 0.000000000000000000, 0.000000000000000000 ) ) ;
#160 = AXIS2_PLACEMENT_3D ( 'NONE', #236, #260, #12 ) ;
#161 = CARTESIAN_POINT ( 'NONE',  ( 0.000000000000000000, 0.000000000000000000, 130.0000000000000000 ) ) ;
#162 = APPROVAL_PERSON_ORGANIZATION ( #73, #126, #100 ) ;
#163 = EDGE_LOOP ( 'NONE', ( #63, #297, #84, #187 ) ) ;
#164 = VERTEX_POINT ( 'NONE', #99 ) ;
#165 = CARTESIAN_POINT ( 'NONE',  ( 0.000000000000000000, 0.000000000000000000, 5.000000000000000000 ) ) ;
#166 = APPROVAL_STATUS ( 'not_yet_approved' ) ;
#167 = DIRECTION ( 'NONE',  ( 0.000000000000000000, 0.000000000000000000, 1.000000000000000000 ) ) ;
#168 = FACE_BOUND ( 'NONE', #114, .T. ) ;
#169 = PERSON_AND_ORGANIZATION_ROLE ( 'creator' ) ;
#170 = CARTESIAN_POINT ( 'NONE',  ( 0.000000000000000000, 0.000000000000000000, 5.000000000000000000 ) ) ;
#171 = AXIS2_PLACEMENT_3D ( 'NONE', #173, #267, #143 ) ;
#172 = PERSON_AND_ORGANIZATION ( #106, #213 ) ;
#173 = CARTESIAN_POINT ( 'NONE',  ( 0.000000000000000000, 0.000000000000000000, 5.000000000000000000 ) ) ;
#174 = SHAPE_DEFINITION_REPRESENTATION ( #181, #43 ) ;
#175 = FACE_OUTER_BOUND ( 'NONE', #182, .T. ) ;
#176 = VERTEX_POINT ( 'NONE', #286 ) ;
#177 = PRODUCT_DEFINITION_FORMATION_WITH_SPECIFIED_SOURCE ( 'LIBOVOLNÝ', '', #194, .NOT_KNOWN. ) ;
#178 = ORIENTED_EDGE ( 'NONE', *, *, #199, .T. ) ;
#179 = DIRECTION ( 'NONE',  ( 1.000000000000000000, 0.000000000000000000, 0.000000000000000000 ) ) ;
#180 = ADVANCED_FACE ( 'NONE', ( #212 ), #72, .T. ) ;
#181 = PRODUCT_DEFINITION_SHAPE ( 'NONE', 'NONE',  #186 ) ;
#182 = EDGE_LOOP ( 'NONE', ( #298, #36 ) ) ;
#183 = PLANE ( 'NONE',  #233 ) ;
#184 = DIRECTION ( 'NONE',  ( 0.000000000000000000, 0.000000000000000000, 1.000000000000000000 ) ) ;
#185 = ORIENTED_EDGE ( 'NONE', *, *, #210, .T. ) ;
#186 = PRODUCT_DEFINITION ( 'NEZNÁMÝ', '', #177, #41 ) ;
#187 = ORIENTED_EDGE ( 'NONE', *, *, #156, .F. ) ;
#188 = CARTESIAN_POINT ( 'NONE',  ( 0.000000000000000000, 0.000000000000000000, 5.000000000000000000 ) ) ;
#189 = PLANE ( 'NONE',  #155 ) ;
#190 = CARTESIAN_POINT ( 'NONE',  ( 8.000000000000000000, 9.797174393178825657E-16, 5.000000000000000000 ) ) ;
#191 = PERSON_AND_ORGANIZATION ( #106, #213 ) ;
#192 = CIRCLE ( 'NONE', #88, 0.1999999999999996503 ) ;
#193 = DIRECTION ( 'NONE',  ( 0.000000000000000000, 0.000000000000000000, 1.000000000000000000 ) ) ;
#194 = PRODUCT ( '20f8', '20f8', '', ( #271 ) ) ;
#195 =( NAMED_UNIT ( * ) SI_UNIT ( $, .STERADIAN. ) SOLID_ANGLE_UNIT ( ) );
#196 = ORIENTED_EDGE ( 'NONE', *, *, #15, .F. ) ;
#197 = CIRCLE ( 'NONE', #68, 8.000000000000000000 ) ;
#198 = APPLICATION_CONTEXT ( 'configuration controlled 3d designs of mechanical parts and assemblies' ) ;
#199 = EDGE_CURVE ( 'NONE', #276, #64, #54, .T. ) ;
#200 = ORIENTED_EDGE ( 'NONE', *, *, #127, .F. ) ;
#201 = APPROVAL_PERSON_ORGANIZATION ( #172, #299, #302 ) ;
#202 = VERTEX_POINT ( 'NONE', #242 ) ;
#203 = FACE_OUTER_BOUND ( 'NONE', #130, .T. ) ;
#204 = ADVANCED_FACE ( 'NONE', ( #307 ), #95, .F. ) ;
#205 = VERTEX_POINT ( 'NONE', #76 ) ;
#206 = EDGE_CURVE ( 'NONE', #176, #277, #265, .T. ) ;
#207 = AXIS2_PLACEMENT_3D ( 'NONE', #93, #193, #148 ) ;
#208 = ORIENTED_EDGE ( 'NONE', *, *, #156, .T. ) ;
#209 = DIRECTION ( 'NONE',  ( 0.000000000000000000, -1.000000000000000000, 0.000000000000000000 ) ) ;
#210 = EDGE_CURVE ( 'NONE', #277, #176, #29, .T. ) ;
#211 = DIRECTION ( 'NONE',  ( 1.000000000000000000, 0.000000000000000000, 0.000000000000000000 ) ) ;
#212 = FACE_OUTER_BOUND ( 'NONE', #163, .T. ) ;
#213 = ORGANIZATION ( 'NEURÈENÝ', 'NEURÈENÝ', '' ) ;
#214 = DIRECTION ( 'NONE',  ( -1.000000000000000000, 0.000000000000000000, 0.000000000000000000 ) ) ;
#215 = CARTESIAN_POINT ( 'NONE',  ( 8.000000000000000000, 9.797174393178825657E-16, 5.000000000000000000 ) ) ;
#216 = DATE_AND_TIME ( #78, #85 ) ;
#217 = AXIS2_PLACEMENT_3D ( 'NONE', #252, #139, #87 ) ;
#218 = AXIS2_PLACEMENT_3D ( 'NONE', #98, #285, #179 ) ;
#219 = LINE ( 'NONE', #128, #304 ) ;
#220 = ORIENTED_EDGE ( 'NONE', *, *, #244, .T. ) ;
#221 = EDGE_CURVE ( 'NONE', #205, #152, #16, .T. ) ;
#222 = CARTESIAN_POINT ( 'NONE',  ( 0.000000000000000000, 0.000000000000000000, 130.0000000000000000 ) ) ;
#223 = VECTOR ( 'NONE', #19, 1000.000000000000000 ) ;
#224 = APPROVAL_ROLE ( '' ) ;
#225 = AXIS2_PLACEMENT_3D ( 'NONE', #120, #67, #116 ) ;
#226 = EDGE_LOOP ( 'NONE', ( #232, #23 ) ) ;
#227 = DIRECTION ( 'NONE',  ( 1.000000000000000000, 0.000000000000000000, 0.000000000000000000 ) ) ;
#228 = CIRCLE ( 'NONE', #225, 5.100000000000001421 ) ;
#229 = CIRCLE ( 'NONE', #218, 8.000000000000000000 ) ;
#230 = CARTESIAN_POINT ( 'NONE',  ( -5.100000000000001421, 0.000000000000000000, 130.0000000000000000 ) ) ;
#231 = ORIENTED_EDGE ( 'NONE', *, *, #149, .T. ) ;
#232 = ORIENTED_EDGE ( 'NONE', *, *, #221, .T. ) ;
#233 = AXIS2_PLACEMENT_3D ( 'NONE', #159, #184, #137 ) ;
#234 = ADVANCED_FACE ( 'NONE', ( #94 ), #250, .F. ) ;
#235 = CARTESIAN_POINT ( 'NONE',  ( 0.000000000000000000, 0.000000000000000000, 130.0000000000000000 ) ) ;
#236 = CARTESIAN_POINT ( 'NONE',  ( 0.000000000000000000, 0.000000000000000000, 5.199999999999996625 ) ) ;
#237 = SECURITY_CLASSIFICATION_LEVEL ( 'unclassified' ) ;
#238 = CC_DESIGN_PERSON_AND_ORGANIZATION_ASSIGNMENT ( #133, #20, ( #186 ) ) ;
#239 = CARTESIAN_POINT ( 'NONE',  ( 0.000000000000000000, 0.000000000000000000, 5.199999999999996625 ) ) ;
#240 = PERSON_AND_ORGANIZATION ( #106, #213 ) ;
#241 = DIRECTION ( 'NONE',  ( -1.000000000000000000, 0.000000000000000000, 0.000000000000000000 ) ) ;
#242 = CARTESIAN_POINT ( 'NONE',  ( 8.000000000000000000, 9.797174393178825657E-16, 0.000000000000000000 ) ) ;
#243 = FACE_OUTER_BOUND ( 'NONE', #226, .T. ) ;
#244 = EDGE_CURVE ( 'NONE', #35, #202, #197, .T. ) ;
#245 = CC_DESIGN_APPROVAL ( #126, ( #177 ) ) ;
#246 = PERSON_AND_ORGANIZATION_ROLE ( 'design_owner' ) ;
#247 = MANIFOLD_SOLID_BREP ( 'Zaoblit1', #248 ) ;
#248 = CLOSED_SHELL ( 'NONE', ( #234, #293, #180, #101, #83, #39, #80, #266, #204 ) ) ;
#249 = COORDINATED_UNIVERSAL_TIME_OFFSET ( 1, 0, .AHEAD. ) ;
#250 = TOROIDAL_SURFACE ( 'NONE', #115, 5.300000000000000711, 0.2000000000000000111 ) ;
#251 = LOCAL_TIME ( 11, 39, 45.00000000000000000, #249 ) ;
#252 = CARTESIAN_POINT ( 'NONE',  ( -5.300000000000000711, 6.490628035480972910E-16, 5.199999999999996625 ) ) ;
#253 = ORIENTED_EDGE ( 'NONE', *, *, #270, .T. ) ;
#254 = LOCAL_TIME ( 11, 39, 45.00000000000000000, #283 ) ;
#255 = DIRECTION ( 'NONE',  ( -0.000000000000000000, -0.000000000000000000, -1.000000000000000000 ) ) ;
#256 = DIRECTION ( 'NONE',  ( 0.000000000000000000, 0.000000000000000000, 1.000000000000000000 ) ) ;
#257 = EDGE_CURVE ( 'NONE', #152, #205, #229, .T. ) ;
#258 = CARTESIAN_POINT ( 'NONE',  ( 0.000000000000000000, 0.000000000000000000, 130.0000000000000000 ) ) ;
#259 = CIRCLE ( 'NONE', #33, 8.000000000000000000 ) ;
#260 = DIRECTION ( 'NONE',  ( 0.000000000000000000, 0.000000000000000000, 1.000000000000000000 ) ) ;
#261 = CALENDAR_DATE ( 2022, 20, 6 ) ;
#262 = DIRECTION ( 'NONE',  ( 1.000000000000000000, 0.000000000000000000, 0.000000000000000000 ) ) ;
#263 = DIRECTION ( 'NONE',  ( 1.000000000000000000, 0.000000000000000000, -0.000000000000000000 ) ) ;
#264 = DIRECTION ( 'NONE',  ( -1.000000000000000000, 0.000000000000000000, 0.000000000000000000 ) ) ;
#265 = CIRCLE ( 'NONE', #171, 5.300000000000000711 ) ;
#266 = ADVANCED_FACE ( 'NONE', ( #175 ), #273, .T. ) ;
#267 = DIRECTION ( 'NONE',  ( -0.000000000000000000, -0.000000000000000000, -1.000000000000000000 ) ) ;
#268 = CC_DESIGN_PERSON_AND_ORGANIZATION_ASSIGNMENT ( #103, #147, ( #177 ) ) ;
#269 = CARTESIAN_POINT ( 'NONE',  ( 0.000000000000000000, 0.000000000000000000, 130.0000000000000000 ) ) ;
#270 = EDGE_CURVE ( 'NONE', #164, #276, #219, .T. ) ;
#271 = MECHANICAL_CONTEXT ( 'NONE', #198, 'mechanical' ) ;
#272 = AXIS2_PLACEMENT_3D ( 'NONE', #49, #150, #282 ) ;
#273 = PLANE ( 'NONE',  #58 ) ;
#274 = VECTOR ( 'NONE', #305, 1000.000000000000000 ) ;
#275 = ORIENTED_EDGE ( 'NONE', *, *, #244, .F. ) ;
#276 = VERTEX_POINT ( 'NONE', #1 ) ;
#277 = VERTEX_POINT ( 'NONE', #82 ) ;
#278 = CYLINDRICAL_SURFACE ( 'NONE', #108, 5.100000000000001421 ) ;
#279 = APPROVAL_PERSON_ORGANIZATION ( #22, #4, #224 ) ;
#280 = ORIENTED_EDGE ( 'NONE', *, *, #30, .F. ) ;
#281 = ORIENTED_EDGE ( 'NONE', *, *, #206, .T. ) ;
#282 = DIRECTION ( 'NONE',  ( 1.000000000000000000, 0.000000000000000000, 0.000000000000000000 ) ) ;
#283 = COORDINATED_UNIVERSAL_TIME_OFFSET ( 1, 0, .AHEAD. ) ;
#284 = CARTESIAN_POINT ( 'NONE',  ( 5.300000000000000711, 0.000000000000000000, 5.199999999999996625 ) ) ;
#285 = DIRECTION ( 'NONE',  ( 0.000000000000000000, 0.000000000000000000, 1.000000000000000000 ) ) ;
#286 = CARTESIAN_POINT ( 'NONE',  ( -5.300000000000000711, 6.490628035480971924E-16, 4.999999999999998224 ) ) ;
#287 = CALENDAR_DATE ( 2022, 20, 6 ) ;
#288 = CC_DESIGN_DATE_AND_TIME_ASSIGNMENT ( #216, #48, ( #186 ) ) ;
#289 = COORDINATED_UNIVERSAL_TIME_OFFSET ( 1, 0, .AHEAD. ) ;
#290 = DATE_AND_TIME ( #28, #251 ) ;
#291 = EDGE_LOOP ( 'NONE', ( #200, #34, #208, #220 ) ) ;
#292 = CC_DESIGN_APPROVAL ( #4, ( #186 ) ) ;
#293 = ADVANCED_FACE ( 'NONE', ( #81 ), #52, .T. ) ;
#294 = EDGE_LOOP ( 'NONE', ( #275, #6 ) ) ;
#295 = ORIENTED_EDGE ( 'NONE', *, *, #210, .F. ) ;
#296 = ORIENTED_EDGE ( 'NONE', *, *, #92, .T. ) ;
#297 = ORIENTED_EDGE ( 'NONE', *, *, #127, .T. ) ;
#298 = ORIENTED_EDGE ( 'NONE', *, *, #15, .T. ) ;
#299 = APPROVAL ( #51, 'NEURÈENÝ' ) ;
#300 = DIRECTION ( 'NONE',  ( -0.000000000000000000, -0.000000000000000000, -1.000000000000000000 ) ) ;
#301 = DIRECTION ( 'NONE',  ( -0.000000000000000000, -0.000000000000000000, -1.000000000000000000 ) ) ;
#302 = APPROVAL_ROLE ( '' ) ;
#303 = DIRECTION ( 'NONE',  ( 1.000000000000000000, 0.000000000000000000, 0.000000000000000000 ) ) ;
#304 = VECTOR ( 'NONE', #132, 1000.000000000000000 ) ;
#305 = DIRECTION ( 'NONE',  ( -0.000000000000000000, -0.000000000000000000, -1.000000000000000000 ) ) ;
#306 = APPROVAL_DATE_TIME ( #77, #126 ) ;
#307 = FACE_OUTER_BOUND ( 'NONE', #135, .T. ) ;
ENDSEC;
END-ISO-10303-21;
