ISO-10303-21;
HEADER;
FILE_DESCRIPTION (( 'STEP AP203' ),
    '1' );
FILE_NAME ('db92.STEP',
    '2022-06-20T09:43:05',
    ( '' ),
    ( '' ),
    'SwSTEP 2.0',
    'SolidWorks 2019',
    '' );
FILE_SCHEMA (( 'CONFIG_CONTROL_DESIGN' ));
ENDSEC;

DATA;
#1 = FACE_OUTER_BOUND ( 'NONE', #244, .T. ) ;
#2 = CALENDAR_DATE ( 2022, 20, 6 ) ;
#3 = ORIENTED_EDGE ( 'NONE', *, *, #262, .F. ) ;
#4 = TOROIDAL_SURFACE ( 'NONE', #19, 4.700000000000000178, 0.2000000000000000111 ) ;
#5 = APPROVAL_ROLE ( '' ) ;
#6 = FACE_OUTER_BOUND ( 'NONE', #192, .T. ) ;
#7 = CC_DESIGN_PERSON_AND_ORGANIZATION_ASSIGNMENT ( #58, #30, ( #256 ) ) ;
#8 = COORDINATED_UNIVERSAL_TIME_OFFSET ( 1, 0, .AHEAD. ) ;
#9 = EDGE_LOOP ( 'NONE', ( #174, #28, #103, #257 ) ) ;
#10 = DIRECTION ( 'NONE',  ( -0.000000000000000000, -0.000000000000000000, -1.000000000000000000 ) ) ;
#11 = CYLINDRICAL_SURFACE ( 'NONE', #60, 4.500000000000000888 ) ;
#12 = DIRECTION ( 'NONE',  ( 0.000000000000000000, 0.000000000000000000, 1.000000000000000000 ) ) ;
#13 = LINE ( 'NONE', #111, #270 ) ;
#14 = DIRECTION ( 'NONE',  ( -1.000000000000000000, 0.000000000000000000, 0.000000000000000000 ) ) ;
#15 = CIRCLE ( 'NONE', #190, 4.500000000000000888 ) ;
#16 = CALENDAR_DATE ( 2022, 20, 6 ) ;
#17 = DIRECTION ( 'NONE',  ( 1.000000000000000000, 0.000000000000000000, 0.000000000000000000 ) ) ;
#18 = ORIENTED_EDGE ( 'NONE', *, *, #100, .F. ) ;
#19 = AXIS2_PLACEMENT_3D ( 'NONE', #292, #82, #36 ) ;
#20 = DIRECTION ( 'NONE',  ( 0.000000000000000000, 0.000000000000000000, 1.000000000000000000 ) ) ;
#21 = ORIENTED_EDGE ( 'NONE', *, *, #110, .T. ) ;
#22 =( NAMED_UNIT ( * ) PLANE_ANGLE_UNIT ( ) SI_UNIT ( $, .RADIAN. ) );
#23 = CIRCLE ( 'NONE', #306, 7.000000000000000000 ) ;
#24 = DIRECTION ( 'NONE',  ( -0.000000000000000000, -0.000000000000000000, -1.000000000000000000 ) ) ;
#25 = APPROVAL_PERSON_ORGANIZATION ( #67, #94, #239 ) ;
#26 = CC_DESIGN_APPROVAL ( #287, ( #53 ) ) ;
#27 = EDGE_CURVE ( 'NONE', #115, #197, #268, .T. ) ;
#28 = ORIENTED_EDGE ( 'NONE', *, *, #56, .T. ) ;
#29 = DIRECTION ( 'NONE',  ( -0.000000000000000000, -0.000000000000000000, -1.000000000000000000 ) ) ;
#30 = PERSON_AND_ORGANIZATION_ROLE ( 'classification_officer' ) ;
#31 = DIRECTION ( 'NONE',  ( 1.000000000000000000, 0.000000000000000000, 0.000000000000000000 ) ) ;
#32 = CC_DESIGN_PERSON_AND_ORGANIZATION_ASSIGNMENT ( #282, #96, ( #108 ) ) ;
#33 = AXIS2_PLACEMENT_3D ( 'NONE', #69, #20, #117 ) ;
#34 = COORDINATED_UNIVERSAL_TIME_OFFSET ( 1, 0, .AHEAD. ) ;
#35 = ORIENTED_EDGE ( 'NONE', *, *, #66, .F. ) ;
#36 = DIRECTION ( 'NONE',  ( 1.000000000000000000, 0.000000000000000000, 0.000000000000000000 ) ) ;
#37 = DIRECTION ( 'NONE',  ( 0.000000000000000000, 0.000000000000000000, 1.000000000000000000 ) ) ;
#38 = CC_DESIGN_DATE_AND_TIME_ASSIGNMENT ( #304, #93, ( #144 ) ) ;
#39 = PLANE ( 'NONE',  #169 ) ;
#40 = DIRECTION ( 'NONE',  ( -1.000000000000000000, 0.000000000000000000, 0.000000000000000000 ) ) ;
#41 = LINE ( 'NONE', #252, #68 ) ;
#42 = DIRECTION ( 'NONE',  ( 0.000000000000000000, 0.000000000000000000, 1.000000000000000000 ) ) ;
#43 = AXIS2_PLACEMENT_3D ( 'NONE', #48, #91, #218 ) ;
#44 = APPLICATION_PROTOCOL_DEFINITION ( 'international standard', 'config_control_design', 1994, #132 ) ;
#45 = VERTEX_POINT ( 'NONE', #148 ) ;
#46 = FACE_OUTER_BOUND ( 'NONE', #289, .T. ) ;
#47 = PERSON ( 'NEURÈENÝ', 'NEURÈENÝ', 'NEURÈENÝ', ('NEURÈENÝ'), ('NEURÈENÝ'), ('NEURÈENÝ') ) ;
#48 = CARTESIAN_POINT ( 'NONE',  ( 0.000000000000000000, 0.000000000000000000, 5.000000000000000000 ) ) ;
#49 = FACE_OUTER_BOUND ( 'NONE', #165, .T. ) ;
#50 = APPLICATION_CONTEXT ( 'configuration controlled 3d designs of mechanical parts and assemblies' ) ;
#51 = ADVANCED_FACE ( 'NONE', ( #1 ), #125, .T. ) ;
#52 = VERTEX_POINT ( 'NONE', #267 ) ;
#53 = PRODUCT_DEFINITION_FORMATION_WITH_SPECIFIED_SOURCE ( 'LIBOVOLNÝ', '', #108, .NOT_KNOWN. ) ;
#54 = DIRECTION ( 'NONE',  ( 1.000000000000000000, 0.000000000000000000, 0.000000000000000000 ) ) ;
#55 = PERSON_AND_ORGANIZATION ( #47, #160 ) ;
#56 = EDGE_CURVE ( 'NONE', #76, #45, #290, .T. ) ;
#57 = CARTESIAN_POINT ( 'NONE',  ( 0.000000000000000000, 0.000000000000000000, 405.0000000000000000 ) ) ;
#58 = PERSON_AND_ORGANIZATION ( #47, #160 ) ;
#59 = AXIS2_PLACEMENT_3D ( 'NONE', #294, #274, #298 ) ;
#60 = AXIS2_PLACEMENT_3D ( 'NONE', #204, #253, #40 ) ;
#61 = EDGE_LOOP ( 'NONE', ( #224, #75 ) ) ;
#62 = CARTESIAN_POINT ( 'NONE',  ( -4.700000000000000178, 5.755839955992559655E-16, 4.999999999999991118 ) ) ;
#63 = DIRECTION ( 'NONE',  ( -1.000000000000000000, 1.224646799147353454E-16, 0.000000000000000000 ) ) ;
#64 = DIRECTION ( 'NONE',  ( 0.000000000000000000, 0.000000000000000000, 1.000000000000000000 ) ) ;
#65 = CYLINDRICAL_SURFACE ( 'NONE', #155, 7.000000000000000000 ) ;
#66 = EDGE_CURVE ( 'NONE', #102, #173, #213, .T. ) ;
#67 = PERSON_AND_ORGANIZATION ( #47, #160 ) ;
#68 = VECTOR ( 'NONE', #10, 1000.000000000000000 ) ;
#69 = CARTESIAN_POINT ( 'NONE',  ( 0.000000000000000000, 0.000000000000000000, 5.000000000000000000 ) ) ;
#70 = CC_DESIGN_PERSON_AND_ORGANIZATION_ASSIGNMENT ( #195, #247, ( #53 ) ) ;
#71 = APPROVAL_STATUS ( 'not_yet_approved' ) ;
#72 = CARTESIAN_POINT ( 'NONE',  ( 0.000000000000000000, 0.000000000000000000, 0.000000000000000000 ) ) ;
#73 = EDGE_LOOP ( 'NONE', ( #211, #138 ) ) ;
#74 = SHAPE_DEFINITION_REPRESENTATION ( #272, #101 ) ;
#75 = ORIENTED_EDGE ( 'NONE', *, *, #66, .T. ) ;
#76 = VERTEX_POINT ( 'NONE', #127 ) ;
#77 = APPROVAL_DATE_TIME ( #166, #287 ) ;
#78 = VERTEX_POINT ( 'NONE', #227 ) ;
#79 = AXIS2_PLACEMENT_3D ( 'NONE', #206, #178, #250 ) ;
#80 = ORIENTED_EDGE ( 'NONE', *, *, #104, .F. ) ;
#81 =( GEOMETRIC_REPRESENTATION_CONTEXT ( 3 ) GLOBAL_UNCERTAINTY_ASSIGNED_CONTEXT ( ( #83 ) ) GLOBAL_UNIT_ASSIGNED_CONTEXT ( ( #139, #22, #243 ) ) REPRESENTATION_CONTEXT ( 'NONE', 'WORKASPACE' ) );
#82 = DIRECTION ( 'NONE',  ( 0.000000000000000000, 0.000000000000000000, 1.000000000000000000 ) ) ;
#83 = UNCERTAINTY_MEASURE_WITH_UNIT (LENGTH_MEASURE( 1.000000000000000082E-05 ), #139, 'distance_accuracy_value', 'NONE');
#84 = DIRECTION ( 'NONE',  ( 0.000000000000000000, 0.000000000000000000, 1.000000000000000000 ) ) ;
#85 = CARTESIAN_POINT ( 'NONE',  ( 0.000000000000000000, 0.000000000000000000, 5.199999999999982414 ) ) ;
#86 = AXIS2_PLACEMENT_3D ( 'NONE', #131, #129, #63 ) ;
#87 = ADVANCED_FACE ( 'NONE', ( #6 ), #4, .F. ) ;
#88 = CIRCLE ( 'NONE', #307, 7.000000000000000000 ) ;
#89 = DIRECTION ( 'NONE',  ( 1.000000000000000000, 0.000000000000000000, 0.000000000000000000 ) ) ;
#90 = DIRECTION ( 'NONE',  ( 0.000000000000000000, 0.000000000000000000, 1.000000000000000000 ) ) ;
#91 = DIRECTION ( 'NONE',  ( -0.000000000000000000, -0.000000000000000000, -1.000000000000000000 ) ) ;
#92 = VERTEX_POINT ( 'NONE', #179 ) ;
#93 = DATE_TIME_ROLE ( 'creation_date' ) ;
#94 = APPROVAL ( #158, 'NEURÈENÝ' ) ;
#95 = PRODUCT_RELATED_PRODUCT_CATEGORY ( 'detail', '', ( #108 ) ) ;
#96 = PERSON_AND_ORGANIZATION_ROLE ( 'design_owner' ) ;
#97 = AXIS2_PLACEMENT_3D ( 'NONE', #133, #90, #181 ) ;
#98 = ORIENTED_EDGE ( 'NONE', *, *, #56, .F. ) ;
#99 = CARTESIAN_POINT ( 'NONE',  ( 0.000000000000000000, 0.000000000000000000, 5.000000000000000000 ) ) ;
#100 = EDGE_CURVE ( 'NONE', #52, #115, #194, .T. ) ;
#101 = ADVANCED_BREP_SHAPE_REPRESENTATION ( 'db92', ( #196, #202 ), #81 ) ;
#102 = VERTEX_POINT ( 'NONE', #105 ) ;
#103 = ORIENTED_EDGE ( 'NONE', *, *, #230, .T. ) ;
#104 = EDGE_CURVE ( 'NONE', #102, #149, #41, .T. ) ;
#105 = CARTESIAN_POINT ( 'NONE',  ( 4.500000000000000888, 5.510910596163089556E-16, 405.0000000000000000 ) ) ;
#106 = VECTOR ( 'NONE', #276, 1000.000000000000000 ) ;
#107 = DIRECTION ( 'NONE',  ( 0.000000000000000000, 0.000000000000000000, 1.000000000000000000 ) ) ;
#108 = PRODUCT ( 'db92', 'db92', '', ( #188 ) ) ;
#109 = FACE_OUTER_BOUND ( 'NONE', #162, .T. ) ;
#110 = EDGE_CURVE ( 'NONE', #92, #76, #23, .T. ) ;
#111 = CARTESIAN_POINT ( 'NONE',  ( -4.500000000000000888, 0.000000000000000000, 405.0000000000000000 ) ) ;
#112 = DIRECTION ( 'NONE',  ( 0.000000000000000000, 0.000000000000000000, 1.000000000000000000 ) ) ;
#113 = PERSON_AND_ORGANIZATION_ROLE ( 'creator' ) ;
#114 = ADVANCED_FACE ( 'NONE', ( #109 ), #278, .T. ) ;
#115 = VERTEX_POINT ( 'NONE', #62 ) ;
#116 = AXIS2_PLACEMENT_3D ( 'NONE', #57, #248, #31 ) ;
#117 = DIRECTION ( 'NONE',  ( 1.000000000000000000, 0.000000000000000000, -0.000000000000000000 ) ) ;
#118 = CIRCLE ( 'NONE', #260, 4.500000000000000888 ) ;
#119 = ORIENTED_EDGE ( 'NONE', *, *, #172, .T. ) ;
#120 = CARTESIAN_POINT ( 'NONE',  ( 0.000000000000000000, 0.000000000000000000, 0.000000000000000000 ) ) ;
#121 = EDGE_CURVE ( 'NONE', #149, #52, #291, .T. ) ;
#122 = DATE_AND_TIME ( #2, #208 ) ;
#123 = ORIENTED_EDGE ( 'NONE', *, *, #300, .T. ) ;
#124 = DATE_AND_TIME ( #266, #203 ) ;
#125 = CYLINDRICAL_SURFACE ( 'NONE', #225, 4.500000000000000888 ) ;
#126 = ORIENTED_EDGE ( 'NONE', *, *, #104, .T. ) ;
#127 = CARTESIAN_POINT ( 'NONE',  ( 7.000000000000000000, 8.572527594031473190E-16, 5.000000000000000000 ) ) ;
#128 = CALENDAR_DATE ( 2022, 20, 6 ) ;
#129 = DIRECTION ( 'NONE',  ( 1.224646799147353207E-16, 1.000000000000000000, -0.000000000000000000 ) ) ;
#130 = CARTESIAN_POINT ( 'NONE',  ( -7.000000000000000000, 0.000000000000000000, 5.000000000000000000 ) ) ;
#131 = CARTESIAN_POINT ( 'NONE',  ( -4.700000000000000178, 5.755839955992559655E-16, 5.199999999999982414 ) ) ;
#132 = APPLICATION_CONTEXT ( 'configuration controlled 3d designs of mechanical parts and assemblies' ) ;
#133 = CARTESIAN_POINT ( 'NONE',  ( 0.000000000000000000, 0.000000000000000000, 0.000000000000000000 ) ) ;
#134 = DIRECTION ( 'NONE',  ( -0.000000000000000000, -0.000000000000000000, -1.000000000000000000 ) ) ;
#135 = CIRCLE ( 'NONE', #219, 0.1999999999999996503 ) ;
#136 = ADVANCED_FACE ( 'NONE', ( #180 ), #231, .F. ) ;
#137 = DIRECTION ( 'NONE',  ( 1.000000000000000000, 0.000000000000000000, 0.000000000000000000 ) ) ;
#138 = ORIENTED_EDGE ( 'NONE', *, *, #27, .T. ) ;
#139 =( LENGTH_UNIT ( ) NAMED_UNIT ( * ) SI_UNIT ( .MILLI., .METRE. ) );
#140 = DIRECTION ( 'NONE',  ( 0.000000000000000000, -1.000000000000000000, 0.000000000000000000 ) ) ;
#141 = PERSON_AND_ORGANIZATION_ROLE ( 'design_supplier' ) ;
#142 = ORIENTED_EDGE ( 'NONE', *, *, #159, .F. ) ;
#143 = CC_DESIGN_APPROVAL ( #94, ( #144 ) ) ;
#144 = PRODUCT_DEFINITION ( 'NEZNÁMÝ', '', #53, #176 ) ;
#145 = APPROVAL_STATUS ( 'not_yet_approved' ) ;
#146 = ORIENTED_EDGE ( 'NONE', *, *, #262, .T. ) ;
#147 = DATE_TIME_ROLE ( 'classification_date' ) ;
#148 = CARTESIAN_POINT ( 'NONE',  ( 7.000000000000000000, 8.572527594031473190E-16, 0.000000000000000000 ) ) ;
#149 = VERTEX_POINT ( 'NONE', #152 ) ;
#150 = CC_DESIGN_PERSON_AND_ORGANIZATION_ASSIGNMENT ( #184, #113, ( #144 ) ) ;
#151 = DIRECTION ( 'NONE',  ( 1.000000000000000000, 0.000000000000000000, 0.000000000000000000 ) ) ;
#152 = CARTESIAN_POINT ( 'NONE',  ( 4.500000000000000888, 5.510910596163089556E-16, 5.199999999999982414 ) ) ;
#153 = APPROVAL ( #145, 'NEURÈENÝ' ) ;
#154 = CARTESIAN_POINT ( 'NONE',  ( 0.000000000000000000, 0.000000000000000000, 405.0000000000000000 ) ) ;
#155 = AXIS2_PLACEMENT_3D ( 'NONE', #157, #255, #14 ) ;
#156 = FACE_OUTER_BOUND ( 'NONE', #222, .T. ) ;
#157 = CARTESIAN_POINT ( 'NONE',  ( 0.000000000000000000, 0.000000000000000000, 5.000000000000000000 ) ) ;
#158 = APPROVAL_STATUS ( 'not_yet_approved' ) ;
#159 = EDGE_CURVE ( 'NONE', #173, #102, #118, .T. ) ;
#160 = ORGANIZATION ( 'NEURÈENÝ', 'NEURÈENÝ', '' ) ;
#161 = DIRECTION ( 'NONE',  ( 0.000000000000000000, 0.000000000000000000, 1.000000000000000000 ) ) ;
#162 = EDGE_LOOP ( 'NONE', ( #98, #286, #301, #146 ) ) ;
#163 = DIRECTION ( 'NONE',  ( 1.000000000000000000, 0.000000000000000000, 0.000000000000000000 ) ) ;
#164 = CIRCLE ( 'NONE', #43, 4.700000000000000178 ) ;
#165 = EDGE_LOOP ( 'NONE', ( #21, #199 ) ) ;
#166 = DATE_AND_TIME ( #128, #233 ) ;
#167 = CARTESIAN_POINT ( 'NONE',  ( 7.000000000000000000, 8.572527594031473190E-16, 5.000000000000000000 ) ) ;
#168 = DIRECTION ( 'NONE',  ( -0.000000000000000000, -0.000000000000000000, -1.000000000000000000 ) ) ;
#169 = AXIS2_PLACEMENT_3D ( 'NONE', #229, #37, #235 ) ;
#170 = ORIENTED_EDGE ( 'NONE', *, *, #100, .T. ) ;
#171 = SECURITY_CLASSIFICATION_LEVEL ( 'unclassified' ) ;
#172 = EDGE_CURVE ( 'NONE', #52, #149, #15, .T. ) ;
#173 = VERTEX_POINT ( 'NONE', #207 ) ;
#174 = ORIENTED_EDGE ( 'NONE', *, *, #205, .F. ) ;
#175 = CIRCLE ( 'NONE', #232, 7.000000000000000000 ) ;
#176 = DESIGN_CONTEXT ( 'detailed design', #50, 'design' ) ;
#177 = APPROVAL_PERSON_ORGANIZATION ( #221, #153, #5 ) ;
#178 = DIRECTION ( 'NONE',  ( -0.000000000000000000, -0.000000000000000000, -1.000000000000000000 ) ) ;
#179 = CARTESIAN_POINT ( 'NONE',  ( -7.000000000000000000, 0.000000000000000000, 5.000000000000000000 ) ) ;
#180 = FACE_OUTER_BOUND ( 'NONE', #228, .T. ) ;
#181 = DIRECTION ( 'NONE',  ( 1.000000000000000000, 0.000000000000000000, 0.000000000000000000 ) ) ;
#182 = LINE ( 'NONE', #130, #106 ) ;
#183 = ADVANCED_FACE ( 'NONE', ( #251 ), #39, .T. ) ;
#184 = PERSON_AND_ORGANIZATION ( #47, #160 ) ;
#185 = AXIS2_PLACEMENT_3D ( 'NONE', #99, #24, #54 ) ;
#186 = TOROIDAL_SURFACE ( 'NONE', #296, 4.700000000000000178, 0.2000000000000000111 ) ;
#187 = PERSON_AND_ORGANIZATION ( #47, #160 ) ;
#188 = MECHANICAL_CONTEXT ( 'NONE', #132, 'mechanical' ) ;
#189 = APPLICATION_PROTOCOL_DEFINITION ( 'international standard', 'config_control_design', 1994, #50 ) ;
#190 = AXIS2_PLACEMENT_3D ( 'NONE', #85, #112, #295 ) ;
#191 = EDGE_CURVE ( 'NONE', #92, #78, #182, .T. ) ;
#192 = EDGE_LOOP ( 'NONE', ( #249, #170, #265, #200 ) ) ;
#193 = CARTESIAN_POINT ( 'NONE',  ( 0.000000000000000000, 0.000000000000000000, 405.0000000000000000 ) ) ;
#194 = CIRCLE ( 'NONE', #86, 0.1999999999999996503 ) ;
#195 = PERSON_AND_ORGANIZATION ( #47, #160 ) ;
#196 = MANIFOLD_SOLID_BREP ( 'Zaoblit1', #275 ) ;
#197 = VERTEX_POINT ( 'NONE', #234 ) ;
#198 = ADVANCED_FACE ( 'NONE', ( #156 ), #11, .T. ) ;
#199 = ORIENTED_EDGE ( 'NONE', *, *, #205, .T. ) ;
#200 = ORIENTED_EDGE ( 'NONE', *, *, #300, .F. ) ;
#201 = CARTESIAN_POINT ( 'NONE',  ( 0.000000000000000000, 0.000000000000000000, 5.000000000000000000 ) ) ;
#202 = AXIS2_PLACEMENT_3D ( 'NONE', #120, #305, #17 ) ;
#203 = LOCAL_TIME ( 11, 43, 5.000000000000000000, #245 ) ;
#204 = CARTESIAN_POINT ( 'NONE',  ( 0.000000000000000000, 0.000000000000000000, 405.0000000000000000 ) ) ;
#205 = EDGE_CURVE ( 'NONE', #76, #92, #175, .T. ) ;
#206 = CARTESIAN_POINT ( 'NONE',  ( 0.000000000000000000, 0.000000000000000000, 5.000000000000000000 ) ) ;
#207 = CARTESIAN_POINT ( 'NONE',  ( -4.500000000000000888, 0.000000000000000000, 405.0000000000000000 ) ) ;
#208 = LOCAL_TIME ( 11, 43, 5.000000000000000000, #8 ) ;
#209 = DIRECTION ( 'NONE',  ( 1.000000000000000000, 0.000000000000000000, 0.000000000000000000 ) ) ;
#210 = DATE_AND_TIME ( #16, #281 ) ;
#211 = ORIENTED_EDGE ( 'NONE', *, *, #280, .T. ) ;
#212 = COORDINATED_UNIVERSAL_TIME_OFFSET ( 1, 0, .AHEAD. ) ;
#213 = CIRCLE ( 'NONE', #116, 4.500000000000000888 ) ;
#214 = CC_DESIGN_DATE_AND_TIME_ASSIGNMENT ( #124, #147, ( #256 ) ) ;
#215 = ORIENTED_EDGE ( 'NONE', *, *, #121, .T. ) ;
#216 = APPROVAL_PERSON_ORGANIZATION ( #187, #287, #226 ) ;
#217 = FACE_BOUND ( 'NONE', #73, .T. ) ;
#218 = DIRECTION ( 'NONE',  ( 1.000000000000000000, 0.000000000000000000, 0.000000000000000000 ) ) ;
#219 = AXIS2_PLACEMENT_3D ( 'NONE', #261, #140, #241 ) ;
#220 = ORIENTED_EDGE ( 'NONE', *, *, #254, .T. ) ;
#221 = PERSON_AND_ORGANIZATION ( #47, #160 ) ;
#222 = EDGE_LOOP ( 'NONE', ( #35, #126, #215, #269 ) ) ;
#223 = APPROVAL_DATE_TIME ( #122, #153 ) ;
#224 = ORIENTED_EDGE ( 'NONE', *, *, #159, .T. ) ;
#225 = AXIS2_PLACEMENT_3D ( 'NONE', #193, #168, #264 ) ;
#226 = APPROVAL_ROLE ( '' ) ;
#227 = CARTESIAN_POINT ( 'NONE',  ( -7.000000000000000000, 0.000000000000000000, 0.000000000000000000 ) ) ;
#228 = EDGE_LOOP ( 'NONE', ( #3, #242 ) ) ;
#229 = CARTESIAN_POINT ( 'NONE',  ( 0.000000000000000000, 0.000000000000000000, 405.0000000000000000 ) ) ;
#230 = EDGE_CURVE ( 'NONE', #45, #78, #237, .T. ) ;
#231 = PLANE ( 'NONE',  #59 ) ;
#232 = AXIS2_PLACEMENT_3D ( 'NONE', #293, #84, #89 ) ;
#233 = LOCAL_TIME ( 11, 43, 5.000000000000000000, #34 ) ;
#234 = CARTESIAN_POINT ( 'NONE',  ( 4.700000000000000178, 0.000000000000000000, 4.999999999999991118 ) ) ;
#235 = DIRECTION ( 'NONE',  ( 1.000000000000000000, 0.000000000000000000, -0.000000000000000000 ) ) ;
#236 = DIRECTION ( 'NONE',  ( 1.000000000000000000, 0.000000000000000000, 0.000000000000000000 ) ) ;
#237 = CIRCLE ( 'NONE', #97, 7.000000000000000000 ) ;
#238 = LOCAL_TIME ( 11, 43, 5.000000000000000000, #212 ) ;
#239 = APPROVAL_ROLE ( '' ) ;
#240 = COORDINATED_UNIVERSAL_TIME_OFFSET ( 1, 0, .AHEAD. ) ;
#241 = DIRECTION ( 'NONE',  ( 0.000000000000000000, 0.000000000000000000, -1.000000000000000000 ) ) ;
#242 = ORIENTED_EDGE ( 'NONE', *, *, #230, .F. ) ;
#243 =( NAMED_UNIT ( * ) SI_UNIT ( $, .STERADIAN. ) SOLID_ANGLE_UNIT ( ) );
#244 = EDGE_LOOP ( 'NONE', ( #80, #142, #220, #119 ) ) ;
#245 = COORDINATED_UNIVERSAL_TIME_OFFSET ( 1, 0, .AHEAD. ) ;
#246 = ORIENTED_EDGE ( 'NONE', *, *, #121, .F. ) ;
#247 = PERSON_AND_ORGANIZATION_ROLE ( 'creator' ) ;
#248 = DIRECTION ( 'NONE',  ( 0.000000000000000000, 0.000000000000000000, 1.000000000000000000 ) ) ;
#249 = ORIENTED_EDGE ( 'NONE', *, *, #172, .F. ) ;
#250 = DIRECTION ( 'NONE',  ( -1.000000000000000000, 0.000000000000000000, 0.000000000000000000 ) ) ;
#251 = FACE_OUTER_BOUND ( 'NONE', #61, .T. ) ;
#252 = CARTESIAN_POINT ( 'NONE',  ( 4.500000000000000888, 5.510910596163089556E-16, 405.0000000000000000 ) ) ;
#253 = DIRECTION ( 'NONE',  ( -0.000000000000000000, -0.000000000000000000, -1.000000000000000000 ) ) ;
#254 = EDGE_CURVE ( 'NONE', #173, #52, #13, .T. ) ;
#255 = DIRECTION ( 'NONE',  ( -0.000000000000000000, -0.000000000000000000, -1.000000000000000000 ) ) ;
#256 = SECURITY_CLASSIFICATION ( '', '', #171 ) ;
#257 = ORIENTED_EDGE ( 'NONE', *, *, #191, .F. ) ;
#258 = ADVANCED_FACE ( 'NONE', ( #277 ), #65, .T. ) ;
#259 = CARTESIAN_POINT ( 'NONE',  ( 0.000000000000000000, 0.000000000000000000, 5.199999999999982414 ) ) ;
#260 = AXIS2_PLACEMENT_3D ( 'NONE', #154, #107, #151 ) ;
#261 = CARTESIAN_POINT ( 'NONE',  ( 4.700000000000000178, 0.000000000000000000, 5.199999999999982414 ) ) ;
#262 = EDGE_CURVE ( 'NONE', #78, #45, #88, .T. ) ;
#263 = CC_DESIGN_PERSON_AND_ORGANIZATION_ASSIGNMENT ( #55, #141, ( #53 ) ) ;
#264 = DIRECTION ( 'NONE',  ( -1.000000000000000000, 0.000000000000000000, 0.000000000000000000 ) ) ;
#265 = ORIENTED_EDGE ( 'NONE', *, *, #280, .F. ) ;
#266 = CALENDAR_DATE ( 2022, 20, 6 ) ;
#267 = CARTESIAN_POINT ( 'NONE',  ( -4.500000000000000888, 0.000000000000000000, 5.199999999999982414 ) ) ;
#268 = CIRCLE ( 'NONE', #185, 4.700000000000000178 ) ;
#269 = ORIENTED_EDGE ( 'NONE', *, *, #254, .F. ) ;
#270 = VECTOR ( 'NONE', #134, 1000.000000000000000 ) ;
#271 = ADVANCED_FACE ( 'NONE', ( #46 ), #186, .F. ) ;
#272 = PRODUCT_DEFINITION_SHAPE ( 'NONE', 'NONE',  #144 ) ;
#273 = CARTESIAN_POINT ( 'NONE',  ( 0.000000000000000000, 0.000000000000000000, 5.199999999999982414 ) ) ;
#274 = DIRECTION ( 'NONE',  ( 0.000000000000000000, 0.000000000000000000, 1.000000000000000000 ) ) ;
#275 = CLOSED_SHELL ( 'NONE', ( #87, #198, #258, #114, #284, #136, #51, #183, #271 ) ) ;
#276 = DIRECTION ( 'NONE',  ( -0.000000000000000000, -0.000000000000000000, -1.000000000000000000 ) ) ;
#277 = FACE_OUTER_BOUND ( 'NONE', #9, .T. ) ;
#278 = CYLINDRICAL_SURFACE ( 'NONE', #79, 7.000000000000000000 ) ;
#279 = ORIENTED_EDGE ( 'NONE', *, *, #27, .F. ) ;
#280 = EDGE_CURVE ( 'NONE', #197, #115, #164, .T. ) ;
#281 = LOCAL_TIME ( 11, 43, 5.000000000000000000, #240 ) ;
#282 = PERSON_AND_ORGANIZATION ( #47, #160 ) ;
#283 = PLANE ( 'NONE',  #33 ) ;
#284 = ADVANCED_FACE ( 'NONE', ( #217, #49 ), #283, .T. ) ;
#285 = AXIS2_PLACEMENT_3D ( 'NONE', #273, #64, #209 ) ;
#286 = ORIENTED_EDGE ( 'NONE', *, *, #110, .F. ) ;
#287 = APPROVAL ( #71, 'NEURÈENÝ' ) ;
#288 = CC_DESIGN_APPROVAL ( #153, ( #256 ) ) ;
#289 = EDGE_LOOP ( 'NONE', ( #18, #246, #123, #279 ) ) ;
#290 = LINE ( 'NONE', #167, #302 ) ;
#291 = CIRCLE ( 'NONE', #285, 4.500000000000000888 ) ;
#292 = CARTESIAN_POINT ( 'NONE',  ( 0.000000000000000000, 0.000000000000000000, 5.199999999999982414 ) ) ;
#293 = CARTESIAN_POINT ( 'NONE',  ( 0.000000000000000000, 0.000000000000000000, 5.000000000000000000 ) ) ;
#294 = CARTESIAN_POINT ( 'NONE',  ( 0.000000000000000000, 0.000000000000000000, 0.000000000000000000 ) ) ;
#295 = DIRECTION ( 'NONE',  ( 1.000000000000000000, 0.000000000000000000, 0.000000000000000000 ) ) ;
#296 = AXIS2_PLACEMENT_3D ( 'NONE', #259, #42, #137 ) ;
#297 = CC_DESIGN_SECURITY_CLASSIFICATION ( #256, ( #53 ) ) ;
#298 = DIRECTION ( 'NONE',  ( 1.000000000000000000, 0.000000000000000000, -0.000000000000000000 ) ) ;
#299 = APPROVAL_DATE_TIME ( #210, #94 ) ;
#300 = EDGE_CURVE ( 'NONE', #149, #197, #135, .T. ) ;
#301 = ORIENTED_EDGE ( 'NONE', *, *, #191, .T. ) ;
#302 = VECTOR ( 'NONE', #29, 1000.000000000000000 ) ;
#303 = CALENDAR_DATE ( 2022, 20, 6 ) ;
#304 = DATE_AND_TIME ( #303, #238 ) ;
#305 = DIRECTION ( 'NONE',  ( 0.000000000000000000, 0.000000000000000000, 1.000000000000000000 ) ) ;
#306 = AXIS2_PLACEMENT_3D ( 'NONE', #201, #12, #236 ) ;
#307 = AXIS2_PLACEMENT_3D ( 'NONE', #72, #161, #163 ) ;
ENDSEC;
END-ISO-10303-21;
