ISO-10303-21;
HEADER;
FILE_DESCRIPTION (( 'STEP AP203' ),
    '1' );
FILE_NAME ('4da8.STEP',
    '2022-06-20T10:08:17',
    ( '' ),
    ( '' ),
    'SwSTEP 2.0',
    'SolidWorks 2019',
    '' );
FILE_SCHEMA (( 'CONFIG_CONTROL_DESIGN' ));
ENDSEC;

DATA;
#1 = FACE_OUTER_BOUND ( 'NONE', #38, .T. ) ;
#2 = PERSON_AND_ORGANIZATION ( #48, #136 ) ;
#3 = CC_DESIGN_PERSON_AND_ORGANIZATION_ASSIGNMENT ( #17, #200, ( #258 ) ) ;
#4 = CALENDAR_DATE ( 2022, 20, 6 ) ;
#5 = AXIS2_PLACEMENT_3D ( 'NONE', #273, #250, #54 ) ;
#6 = PERSON_AND_ORGANIZATION_ROLE ( 'creator' ) ;
#7 = CALENDAR_DATE ( 2022, 20, 6 ) ;
#8 = ORIENTED_EDGE ( 'NONE', *, *, #28, .T. ) ;
#9 = APPLICATION_PROTOCOL_DEFINITION ( 'international standard', 'config_control_design', 1994, #288 ) ;
#10 = FACE_OUTER_BOUND ( 'NONE', #56, .T. ) ;
#11 = ORIENTED_EDGE ( 'NONE', *, *, #174, .F. ) ;
#12 = DIRECTION ( 'NONE',  ( -0.000000000000000000, -0.000000000000000000, -1.000000000000000000 ) ) ;
#13 = DIRECTION ( 'NONE',  ( 0.000000000000000000, 0.000000000000000000, 1.000000000000000000 ) ) ;
#14 = FACE_OUTER_BOUND ( 'NONE', #139, .T. ) ;
#15 = ORIENTED_EDGE ( 'NONE', *, *, #115, .F. ) ;
#16 = DATE_TIME_ROLE ( 'classification_date' ) ;
#17 = PERSON_AND_ORGANIZATION ( #48, #136 ) ;
#18 = CC_DESIGN_DATE_AND_TIME_ASSIGNMENT ( #166, #16, ( #286 ) ) ;
#19 = LINE ( 'NONE', #129, #254 ) ;
#20 = ORIENTED_EDGE ( 'NONE', *, *, #281, .T. ) ;
#21 = CARTESIAN_POINT ( 'NONE',  ( -2.300000000000000266, 2.816687638038912549E-16, 3.200000000000008171 ) ) ;
#22 = ORIENTED_EDGE ( 'NONE', *, *, #281, .F. ) ;
#23 = AXIS2_PLACEMENT_3D ( 'NONE', #75, #39, #61 ) ;
#24 = APPLICATION_PROTOCOL_DEFINITION ( 'international standard', 'config_control_design', 1994, #282 ) ;
#25 = DIRECTION ( 'NONE',  ( 1.000000000000000000, 0.000000000000000000, 0.000000000000000000 ) ) ;
#26 = CARTESIAN_POINT ( 'NONE',  ( 0.000000000000000000, 0.000000000000000000, 3.000000000000000000 ) ) ;
#27 = DIRECTION ( 'NONE',  ( 1.000000000000000000, 0.000000000000000000, 0.000000000000000000 ) ) ;
#28 = EDGE_CURVE ( 'NONE', #275, #253, #152, .T. ) ;
#29 = VECTOR ( 'NONE', #12, 1000.000000000000000 ) ;
#30 = ADVANCED_FACE ( 'NONE', ( #14 ), #55, .F. ) ;
#31 = AXIS2_PLACEMENT_3D ( 'NONE', #235, #306, #114 ) ;
#32 = CARTESIAN_POINT ( 'NONE',  ( 2.100000000000000089, 2.571758278209441957E-16, 163.0000000000000000 ) ) ;
#33 = DIRECTION ( 'NONE',  ( 1.000000000000000000, 0.000000000000000000, 0.000000000000000000 ) ) ;
#34 = CC_DESIGN_PERSON_AND_ORGANIZATION_ASSIGNMENT ( #259, #231, ( #286 ) ) ;
#35 = DIRECTION ( 'NONE',  ( -0.000000000000000000, -0.000000000000000000, -1.000000000000000000 ) ) ;
#36 = DIRECTION ( 'NONE',  ( 1.000000000000000000, 0.000000000000000000, 0.000000000000000000 ) ) ;
#37 = TOROIDAL_SURFACE ( 'NONE', #293, 2.300000000000000266, 0.2000000000000000111 ) ;
#38 = EDGE_LOOP ( 'NONE', ( #8, #133 ) ) ;
#39 = DIRECTION ( 'NONE',  ( 0.000000000000000000, 0.000000000000000000, 1.000000000000000000 ) ) ;
#40 = ORIENTED_EDGE ( 'NONE', *, *, #170, .F. ) ;
#41 = AXIS2_PLACEMENT_3D ( 'NONE', #83, #248, #184 ) ;
#42 = CARTESIAN_POINT ( 'NONE',  ( 0.000000000000000000, 0.000000000000000000, 0.000000000000000000 ) ) ;
#43 = PRODUCT_DEFINITION_SHAPE ( 'NONE', 'NONE',  #178 ) ;
#44 = ORIENTED_EDGE ( 'NONE', *, *, #194, .F. ) ;
#45 = CARTESIAN_POINT ( 'NONE',  ( 0.000000000000000000, 0.000000000000000000, 3.200000000000008171 ) ) ;
#46 = CARTESIAN_POINT ( 'NONE',  ( 0.000000000000000000, 0.000000000000000000, 0.000000000000000000 ) ) ;
#47 = CC_DESIGN_SECURITY_CLASSIFICATION ( #286, ( #258 ) ) ;
#48 = PERSON ( 'NEURÈENÝ', 'NEURÈENÝ', 'NEURÈENÝ', ('NEURÈENÝ'), ('NEURÈENÝ'), ('NEURÈENÝ') ) ;
#49 = MECHANICAL_CONTEXT ( 'NONE', #282, 'mechanical' ) ;
#50 = COORDINATED_UNIVERSAL_TIME_OFFSET ( 1, 0, .AHEAD. ) ;
#51 = AXIS2_PLACEMENT_3D ( 'NONE', #57, #155, #78 ) ;
#52 = PERSON_AND_ORGANIZATION ( #48, #136 ) ;
#53 = ADVANCED_FACE ( 'NONE', ( #81 ), #103, .T. ) ;
#54 = DIRECTION ( 'NONE',  ( 1.000000000000000000, 0.000000000000000000, 0.000000000000000000 ) ) ;
#55 = TOROIDAL_SURFACE ( 'NONE', #271, 2.300000000000000266, 0.2000000000000000111 ) ;
#56 = EDGE_LOOP ( 'NONE', ( #255, #15, #301, #40 ) ) ;
#57 = CARTESIAN_POINT ( 'NONE',  ( 0.000000000000000000, 0.000000000000000000, 3.000000000000000000 ) ) ;
#58 = ORIENTED_EDGE ( 'NONE', *, *, #137, .F. ) ;
#59 = EDGE_CURVE ( 'NONE', #124, #158, #204, .T. ) ;
#60 = ORIENTED_EDGE ( 'NONE', *, *, #59, .T. ) ;
#61 = DIRECTION ( 'NONE',  ( 1.000000000000000000, 0.000000000000000000, 0.000000000000000000 ) ) ;
#62 = VERTEX_POINT ( 'NONE', #227 ) ;
#63 = DIRECTION ( 'NONE',  ( 1.000000000000000000, 0.000000000000000000, -0.000000000000000000 ) ) ;
#64 = ORIENTED_EDGE ( 'NONE', *, *, #287, .F. ) ;
#65 = CIRCLE ( 'NONE', #230, 2.100000000000000089 ) ;
#66 = FACE_OUTER_BOUND ( 'NONE', #130, .T. ) ;
#67 = CC_DESIGN_PERSON_AND_ORGANIZATION_ASSIGNMENT ( #52, #98, ( #258 ) ) ;
#68 = APPROVAL_DATE_TIME ( #118, #261 ) ;
#69 = APPROVAL_ROLE ( '' ) ;
#70 = DATE_TIME_ROLE ( 'creation_date' ) ;
#71 = COORDINATED_UNIVERSAL_TIME_OFFSET ( 1, 0, .AHEAD. ) ;
#72 = CIRCLE ( 'NONE', #243, 0.2000000000000000944 ) ;
#73 = CC_DESIGN_APPROVAL ( #217, ( #178 ) ) ;
#74 = APPROVAL ( #123, 'NEURÈENÝ' ) ;
#75 = CARTESIAN_POINT ( 'NONE',  ( 0.000000000000000000, 0.000000000000000000, 3.000000000000000000 ) ) ;
#76 = ORIENTED_EDGE ( 'NONE', *, *, #115, .T. ) ;
#77 = CARTESIAN_POINT ( 'NONE',  ( 0.000000000000000000, 0.000000000000000000, 3.200000000000008171 ) ) ;
#78 = DIRECTION ( 'NONE',  ( -1.000000000000000000, 0.000000000000000000, 0.000000000000000000 ) ) ;
#79 = ORIENTED_EDGE ( 'NONE', *, *, #148, .F. ) ;
#80 = LOCAL_TIME ( 12, 8, 17.00000000000000000, #219 ) ;
#81 = FACE_OUTER_BOUND ( 'NONE', #228, .T. ) ;
#82 = ORIENTED_EDGE ( 'NONE', *, *, #241, .T. ) ;
#83 = CARTESIAN_POINT ( 'NONE',  ( 0.000000000000000000, 0.000000000000000000, 3.000000000000000000 ) ) ;
#84 = VERTEX_POINT ( 'NONE', #206 ) ;
#85 = FACE_OUTER_BOUND ( 'NONE', #163, .T. ) ;
#86 = PRODUCT_RELATED_PRODUCT_CATEGORY ( 'detail', '', ( #278 ) ) ;
#87 = AXIS2_PLACEMENT_3D ( 'NONE', #132, #213, #27 ) ;
#88 = CIRCLE ( 'NONE', #207, 0.2000000000000000944 ) ;
#89 = DIRECTION ( 'NONE',  ( 1.224646799147353207E-16, 1.000000000000000000, -0.000000000000000000 ) ) ;
#90 = VECTOR ( 'NONE', #205, 1000.000000000000000 ) ;
#91 = CARTESIAN_POINT ( 'NONE',  ( 4.000000000000000000, 4.898587196589412829E-16, 3.000000000000000000 ) ) ;
#92 = CC_DESIGN_PERSON_AND_ORGANIZATION_ASSIGNMENT ( #122, #6, ( #178 ) ) ;
#93 = AXIS2_PLACEMENT_3D ( 'NONE', #299, #270, #225 ) ;
#94 = DIRECTION ( 'NONE',  ( 0.000000000000000000, 0.000000000000000000, 1.000000000000000000 ) ) ;
#95 = CIRCLE ( 'NONE', #218, 4.000000000000000000 ) ;
#96 = SHAPE_DEFINITION_REPRESENTATION ( #43, #189 ) ;
#97 = AXIS2_PLACEMENT_3D ( 'NONE', #177, #180, #36 ) ;
#98 = PERSON_AND_ORGANIZATION_ROLE ( 'creator' ) ;
#99 = CC_DESIGN_PERSON_AND_ORGANIZATION_ASSIGNMENT ( #2, #147, ( #278 ) ) ;
#100 = CARTESIAN_POINT ( 'NONE',  ( 2.100000000000000089, 2.571758278209441957E-16, 163.0000000000000000 ) ) ;
#101 = VERTEX_POINT ( 'NONE', #179 ) ;
#102 = CARTESIAN_POINT ( 'NONE',  ( 4.000000000000000000, 4.898587196589412829E-16, 3.000000000000000000 ) ) ;
#103 = CYLINDRICAL_SURFACE ( 'NONE', #51, 4.000000000000000000 ) ;
#104 = ORIENTED_EDGE ( 'NONE', *, *, #174, .T. ) ;
#105 = CC_DESIGN_APPROVAL ( #74, ( #258 ) ) ;
#106 = AXIS2_PLACEMENT_3D ( 'NONE', #46, #264, #25 ) ;
#107 = CARTESIAN_POINT ( 'NONE',  ( 0.000000000000000000, 0.000000000000000000, 163.0000000000000000 ) ) ;
#108 = ORIENTED_EDGE ( 'NONE', *, *, #170, .T. ) ;
#109 = CARTESIAN_POINT ( 'NONE',  ( -4.000000000000000000, 0.000000000000000000, 3.000000000000000000 ) ) ;
#110 = ADVANCED_FACE ( 'NONE', ( #10 ), #37, .F. ) ;
#111 = ORIENTED_EDGE ( 'NONE', *, *, #287, .T. ) ;
#112 = MANIFOLD_SOLID_BREP ( 'Zaoblit1', #131 ) ;
#113 = FACE_OUTER_BOUND ( 'NONE', #280, .T. ) ;
#114 = DIRECTION ( 'NONE',  ( -1.000000000000000000, 0.000000000000000000, 0.000000000000000000 ) ) ;
#115 = EDGE_CURVE ( 'NONE', #158, #199, #142, .T. ) ;
#116 = DIRECTION ( 'NONE',  ( 0.000000000000000000, 0.000000000000000000, 1.000000000000000000 ) ) ;
#117 = CIRCLE ( 'NONE', #97, 2.300000000000000266 ) ;
#118 = DATE_AND_TIME ( #171, #168 ) ;
#119 = DIRECTION ( 'NONE',  ( 1.000000000000000000, 0.000000000000000000, -0.000000000000000000 ) ) ;
#120 = AXIS2_PLACEMENT_3D ( 'NONE', #26, #116, #214 ) ;
#121 = LOCAL_TIME ( 12, 8, 17.00000000000000000, #50 ) ;
#122 = PERSON_AND_ORGANIZATION ( #48, #136 ) ;
#123 = APPROVAL_STATUS ( 'not_yet_approved' ) ;
#124 = VERTEX_POINT ( 'NONE', #32 ) ;
#125 = ADVANCED_FACE ( 'NONE', ( #159 ), #134, .T. ) ;
#126 = CARTESIAN_POINT ( 'NONE',  ( 0.000000000000000000, 0.000000000000000000, 163.0000000000000000 ) ) ;
#127 = DIRECTION ( 'NONE',  ( 0.000000000000000000, 0.000000000000000000, -1.000000000000000000 ) ) ;
#128 = APPROVAL_PERSON_ORGANIZATION ( #220, #217, #69 ) ;
#129 = CARTESIAN_POINT ( 'NONE',  ( -2.100000000000000089, 0.000000000000000000, 163.0000000000000000 ) ) ;
#130 = EDGE_LOOP ( 'NONE', ( #210, #234 ) ) ;
#131 = CLOSED_SHELL ( 'NONE', ( #30, #125, #300, #53, #223, #238, #229, #290, #110 ) ) ;
#132 = CARTESIAN_POINT ( 'NONE',  ( 0.000000000000000000, 0.000000000000000000, 0.000000000000000000 ) ) ;
#133 = ORIENTED_EDGE ( 'NONE', *, *, #182, .T. ) ;
#134 = CYLINDRICAL_SURFACE ( 'NONE', #215, 2.100000000000000089 ) ;
#135 = VERTEX_POINT ( 'NONE', #294 ) ;
#136 = ORGANIZATION ( 'NEURÈENÝ', 'NEURÈENÝ', '' ) ;
#137 = EDGE_CURVE ( 'NONE', #101, #199, #19, .T. ) ;
#138 = PLANE ( 'NONE',  #120 ) ;
#139 = EDGE_LOOP ( 'NONE', ( #64, #82, #44, #212 ) ) ;
#140 = APPROVAL_STATUS ( 'not_yet_approved' ) ;
#141 = LINE ( 'NONE', #167, #156 ) ;
#142 = CIRCLE ( 'NONE', #5, 2.100000000000000089 ) ;
#143 =( LENGTH_UNIT ( ) NAMED_UNIT ( * ) SI_UNIT ( .MILLI., .METRE. ) );
#144 = CC_DESIGN_APPROVAL ( #261, ( #286 ) ) ;
#145 = DIRECTION ( 'NONE',  ( 1.000000000000000000, 0.000000000000000000, 0.000000000000000000 ) ) ;
#146 = CIRCLE ( 'NONE', #87, 4.000000000000000000 ) ;
#147 = PERSON_AND_ORGANIZATION_ROLE ( 'design_owner' ) ;
#148 = EDGE_CURVE ( 'NONE', #101, #124, #65, .T. ) ;
#149 = CALENDAR_DATE ( 2022, 20, 6 ) ;
#150 = EDGE_CURVE ( 'NONE', #253, #135, #202, .T. ) ;
#151 = CARTESIAN_POINT ( 'NONE',  ( -2.100000000000000089, 0.000000000000000000, 3.200000000000008171 ) ) ;
#152 = CIRCLE ( 'NONE', #23, 4.000000000000000000 ) ;
#153 = CARTESIAN_POINT ( 'NONE',  ( 0.000000000000000000, 0.000000000000000000, 3.000000000000000000 ) ) ;
#154 = ORIENTED_EDGE ( 'NONE', *, *, #203, .T. ) ;
#155 = DIRECTION ( 'NONE',  ( -0.000000000000000000, -0.000000000000000000, -1.000000000000000000 ) ) ;
#156 = VECTOR ( 'NONE', #211, 1000.000000000000000 ) ;
#157 = DIRECTION ( 'NONE',  ( 1.000000000000000000, 0.000000000000000000, 0.000000000000000000 ) ) ;
#158 = VERTEX_POINT ( 'NONE', #291 ) ;
#159 = FACE_OUTER_BOUND ( 'NONE', #272, .T. ) ;
#160 = ORIENTED_EDGE ( 'NONE', *, *, #194, .T. ) ;
#161 = DIRECTION ( 'NONE',  ( 0.000000000000000000, 0.000000000000000000, 1.000000000000000000 ) ) ;
#162 = AXIS2_PLACEMENT_3D ( 'NONE', #216, #94, #119 ) ;
#163 = EDGE_LOOP ( 'NONE', ( #277, #104 ) ) ;
#164 = APPROVAL_PERSON_ORGANIZATION ( #173, #74, #221 ) ;
#165 =( NAMED_UNIT ( * ) SI_UNIT ( $, .STERADIAN. ) SOLID_ANGLE_UNIT ( ) );
#166 = DATE_AND_TIME ( #303, #240 ) ;
#167 = CARTESIAN_POINT ( 'NONE',  ( -4.000000000000000000, 0.000000000000000000, 3.000000000000000000 ) ) ;
#168 = LOCAL_TIME ( 12, 8, 17.00000000000000000, #304 ) ;
#169 = PLANE ( 'NONE',  #181 ) ;
#170 = EDGE_CURVE ( 'NONE', #62, #84, #117, .T. ) ;
#171 = CALENDAR_DATE ( 2022, 20, 6 ) ;
#172 = UNCERTAINTY_MEASURE_WITH_UNIT (LENGTH_MEASURE( 1.000000000000000082E-05 ), #143, 'distance_accuracy_value', 'NONE');
#173 = PERSON_AND_ORGANIZATION ( #48, #136 ) ;
#174 = EDGE_CURVE ( 'NONE', #124, #101, #192, .T. ) ;
#175 = DATE_AND_TIME ( #7, #121 ) ;
#176 = LOCAL_TIME ( 12, 8, 17.00000000000000000, #71 ) ;
#177 = CARTESIAN_POINT ( 'NONE',  ( 0.000000000000000000, 0.000000000000000000, 3.000000000000000000 ) ) ;
#178 = PRODUCT_DEFINITION ( 'NEZNÁMÝ', '', #258, #196 ) ;
#179 = CARTESIAN_POINT ( 'NONE',  ( -2.100000000000000089, 0.000000000000000000, 163.0000000000000000 ) ) ;
#180 = DIRECTION ( 'NONE',  ( -0.000000000000000000, -0.000000000000000000, -1.000000000000000000 ) ) ;
#181 = AXIS2_PLACEMENT_3D ( 'NONE', #191, #193, #63 ) ;
#182 = EDGE_CURVE ( 'NONE', #253, #275, #224, .T. ) ;
#183 = ORIENTED_EDGE ( 'NONE', *, *, #59, .F. ) ;
#184 = DIRECTION ( 'NONE',  ( 1.000000000000000000, 0.000000000000000000, 0.000000000000000000 ) ) ;
#185 = EDGE_LOOP ( 'NONE', ( #249, #232, #154, #22 ) ) ;
#186 = PERSON_AND_ORGANIZATION ( #48, #136 ) ;
#187 = CARTESIAN_POINT ( 'NONE',  ( 0.000000000000000000, 0.000000000000000000, 3.000000000000000000 ) ) ;
#188 = AXIS2_PLACEMENT_3D ( 'NONE', #187, #242, #265 ) ;
#189 = ADVANCED_BREP_SHAPE_REPRESENTATION ( '4da8', ( #112, #106 ), #295 ) ;
#190 = DIRECTION ( 'NONE',  ( -1.000000000000000000, 1.224646799147353207E-16, 0.000000000000000000 ) ) ;
#191 = CARTESIAN_POINT ( 'NONE',  ( 0.000000000000000000, 0.000000000000000000, 163.0000000000000000 ) ) ;
#192 = CIRCLE ( 'NONE', #93, 2.100000000000000089 ) ;
#193 = DIRECTION ( 'NONE',  ( 0.000000000000000000, 0.000000000000000000, 1.000000000000000000 ) ) ;
#194 = EDGE_CURVE ( 'NONE', #84, #62, #289, .T. ) ;
#195 = DATE_AND_TIME ( #4, #80 ) ;
#196 = DESIGN_CONTEXT ( 'detailed design', #288, 'design' ) ;
#197 = EDGE_CURVE ( 'NONE', #158, #84, #72, .T. ) ;
#198 = DATE_AND_TIME ( #149, #176 ) ;
#199 = VERTEX_POINT ( 'NONE', #151 ) ;
#200 = PERSON_AND_ORGANIZATION_ROLE ( 'design_supplier' ) ;
#201 = APPROVAL_PERSON_ORGANIZATION ( #186, #261, #298 ) ;
#202 = LINE ( 'NONE', #102, #90 ) ;
#203 = EDGE_CURVE ( 'NONE', #135, #297, #146, .T. ) ;
#204 = LINE ( 'NONE', #100, #29 ) ;
#205 = DIRECTION ( 'NONE',  ( -0.000000000000000000, -0.000000000000000000, -1.000000000000000000 ) ) ;
#206 = CARTESIAN_POINT ( 'NONE',  ( 2.300000000000000266, 0.000000000000000000, 3.000000000000004441 ) ) ;
#207 = AXIS2_PLACEMENT_3D ( 'NONE', #21, #89, #190 ) ;
#208 = EDGE_LOOP ( 'NONE', ( #160, #108 ) ) ;
#209 = DIRECTION ( 'NONE',  ( 1.000000000000000000, 0.000000000000000000, 0.000000000000000000 ) ) ;
#210 = ORIENTED_EDGE ( 'NONE', *, *, #246, .F. ) ;
#211 = DIRECTION ( 'NONE',  ( -0.000000000000000000, -0.000000000000000000, -1.000000000000000000 ) ) ;
#212 = ORIENTED_EDGE ( 'NONE', *, *, #197, .F. ) ;
#213 = DIRECTION ( 'NONE',  ( 0.000000000000000000, 0.000000000000000000, 1.000000000000000000 ) ) ;
#214 = DIRECTION ( 'NONE',  ( 1.000000000000000000, 0.000000000000000000, -0.000000000000000000 ) ) ;
#215 = AXIS2_PLACEMENT_3D ( 'NONE', #126, #35, #233 ) ;
#216 = CARTESIAN_POINT ( 'NONE',  ( 0.000000000000000000, 0.000000000000000000, 0.000000000000000000 ) ) ;
#217 = APPROVAL ( #245, 'NEURÈENÝ' ) ;
#218 = AXIS2_PLACEMENT_3D ( 'NONE', #42, #161, #145 ) ;
#219 = COORDINATED_UNIVERSAL_TIME_OFFSET ( 1, 0, .AHEAD. ) ;
#220 = PERSON_AND_ORGANIZATION ( #48, #136 ) ;
#221 = APPROVAL_ROLE ( '' ) ;
#222 = DIRECTION ( 'NONE',  ( -0.000000000000000000, -0.000000000000000000, -1.000000000000000000 ) ) ;
#223 = ADVANCED_FACE ( 'NONE', ( #285, #1 ), #138, .T. ) ;
#224 = CIRCLE ( 'NONE', #268, 4.000000000000000000 ) ;
#225 = DIRECTION ( 'NONE',  ( 1.000000000000000000, 0.000000000000000000, 0.000000000000000000 ) ) ;
#226 = ORIENTED_EDGE ( 'NONE', *, *, #246, .T. ) ;
#227 = CARTESIAN_POINT ( 'NONE',  ( -2.300000000000000266, 2.816687638038912549E-16, 3.000000000000004441 ) ) ;
#228 = EDGE_LOOP ( 'NONE', ( #260, #236, #20, #226 ) ) ;
#229 = ADVANCED_FACE ( 'NONE', ( #113 ), #239, .T. ) ;
#230 = AXIS2_PLACEMENT_3D ( 'NONE', #107, #13, #209 ) ;
#231 = PERSON_AND_ORGANIZATION_ROLE ( 'classification_officer' ) ;
#232 = ORIENTED_EDGE ( 'NONE', *, *, #150, .T. ) ;
#233 = DIRECTION ( 'NONE',  ( -1.000000000000000000, 0.000000000000000000, 0.000000000000000000 ) ) ;
#234 = ORIENTED_EDGE ( 'NONE', *, *, #203, .F. ) ;
#235 = CARTESIAN_POINT ( 'NONE',  ( 0.000000000000000000, 0.000000000000000000, 163.0000000000000000 ) ) ;
#236 = ORIENTED_EDGE ( 'NONE', *, *, #28, .F. ) ;
#237 =( NAMED_UNIT ( * ) PLANE_ANGLE_UNIT ( ) SI_UNIT ( $, .RADIAN. ) );
#238 = ADVANCED_FACE ( 'NONE', ( #66 ), #262, .F. ) ;
#239 = CYLINDRICAL_SURFACE ( 'NONE', #31, 2.100000000000000089 ) ;
#240 = LOCAL_TIME ( 12, 8, 17.00000000000000000, #263 ) ;
#241 = EDGE_CURVE ( 'NONE', #199, #62, #88, .T. ) ;
#242 = DIRECTION ( 'NONE',  ( -0.000000000000000000, -0.000000000000000000, -1.000000000000000000 ) ) ;
#243 = AXIS2_PLACEMENT_3D ( 'NONE', #251, #279, #127 ) ;
#244 = APPROVAL_DATE_TIME ( #195, #217 ) ;
#245 = APPROVAL_STATUS ( 'not_yet_approved' ) ;
#246 = EDGE_CURVE ( 'NONE', #297, #135, #95, .T. ) ;
#247 = DIRECTION ( 'NONE',  ( 0.000000000000000000, 0.000000000000000000, 1.000000000000000000 ) ) ;
#248 = DIRECTION ( 'NONE',  ( -0.000000000000000000, -0.000000000000000000, -1.000000000000000000 ) ) ;
#249 = ORIENTED_EDGE ( 'NONE', *, *, #182, .F. ) ;
#250 = DIRECTION ( 'NONE',  ( 0.000000000000000000, 0.000000000000000000, 1.000000000000000000 ) ) ;
#251 = CARTESIAN_POINT ( 'NONE',  ( 2.300000000000000266, 0.000000000000000000, 3.200000000000008171 ) ) ;
#252 = SECURITY_CLASSIFICATION_LEVEL ( 'unclassified' ) ;
#253 = VERTEX_POINT ( 'NONE', #91 ) ;
#254 = VECTOR ( 'NONE', #222, 1000.000000000000000 ) ;
#255 = ORIENTED_EDGE ( 'NONE', *, *, #241, .F. ) ;
#256 = ORIENTED_EDGE ( 'NONE', *, *, #137, .T. ) ;
#257 = FACE_OUTER_BOUND ( 'NONE', #185, .T. ) ;
#258 = PRODUCT_DEFINITION_FORMATION_WITH_SPECIFIED_SOURCE ( 'LIBOVOLNÝ', '', #278, .NOT_KNOWN. ) ;
#259 = PERSON_AND_ORGANIZATION ( #48, #136 ) ;
#260 = ORIENTED_EDGE ( 'NONE', *, *, #150, .F. ) ;
#261 = APPROVAL ( #140, 'NEURÈENÝ' ) ;
#262 = PLANE ( 'NONE',  #162 ) ;
#263 = COORDINATED_UNIVERSAL_TIME_OFFSET ( 1, 0, .AHEAD. ) ;
#264 = DIRECTION ( 'NONE',  ( 0.000000000000000000, 0.000000000000000000, 1.000000000000000000 ) ) ;
#265 = DIRECTION ( 'NONE',  ( -1.000000000000000000, 0.000000000000000000, 0.000000000000000000 ) ) ;
#266 = AXIS2_PLACEMENT_3D ( 'NONE', #45, #302, #307 ) ;
#267 = APPROVAL_DATE_TIME ( #175, #74 ) ;
#268 = AXIS2_PLACEMENT_3D ( 'NONE', #153, #274, #157 ) ;
#269 = CIRCLE ( 'NONE', #266, 2.100000000000000089 ) ;
#270 = DIRECTION ( 'NONE',  ( 0.000000000000000000, 0.000000000000000000, 1.000000000000000000 ) ) ;
#271 = AXIS2_PLACEMENT_3D ( 'NONE', #77, #247, #33 ) ;
#272 = EDGE_LOOP ( 'NONE', ( #11, #60, #76, #58 ) ) ;
#273 = CARTESIAN_POINT ( 'NONE',  ( 0.000000000000000000, 0.000000000000000000, 3.200000000000008171 ) ) ;
#274 = DIRECTION ( 'NONE',  ( 0.000000000000000000, 0.000000000000000000, 1.000000000000000000 ) ) ;
#275 = VERTEX_POINT ( 'NONE', #109 ) ;
#276 = DIRECTION ( 'NONE',  ( 1.000000000000000000, 0.000000000000000000, 0.000000000000000000 ) ) ;
#277 = ORIENTED_EDGE ( 'NONE', *, *, #148, .T. ) ;
#278 = PRODUCT ( '4da8', '4da8', '', ( #49 ) ) ;
#279 = DIRECTION ( 'NONE',  ( 0.000000000000000000, -1.000000000000000000, 0.000000000000000000 ) ) ;
#280 = EDGE_LOOP ( 'NONE', ( #183, #79, #256, #111 ) ) ;
#281 = EDGE_CURVE ( 'NONE', #275, #297, #141, .T. ) ;
#282 = APPLICATION_CONTEXT ( 'configuration controlled 3d designs of mechanical parts and assemblies' ) ;
#283 = CYLINDRICAL_SURFACE ( 'NONE', #188, 4.000000000000000000 ) ;
#284 = CARTESIAN_POINT ( 'NONE',  ( -4.000000000000000000, 0.000000000000000000, 0.000000000000000000 ) ) ;
#285 = FACE_BOUND ( 'NONE', #208, .T. ) ;
#286 = SECURITY_CLASSIFICATION ( '', '', #252 ) ;
#287 = EDGE_CURVE ( 'NONE', #199, #158, #269, .T. ) ;
#288 = APPLICATION_CONTEXT ( 'configuration controlled 3d designs of mechanical parts and assemblies' ) ;
#289 = CIRCLE ( 'NONE', #41, 2.300000000000000266 ) ;
#290 = ADVANCED_FACE ( 'NONE', ( #85 ), #169, .T. ) ;
#291 = CARTESIAN_POINT ( 'NONE',  ( 2.100000000000000089, 2.571758278209441957E-16, 3.200000000000008171 ) ) ;
#292 = DIRECTION ( 'NONE',  ( 0.000000000000000000, 0.000000000000000000, 1.000000000000000000 ) ) ;
#293 = AXIS2_PLACEMENT_3D ( 'NONE', #296, #292, #276 ) ;
#294 = CARTESIAN_POINT ( 'NONE',  ( 4.000000000000000000, 4.898587196589412829E-16, 0.000000000000000000 ) ) ;
#295 =( GEOMETRIC_REPRESENTATION_CONTEXT ( 3 ) GLOBAL_UNCERTAINTY_ASSIGNED_CONTEXT ( ( #172 ) ) GLOBAL_UNIT_ASSIGNED_CONTEXT ( ( #143, #237, #165 ) ) REPRESENTATION_CONTEXT ( 'NONE', 'WORKASPACE' ) );
#296 = CARTESIAN_POINT ( 'NONE',  ( 0.000000000000000000, 0.000000000000000000, 3.200000000000008171 ) ) ;
#297 = VERTEX_POINT ( 'NONE', #284 ) ;
#298 = APPROVAL_ROLE ( '' ) ;
#299 = CARTESIAN_POINT ( 'NONE',  ( 0.000000000000000000, 0.000000000000000000, 163.0000000000000000 ) ) ;
#300 = ADVANCED_FACE ( 'NONE', ( #257 ), #283, .T. ) ;
#301 = ORIENTED_EDGE ( 'NONE', *, *, #197, .T. ) ;
#302 = DIRECTION ( 'NONE',  ( 0.000000000000000000, 0.000000000000000000, 1.000000000000000000 ) ) ;
#303 = CALENDAR_DATE ( 2022, 20, 6 ) ;
#304 = COORDINATED_UNIVERSAL_TIME_OFFSET ( 1, 0, .AHEAD. ) ;
#305 = CC_DESIGN_DATE_AND_TIME_ASSIGNMENT ( #198, #70, ( #178 ) ) ;
#306 = DIRECTION ( 'NONE',  ( -0.000000000000000000, -0.000000000000000000, -1.000000000000000000 ) ) ;
#307 = DIRECTION ( 'NONE',  ( 1.000000000000000000, 0.000000000000000000, 0.000000000000000000 ) ) ;
ENDSEC;
END-ISO-10303-21;
