ISO-10303-21;
HEADER;
FILE_DESCRIPTION (( 'STEP AP203' ),
    '1' );
FILE_NAME ('2b76.STEP',
    '2022-06-20T09:44:47',
    ( '' ),
    ( '' ),
    'SwSTEP 2.0',
    'SolidWorks 2019',
    '' );
FILE_SCHEMA (( 'CONFIG_CONTROL_DESIGN' ));
ENDSEC;

DATA;
#1 = CIRCLE ( 'NONE', #31, 4.450000000000000178 ) ;
#2 = DIRECTION ( 'NONE',  ( 1.000000000000000000, 0.000000000000000000, 0.000000000000000000 ) ) ;
#3 = EDGE_CURVE ( 'NONE', #58, #215, #140, .T. ) ;
#4 = DIRECTION ( 'NONE',  ( 0.000000000000000000, 0.000000000000000000, 1.000000000000000000 ) ) ;
#5 = CARTESIAN_POINT ( 'NONE',  ( 0.000000000000000000, 0.000000000000000000, 0.000000000000000000 ) ) ;
#6 = DIRECTION ( 'NONE',  ( 1.000000000000000000, 0.000000000000000000, 0.000000000000000000 ) ) ;
#7 = DESIGN_CONTEXT ( 'detailed design', #160, 'design' ) ;
#8 = CC_DESIGN_PERSON_AND_ORGANIZATION_ASSIGNMENT ( #105, #280, ( #21 ) ) ;
#9 = CARTESIAN_POINT ( 'NONE',  ( 0.000000000000000000, 0.000000000000000000, 320.0000000000000000 ) ) ;
#10 = APPLICATION_PROTOCOL_DEFINITION ( 'international standard', 'config_control_design', 1994, #304 ) ;
#11 = ORIENTED_EDGE ( 'NONE', *, *, #240, .F. ) ;
#12 = AXIS2_PLACEMENT_3D ( 'NONE', #95, #27, #141 ) ;
#13 = ORIENTED_EDGE ( 'NONE', *, *, #129, .F. ) ;
#14 = APPROVAL_ROLE ( '' ) ;
#15 = DIRECTION ( 'NONE',  ( 1.000000000000000000, 0.000000000000000000, 0.000000000000000000 ) ) ;
#16 = EDGE_CURVE ( 'NONE', #194, #83, #277, .T. ) ;
#17 = VECTOR ( 'NONE', #286, 1000.000000000000000 ) ;
#18 = DIRECTION ( 'NONE',  ( 0.000000000000000000, 0.000000000000000000, 1.000000000000000000 ) ) ;
#19 = APPROVAL_ROLE ( '' ) ;
#20 = CYLINDRICAL_SURFACE ( 'NONE', #82, 7.000000000000000000 ) ;
#21 = PRODUCT_DEFINITION ( 'NEZNÁMÝ', '', #186, #7 ) ;
#22 = DIRECTION ( 'NONE',  ( 1.000000000000000000, 0.000000000000000000, -0.000000000000000000 ) ) ;
#23 = CARTESIAN_POINT ( 'NONE',  ( 0.000000000000000000, 0.000000000000000000, 0.000000000000000000 ) ) ;
#24 = AXIS2_PLACEMENT_3D ( 'NONE', #25, #74, #2 ) ;
#25 = CARTESIAN_POINT ( 'NONE',  ( 0.000000000000000000, 0.000000000000000000, 5.199999999999982414 ) ) ;
#26 = MANIFOLD_SOLID_BREP ( 'Zaoblit1', #94 ) ;
#27 = DIRECTION ( 'NONE',  ( -0.000000000000000000, -0.000000000000000000, -1.000000000000000000 ) ) ;
#28 = DIRECTION ( 'NONE',  ( -1.000000000000000000, 1.224646799147353454E-16, 0.000000000000000000 ) ) ;
#29 = ORIENTED_EDGE ( 'NONE', *, *, #275, .F. ) ;
#30 = DIRECTION ( 'NONE',  ( -0.000000000000000000, -0.000000000000000000, -1.000000000000000000 ) ) ;
#31 = AXIS2_PLACEMENT_3D ( 'NONE', #173, #61, #205 ) ;
#32 = UNCERTAINTY_MEASURE_WITH_UNIT (LENGTH_MEASURE( 1.000000000000000082E-05 ), #292, 'distance_accuracy_value', 'NONE');
#33 = VERTEX_POINT ( 'NONE', #289 ) ;
#34 = EDGE_CURVE ( 'NONE', #33, #83, #214, .T. ) ;
#35 = CARTESIAN_POINT ( 'NONE',  ( -4.250000000000000000, 0.000000000000000000, 320.0000000000000000 ) ) ;
#36 = ORIENTED_EDGE ( 'NONE', *, *, #192, .T. ) ;
#37 = APPROVAL_STATUS ( 'not_yet_approved' ) ;
#38 = ORIENTED_EDGE ( 'NONE', *, *, #45, .F. ) ;
#39 = CIRCLE ( 'NONE', #100, 4.250000000000000000 ) ;
#40 = ADVANCED_FACE ( 'NONE', ( #288 ), #80, .T. ) ;
#41 = FACE_OUTER_BOUND ( 'NONE', #211, .T. ) ;
#42 = DATE_AND_TIME ( #177, #232 ) ;
#43 = AXIS2_PLACEMENT_3D ( 'NONE', #223, #72, #303 ) ;
#44 = CALENDAR_DATE ( 2022, 20, 6 ) ;
#45 = EDGE_CURVE ( 'NONE', #83, #194, #159, .T. ) ;
#46 = PERSON_AND_ORGANIZATION ( #266, #273 ) ;
#47 = DIRECTION ( 'NONE',  ( 0.000000000000000000, 0.000000000000000000, 1.000000000000000000 ) ) ;
#48 = CARTESIAN_POINT ( 'NONE',  ( -4.250000000000000000, 0.000000000000000000, 5.199999999999982414 ) ) ;
#49 = AXIS2_PLACEMENT_3D ( 'NONE', #113, #50, #137 ) ;
#50 = DIRECTION ( 'NONE',  ( -0.000000000000000000, -0.000000000000000000, -1.000000000000000000 ) ) ;
#51 = VERTEX_POINT ( 'NONE', #229 ) ;
#52 = ORIENTED_EDGE ( 'NONE', *, *, #224, .F. ) ;
#53 = ADVANCED_FACE ( 'NONE', ( #185 ), #56, .F. ) ;
#54 = CARTESIAN_POINT ( 'NONE',  ( 0.000000000000000000, 0.000000000000000000, 5.000000000000000000 ) ) ;
#55 = CIRCLE ( 'NONE', #24, 4.250000000000000000 ) ;
#56 = TOROIDAL_SURFACE ( 'NONE', #151, 4.450000000000000178, 0.2000000000000000111 ) ;
#57 = EDGE_LOOP ( 'NONE', ( #11, #268, #165, #104 ) ) ;
#58 = VERTEX_POINT ( 'NONE', #274 ) ;
#59 = EDGE_CURVE ( 'NONE', #33, #235, #195, .T. ) ;
#60 = APPROVAL_ROLE ( '' ) ;
#61 = DIRECTION ( 'NONE',  ( -0.000000000000000000, -0.000000000000000000, -1.000000000000000000 ) ) ;
#62 = AXIS2_PLACEMENT_3D ( 'NONE', #212, #117, #6 ) ;
#63 = CARTESIAN_POINT ( 'NONE',  ( 0.000000000000000000, 0.000000000000000000, 5.000000000000000000 ) ) ;
#64 = PERSON_AND_ORGANIZATION_ROLE ( 'design_supplier' ) ;
#65 = CARTESIAN_POINT ( 'NONE',  ( 0.000000000000000000, 0.000000000000000000, 5.199999999999982414 ) ) ;
#66 = ADVANCED_FACE ( 'NONE', ( #178 ), #255, .T. ) ;
#67 = AXIS2_PLACEMENT_3D ( 'NONE', #65, #110, #226 ) ;
#68 = DATE_TIME_ROLE ( 'creation_date' ) ;
#69 = DIRECTION ( 'NONE',  ( -1.000000000000000000, 0.000000000000000000, 0.000000000000000000 ) ) ;
#70 = VERTEX_POINT ( 'NONE', #282 ) ;
#71 = DATE_TIME_ROLE ( 'classification_date' ) ;
#72 = DIRECTION ( 'NONE',  ( -0.000000000000000000, -0.000000000000000000, -1.000000000000000000 ) ) ;
#73 = FACE_OUTER_BOUND ( 'NONE', #279, .T. ) ;
#74 = DIRECTION ( 'NONE',  ( 0.000000000000000000, 0.000000000000000000, 1.000000000000000000 ) ) ;
#75 = ORIENTED_EDGE ( 'NONE', *, *, #284, .T. ) ;
#76 = CC_DESIGN_PERSON_AND_ORGANIZATION_ASSIGNMENT ( #46, #220, ( #269 ) ) ;
#77 = ORIENTED_EDGE ( 'NONE', *, *, #240, .T. ) ;
#78 = FACE_OUTER_BOUND ( 'NONE', #164, .T. ) ;
#79 = CIRCLE ( 'NONE', #246, 4.250000000000000000 ) ;
#80 = CYLINDRICAL_SURFACE ( 'NONE', #118, 4.250000000000000000 ) ;
#81 = ORIENTED_EDGE ( 'NONE', *, *, #163, .F. ) ;
#82 = AXIS2_PLACEMENT_3D ( 'NONE', #181, #278, #69 ) ;
#83 = VERTEX_POINT ( 'NONE', #133 ) ;
#84 = ADVANCED_FACE ( 'NONE', ( #87 ), #249, .T. ) ;
#85 = VECTOR ( 'NONE', #30, 1000.000000000000000 ) ;
#86 = COORDINATED_UNIVERSAL_TIME_OFFSET ( 1, 0, .AHEAD. ) ;
#87 = FACE_OUTER_BOUND ( 'NONE', #57, .T. ) ;
#88 = FACE_OUTER_BOUND ( 'NONE', #219, .T. ) ;
#89 = ORIENTED_EDGE ( 'NONE', *, *, #169, .T. ) ;
#90 = DIRECTION ( 'NONE',  ( 0.000000000000000000, -1.000000000000000000, 0.000000000000000000 ) ) ;
#91 = CIRCLE ( 'NONE', #49, 4.450000000000000178 ) ;
#92 = CARTESIAN_POINT ( 'NONE',  ( 4.250000000000000000, 5.204748896376250699E-16, 320.0000000000000000 ) ) ;
#93 = CARTESIAN_POINT ( 'NONE',  ( 0.000000000000000000, 0.000000000000000000, 5.000000000000000000 ) ) ;
#94 = CLOSED_SHELL ( 'NONE', ( #114, #252, #84, #122, #299, #107, #40, #66, #53 ) ) ;
#95 = CARTESIAN_POINT ( 'NONE',  ( 0.000000000000000000, 0.000000000000000000, 320.0000000000000000 ) ) ;
#96 = DIRECTION ( 'NONE',  ( -0.000000000000000000, -0.000000000000000000, -1.000000000000000000 ) ) ;
#97 = CARTESIAN_POINT ( 'NONE',  ( 0.000000000000000000, 0.000000000000000000, 320.0000000000000000 ) ) ;
#98 = VERTEX_POINT ( 'NONE', #153 ) ;
#99 = MECHANICAL_CONTEXT ( 'NONE', #304, 'mechanical' ) ;
#100 = AXIS2_PLACEMENT_3D ( 'NONE', #97, #209, #136 ) ;
#101 = CC_DESIGN_SECURITY_CLASSIFICATION ( #258, ( #186 ) ) ;
#102 = EDGE_LOOP ( 'NONE', ( #237, #183, #115, #243 ) ) ;
#103 = ORIENTED_EDGE ( 'NONE', *, *, #163, .T. ) ;
#104 = ORIENTED_EDGE ( 'NONE', *, *, #34, .F. ) ;
#105 = PERSON_AND_ORGANIZATION ( #266, #273 ) ;
#106 = APPROVAL_DATE_TIME ( #305, #260 ) ;
#107 = ADVANCED_FACE ( 'NONE', ( #88 ), #221, .F. ) ;
#108 = DIRECTION ( 'NONE',  ( 0.000000000000000000, 0.000000000000000000, 1.000000000000000000 ) ) ;
#109 = DATE_AND_TIME ( #201, #290 ) ;
#110 = DIRECTION ( 'NONE',  ( 0.000000000000000000, 0.000000000000000000, 1.000000000000000000 ) ) ;
#111 = DIRECTION ( 'NONE',  ( 1.000000000000000000, 0.000000000000000000, -0.000000000000000000 ) ) ;
#112 = APPROVAL_DATE_TIME ( #130, #283 ) ;
#113 = CARTESIAN_POINT ( 'NONE',  ( 0.000000000000000000, 0.000000000000000000, 5.000000000000000000 ) ) ;
#114 = ADVANCED_FACE ( 'NONE', ( #41 ), #208, .F. ) ;
#115 = ORIENTED_EDGE ( 'NONE', *, *, #3, .T. ) ;
#116 = ORIENTED_EDGE ( 'NONE', *, *, #45, .T. ) ;
#117 = DIRECTION ( 'NONE',  ( 0.000000000000000000, 0.000000000000000000, 1.000000000000000000 ) ) ;
#118 = AXIS2_PLACEMENT_3D ( 'NONE', #9, #196, #198 ) ;
#119 =( GEOMETRIC_REPRESENTATION_CONTEXT ( 3 ) GLOBAL_UNCERTAINTY_ASSIGNED_CONTEXT ( ( #32 ) ) GLOBAL_UNIT_ASSIGNED_CONTEXT ( ( #292, #239, #142 ) ) REPRESENTATION_CONTEXT ( 'NONE', 'WORKASPACE' ) );
#120 = VECTOR ( 'NONE', #187, 1000.000000000000000 ) ;
#121 = DIRECTION ( 'NONE',  ( 1.000000000000000000, 0.000000000000000000, 0.000000000000000000 ) ) ;
#122 = ADVANCED_FACE ( 'NONE', ( #251 ), #20, .T. ) ;
#123 = ORIENTED_EDGE ( 'NONE', *, *, #189, .F. ) ;
#124 = CIRCLE ( 'NONE', #197, 4.250000000000000000 ) ;
#125 = VERTEX_POINT ( 'NONE', #155 ) ;
#126 = DIRECTION ( 'NONE',  ( 0.000000000000000000, 0.000000000000000000, 1.000000000000000000 ) ) ;
#127 = APPLICATION_PROTOCOL_DEFINITION ( 'international standard', 'config_control_design', 1994, #160 ) ;
#128 = DIRECTION ( 'NONE',  ( 1.000000000000000000, 0.000000000000000000, 0.000000000000000000 ) ) ;
#129 = EDGE_CURVE ( 'NONE', #215, #51, #124, .T. ) ;
#130 = DATE_AND_TIME ( #152, #213 ) ;
#131 = COORDINATED_UNIVERSAL_TIME_OFFSET ( 1, 0, .AHEAD. ) ;
#132 = EDGE_CURVE ( 'NONE', #70, #98, #1, .T. ) ;
#133 = CARTESIAN_POINT ( 'NONE',  ( -7.000000000000000000, 0.000000000000000000, 0.000000000000000000 ) ) ;
#134 = APPROVAL_PERSON_ORGANIZATION ( #244, #283, #19 ) ;
#135 = AXIS2_PLACEMENT_3D ( 'NONE', #234, #264, #28 ) ;
#136 = DIRECTION ( 'NONE',  ( 1.000000000000000000, 0.000000000000000000, 0.000000000000000000 ) ) ;
#137 = DIRECTION ( 'NONE',  ( 1.000000000000000000, 0.000000000000000000, 0.000000000000000000 ) ) ;
#138 = CARTESIAN_POINT ( 'NONE',  ( -7.000000000000000000, 0.000000000000000000, 5.000000000000000000 ) ) ;
#139 = PLANE ( 'NONE',  #236 ) ;
#140 = LINE ( 'NONE', #35, #17 ) ;
#141 = DIRECTION ( 'NONE',  ( -1.000000000000000000, 0.000000000000000000, 0.000000000000000000 ) ) ;
#142 =( NAMED_UNIT ( * ) SI_UNIT ( $, .STERADIAN. ) SOLID_ANGLE_UNIT ( ) );
#143 = ORIENTED_EDGE ( 'NONE', *, *, #275, .T. ) ;
#144 = ORIENTED_EDGE ( 'NONE', *, *, #132, .T. ) ;
#145 = EDGE_LOOP ( 'NONE', ( #143, #144 ) ) ;
#146 = CALENDAR_DATE ( 2022, 20, 6 ) ;
#147 = CARTESIAN_POINT ( 'NONE',  ( 0.000000000000000000, 0.000000000000000000, 5.199999999999982414 ) ) ;
#148 = LOCAL_TIME ( 11, 44, 47.00000000000000000, #86 ) ;
#149 = APPROVAL_STATUS ( 'not_yet_approved' ) ;
#150 = CARTESIAN_POINT ( 'NONE',  ( 0.000000000000000000, 0.000000000000000000, 320.0000000000000000 ) ) ;
#151 = AXIS2_PLACEMENT_3D ( 'NONE', #147, #204, #175 ) ;
#152 = CALENDAR_DATE ( 2022, 20, 6 ) ;
#153 = CARTESIAN_POINT ( 'NONE',  ( 4.450000000000000178, 0.000000000000000000, 4.999999999999991118 ) ) ;
#154 = PERSON_AND_ORGANIZATION ( #266, #273 ) ;
#155 = CARTESIAN_POINT ( 'NONE',  ( 4.250000000000000000, 5.204748896376250699E-16, 320.0000000000000000 ) ) ;
#156 = CC_DESIGN_DATE_AND_TIME_ASSIGNMENT ( #109, #68, ( #21 ) ) ;
#157 = DIRECTION ( 'NONE',  ( 0.000000000000000000, 0.000000000000000000, -1.000000000000000000 ) ) ;
#158 = CARTESIAN_POINT ( 'NONE',  ( 7.000000000000000000, 8.572527594031473190E-16, 0.000000000000000000 ) ) ;
#159 = CIRCLE ( 'NONE', #188, 7.000000000000000000 ) ;
#160 = APPLICATION_CONTEXT ( 'configuration controlled 3d designs of mechanical parts and assemblies' ) ;
#161 = EDGE_LOOP ( 'NONE', ( #123, #210, #271, #116 ) ) ;
#162 = LOCAL_TIME ( 11, 44, 47.00000000000000000, #250 ) ;
#163 = EDGE_CURVE ( 'NONE', #51, #98, #206, .T. ) ;
#164 = EDGE_LOOP ( 'NONE', ( #172, #77 ) ) ;
#165 = ORIENTED_EDGE ( 'NONE', *, *, #16, .T. ) ;
#166 = LINE ( 'NONE', #285, #120 ) ;
#167 = AXIS2_PLACEMENT_3D ( 'NONE', #306, #90, #157 ) ;
#168 = AXIS2_PLACEMENT_3D ( 'NONE', #295, #108, #276 ) ;
#169 = EDGE_CURVE ( 'NONE', #125, #58, #79, .T. ) ;
#170 = ORIENTED_EDGE ( 'NONE', *, *, #16, .F. ) ;
#171 = ORIENTED_EDGE ( 'NONE', *, *, #224, .T. ) ;
#172 = ORIENTED_EDGE ( 'NONE', *, *, #59, .T. ) ;
#173 = CARTESIAN_POINT ( 'NONE',  ( 0.000000000000000000, 0.000000000000000000, 5.000000000000000000 ) ) ;
#174 = SECURITY_CLASSIFICATION_LEVEL ( 'unclassified' ) ;
#175 = DIRECTION ( 'NONE',  ( 1.000000000000000000, 0.000000000000000000, 0.000000000000000000 ) ) ;
#176 = AXIS2_PLACEMENT_3D ( 'NONE', #93, #207, #259 ) ;
#177 = CALENDAR_DATE ( 2022, 20, 6 ) ;
#178 = FACE_OUTER_BOUND ( 'NONE', #270, .T. ) ;
#179 = AXIS2_PLACEMENT_3D ( 'NONE', #150, #302, #22 ) ;
#180 = COORDINATED_UNIVERSAL_TIME_OFFSET ( 1, 0, .AHEAD. ) ;
#181 = CARTESIAN_POINT ( 'NONE',  ( 0.000000000000000000, 0.000000000000000000, 5.000000000000000000 ) ) ;
#182 = PRODUCT_RELATED_PRODUCT_CATEGORY ( 'detail', '', ( #269 ) ) ;
#183 = ORIENTED_EDGE ( 'NONE', *, *, #192, .F. ) ;
#184 = PERSON_AND_ORGANIZATION ( #266, #273 ) ;
#185 = FACE_OUTER_BOUND ( 'NONE', #245, .T. ) ;
#186 = PRODUCT_DEFINITION_FORMATION_WITH_SPECIFIED_SOURCE ( 'LIBOVOLNÝ', '', #269, .NOT_KNOWN. ) ;
#187 = DIRECTION ( 'NONE',  ( -0.000000000000000000, -0.000000000000000000, -1.000000000000000000 ) ) ;
#188 = AXIS2_PLACEMENT_3D ( 'NONE', #23, #297, #200 ) ;
#189 = EDGE_CURVE ( 'NONE', #235, #194, #166, .T. ) ;
#190 = LINE ( 'NONE', #92, #85 ) ;
#191 = ORIENTED_EDGE ( 'NONE', *, *, #3, .F. ) ;
#192 = EDGE_CURVE ( 'NONE', #58, #125, #39, .T. ) ;
#193 = VECTOR ( 'NONE', #96, 1000.000000000000000 ) ;
#194 = VERTEX_POINT ( 'NONE', #158 ) ;
#195 = CIRCLE ( 'NONE', #267, 7.000000000000000000 ) ;
#196 = DIRECTION ( 'NONE',  ( -0.000000000000000000, -0.000000000000000000, -1.000000000000000000 ) ) ;
#197 = AXIS2_PLACEMENT_3D ( 'NONE', #254, #47, #202 ) ;
#198 = DIRECTION ( 'NONE',  ( -1.000000000000000000, 0.000000000000000000, 0.000000000000000000 ) ) ;
#199 = PERSON_AND_ORGANIZATION ( #266, #273 ) ;
#200 = DIRECTION ( 'NONE',  ( 1.000000000000000000, 0.000000000000000000, 0.000000000000000000 ) ) ;
#201 = CALENDAR_DATE ( 2022, 20, 6 ) ;
#202 = DIRECTION ( 'NONE',  ( 1.000000000000000000, 0.000000000000000000, 0.000000000000000000 ) ) ;
#203 = CC_DESIGN_PERSON_AND_ORGANIZATION_ASSIGNMENT ( #199, #225, ( #258 ) ) ;
#204 = DIRECTION ( 'NONE',  ( 0.000000000000000000, 0.000000000000000000, 1.000000000000000000 ) ) ;
#205 = DIRECTION ( 'NONE',  ( 1.000000000000000000, 0.000000000000000000, 0.000000000000000000 ) ) ;
#206 = CIRCLE ( 'NONE', #167, 0.1999999999999996503 ) ;
#207 = DIRECTION ( 'NONE',  ( 0.000000000000000000, 0.000000000000000000, 1.000000000000000000 ) ) ;
#208 = TOROIDAL_SURFACE ( 'NONE', #67, 4.450000000000000178, 0.2000000000000000111 ) ;
#209 = DIRECTION ( 'NONE',  ( 0.000000000000000000, 0.000000000000000000, 1.000000000000000000 ) ) ;
#210 = ORIENTED_EDGE ( 'NONE', *, *, #59, .F. ) ;
#211 = EDGE_LOOP ( 'NONE', ( #13, #75, #29, #81 ) ) ;
#212 = CARTESIAN_POINT ( 'NONE',  ( 0.000000000000000000, 0.000000000000000000, 0.000000000000000000 ) ) ;
#213 = LOCAL_TIME ( 11, 44, 47.00000000000000000, #300 ) ;
#214 = LINE ( 'NONE', #138, #193 ) ;
#215 = VERTEX_POINT ( 'NONE', #48 ) ;
#216 = PERSON_AND_ORGANIZATION_ROLE ( 'creator' ) ;
#217 = CIRCLE ( 'NONE', #176, 7.000000000000000000 ) ;
#218 = APPROVAL ( #149, 'NEURÈENÝ' ) ;
#219 = EDGE_LOOP ( 'NONE', ( #38, #170 ) ) ;
#220 = PERSON_AND_ORGANIZATION_ROLE ( 'design_owner' ) ;
#221 = PLANE ( 'NONE',  #168 ) ;
#222 = DATE_AND_TIME ( #44, #162 ) ;
#223 = CARTESIAN_POINT ( 'NONE',  ( 0.000000000000000000, 0.000000000000000000, 5.000000000000000000 ) ) ;
#224 = EDGE_CURVE ( 'NONE', #51, #215, #55, .T. ) ;
#225 = PERSON_AND_ORGANIZATION_ROLE ( 'classification_officer' ) ;
#226 = DIRECTION ( 'NONE',  ( 1.000000000000000000, 0.000000000000000000, 0.000000000000000000 ) ) ;
#227 = ADVANCED_BREP_SHAPE_REPRESENTATION ( '2b76', ( #26, #62 ), #119 ) ;
#228 = PERSON_AND_ORGANIZATION ( #266, #273 ) ;
#229 = CARTESIAN_POINT ( 'NONE',  ( 4.250000000000000000, 5.204748896376250699E-16, 5.199999999999982414 ) ) ;
#230 = PRODUCT_DEFINITION_SHAPE ( 'NONE', 'NONE',  #21 ) ;
#231 = SHAPE_DEFINITION_REPRESENTATION ( #230, #227 ) ;
#232 = LOCAL_TIME ( 11, 44, 47.00000000000000000, #180 ) ;
#233 = CYLINDRICAL_SURFACE ( 'NONE', #12, 4.250000000000000000 ) ;
#234 = CARTESIAN_POINT ( 'NONE',  ( -4.450000000000000178, 5.449678256205721784E-16, 5.199999999999982414 ) ) ;
#235 = VERTEX_POINT ( 'NONE', #262 ) ;
#236 = AXIS2_PLACEMENT_3D ( 'NONE', #54, #238, #111 ) ;
#237 = ORIENTED_EDGE ( 'NONE', *, *, #256, .F. ) ;
#238 = DIRECTION ( 'NONE',  ( 0.000000000000000000, 0.000000000000000000, 1.000000000000000000 ) ) ;
#239 =( NAMED_UNIT ( * ) PLANE_ANGLE_UNIT ( ) SI_UNIT ( $, .RADIAN. ) );
#240 = EDGE_CURVE ( 'NONE', #235, #33, #217, .T. ) ;
#241 = CC_DESIGN_APPROVAL ( #260, ( #186 ) ) ;
#242 = ORIENTED_EDGE ( 'NONE', *, *, #256, .T. ) ;
#243 = ORIENTED_EDGE ( 'NONE', *, *, #129, .T. ) ;
#244 = PERSON_AND_ORGANIZATION ( #266, #273 ) ;
#245 = EDGE_LOOP ( 'NONE', ( #261, #52, #103, #294 ) ) ;
#246 = AXIS2_PLACEMENT_3D ( 'NONE', #272, #126, #15 ) ;
#247 = APPROVAL_DATE_TIME ( #42, #218 ) ;
#248 = CC_DESIGN_APPROVAL ( #218, ( #21 ) ) ;
#249 = CYLINDRICAL_SURFACE ( 'NONE', #43, 7.000000000000000000 ) ;
#250 = COORDINATED_UNIVERSAL_TIME_OFFSET ( 1, 0, .AHEAD. ) ;
#251 = FACE_OUTER_BOUND ( 'NONE', #161, .T. ) ;
#252 = ADVANCED_FACE ( 'NONE', ( #73 ), #233, .T. ) ;
#253 = PERSON_AND_ORGANIZATION ( #266, #273 ) ;
#254 = CARTESIAN_POINT ( 'NONE',  ( 0.000000000000000000, 0.000000000000000000, 5.199999999999982414 ) ) ;
#255 = PLANE ( 'NONE',  #179 ) ;
#256 = EDGE_CURVE ( 'NONE', #125, #51, #190, .T. ) ;
#257 = AXIS2_PLACEMENT_3D ( 'NONE', #5, #4, #121 ) ;
#258 = SECURITY_CLASSIFICATION ( '', '', #174 ) ;
#259 = DIRECTION ( 'NONE',  ( 1.000000000000000000, 0.000000000000000000, 0.000000000000000000 ) ) ;
#260 = APPROVAL ( #296, 'NEURÈENÝ' ) ;
#261 = ORIENTED_EDGE ( 'NONE', *, *, #284, .F. ) ;
#262 = CARTESIAN_POINT ( 'NONE',  ( 7.000000000000000000, 8.572527594031473190E-16, 5.000000000000000000 ) ) ;
#263 = ORIENTED_EDGE ( 'NONE', *, *, #169, .F. ) ;
#264 = DIRECTION ( 'NONE',  ( 1.224646799147353207E-16, 1.000000000000000000, -0.000000000000000000 ) ) ;
#265 = APPROVAL_PERSON_ORGANIZATION ( #154, #260, #60 ) ;
#266 = PERSON ( 'NEURÈENÝ', 'NEURÈENÝ', 'NEURÈENÝ', ('NEURÈENÝ'), ('NEURÈENÝ'), ('NEURÈENÝ') ) ;
#267 = AXIS2_PLACEMENT_3D ( 'NONE', #63, #18, #128 ) ;
#268 = ORIENTED_EDGE ( 'NONE', *, *, #189, .T. ) ;
#269 = PRODUCT ( '2b76', '2b76', '', ( #99 ) ) ;
#270 = EDGE_LOOP ( 'NONE', ( #36, #89 ) ) ;
#271 = ORIENTED_EDGE ( 'NONE', *, *, #34, .T. ) ;
#272 = CARTESIAN_POINT ( 'NONE',  ( 0.000000000000000000, 0.000000000000000000, 320.0000000000000000 ) ) ;
#273 = ORGANIZATION ( 'NEURÈENÝ', 'NEURÈENÝ', '' ) ;
#274 = CARTESIAN_POINT ( 'NONE',  ( -4.250000000000000000, 0.000000000000000000, 320.0000000000000000 ) ) ;
#275 = EDGE_CURVE ( 'NONE', #98, #70, #91, .T. ) ;
#276 = DIRECTION ( 'NONE',  ( 1.000000000000000000, 0.000000000000000000, -0.000000000000000000 ) ) ;
#277 = CIRCLE ( 'NONE', #257, 7.000000000000000000 ) ;
#278 = DIRECTION ( 'NONE',  ( -0.000000000000000000, -0.000000000000000000, -1.000000000000000000 ) ) ;
#279 = EDGE_LOOP ( 'NONE', ( #263, #242, #171, #191 ) ) ;
#280 = PERSON_AND_ORGANIZATION_ROLE ( 'creator' ) ;
#281 = APPROVAL_PERSON_ORGANIZATION ( #228, #218, #14 ) ;
#282 = CARTESIAN_POINT ( 'NONE',  ( -4.450000000000000178, 5.449678256205721784E-16, 4.999999999999991118 ) ) ;
#283 = APPROVAL ( #37, 'NEURÈENÝ' ) ;
#284 = EDGE_CURVE ( 'NONE', #215, #70, #301, .T. ) ;
#285 = CARTESIAN_POINT ( 'NONE',  ( 7.000000000000000000, 8.572527594031473190E-16, 5.000000000000000000 ) ) ;
#286 = DIRECTION ( 'NONE',  ( -0.000000000000000000, -0.000000000000000000, -1.000000000000000000 ) ) ;
#287 = FACE_BOUND ( 'NONE', #145, .T. ) ;
#288 = FACE_OUTER_BOUND ( 'NONE', #102, .T. ) ;
#289 = CARTESIAN_POINT ( 'NONE',  ( -7.000000000000000000, 0.000000000000000000, 5.000000000000000000 ) ) ;
#290 = LOCAL_TIME ( 11, 44, 47.00000000000000000, #131 ) ;
#291 = CC_DESIGN_PERSON_AND_ORGANIZATION_ASSIGNMENT ( #253, #64, ( #186 ) ) ;
#292 =( LENGTH_UNIT ( ) NAMED_UNIT ( * ) SI_UNIT ( .MILLI., .METRE. ) );
#293 = CC_DESIGN_PERSON_AND_ORGANIZATION_ASSIGNMENT ( #184, #216, ( #186 ) ) ;
#294 = ORIENTED_EDGE ( 'NONE', *, *, #132, .F. ) ;
#295 = CARTESIAN_POINT ( 'NONE',  ( 0.000000000000000000, 0.000000000000000000, 0.000000000000000000 ) ) ;
#296 = APPROVAL_STATUS ( 'not_yet_approved' ) ;
#297 = DIRECTION ( 'NONE',  ( 0.000000000000000000, 0.000000000000000000, 1.000000000000000000 ) ) ;
#298 = CC_DESIGN_APPROVAL ( #283, ( #258 ) ) ;
#299 = ADVANCED_FACE ( 'NONE', ( #287, #78 ), #139, .T. ) ;
#300 = COORDINATED_UNIVERSAL_TIME_OFFSET ( 1, 0, .AHEAD. ) ;
#301 = CIRCLE ( 'NONE', #135, 0.1999999999999996503 ) ;
#302 = DIRECTION ( 'NONE',  ( 0.000000000000000000, 0.000000000000000000, 1.000000000000000000 ) ) ;
#303 = DIRECTION ( 'NONE',  ( -1.000000000000000000, 0.000000000000000000, 0.000000000000000000 ) ) ;
#304 = APPLICATION_CONTEXT ( 'configuration controlled 3d designs of mechanical parts and assemblies' ) ;
#305 = DATE_AND_TIME ( #146, #148 ) ;
#306 = CARTESIAN_POINT ( 'NONE',  ( 4.450000000000000178, 0.000000000000000000, 5.199999999999982414 ) ) ;
#307 = CC_DESIGN_DATE_AND_TIME_ASSIGNMENT ( #222, #71, ( #258 ) ) ;
ENDSEC;
END-ISO-10303-21;
